  0
SECTION
  2
HEADER
  9
$ACADVER
  1
AC1009
  9
$INSBASE
 10
0.0
 20
0.0
 30
0.0
  9
$EXTMIN
 10
0.0
 20
-79.094764855300554
 30
0.0
  9
$EXTMAX
 10
295.92735798377009
 20
179.37794919243109
 30
0.0
  9
$LIMMIN
 10
0.0
 20
0.0
  9
$LIMMAX
 10
375.0
 20
270.0
  9
$ORTHOMODE
 70
     1
  9
$REGENMODE
 70
     1
  9
$FILLMODE
 70
     1
  9
$QTEXTMODE
 70
     0
  9
$MIRRTEXT
 70
     0
  9
$DRAGMODE
 70
     2
  9
$LTSCALE
 40
5.0
  9
$OSMODE
 70
    37
  9
$ATTMODE
 70
     1
  9
$TEXTSIZE
 40
6.0
  9
$TRACEWID
 40
0.05
  9
$TEXTSTYLE
  7
STANDARD
  9
$CLAYER
  8
0
  9
$CELTYPE
  6
BYLAYER
  9
$CECOLOR
 62
   256
  9
$DIMSCALE
 40
1.0
  9
$DIMASZ
 40
3.0
  9
$DIMEXO
 40
2.0
  9
$DIMDLI
 40
0.3799999999999999
  9
$DIMRND
 40
0.0
  9
$DIMDLE
 40
0.0
  9
$DIMEXE
 40
2.0
  9
$DIMTP
 40
0.0
  9
$DIMTM
 40
0.0
  9
$DIMTXT
 40
3.2000000000000002
  9
$DIMCEN
 40
0.0
  9
$DIMTSZ
 40
0.0
  9
$DIMTOL
 70
     0
  9
$DIMLIM
 70
     0
  9
$DIMTIH
 70
     0
  9
$DIMTOH
 70
     0
  9
$DIMSE1
 70
     0
  9
$DIMSE2
 70
     0
  9
$DIMTAD
 70
     1
  9
$DIMZIN
 70
     8
  9
$DIMBLK
  1

  9
$DIMASO
 70
     0
  9
$DIMSHO
 70
     0
  9
$DIMPOST
  1

  9
$DIMAPOST
  1

  9
$DIMALT
 70
     0
  9
$DIMALTD
 70
     2
  9
$DIMALTF
 40
25.399999999999999
  9
$DIMLFAC
 40
1.0
  9
$DIMTOFL
 70
     0
  9
$DIMTVP
 40
0.0
  9
$DIMTIX
 70
     0
  9
$DIMSOXD
 70
     0
  9
$DIMSAH
 70
     0
  9
$DIMBLK1
  1

  9
$DIMBLK2
  1

  9
$DIMSTYLE
  2
STANDARD
  9
$DIMCLRD
 70
     0
  9
$DIMCLRE
 70
     0
  9
$DIMCLRT
 70
     0
  9
$DIMTFAC
 40
1.0
  9
$DIMGAP
 40
0.5
  9
$LUNITS
 70
     2
  9
$LUPREC
 70
     1
  9
$SKETCHINC
 40
0.1
  9
$FILLETRAD
 40
20.0
  9
$AUNITS
 70
     0
  9
$AUPREC
 70
     1
  9
$MENU
  1
E:\r13\win\SUPPORT\ACAD
  9
$ELEVATION
 40
0.0
  9
$PELEVATION
 40
0.0
  9
$THICKNESS
 40
0.0
  9
$LIMCHECK
 70
     0
  9
$BLIPMODE
 70
     0
  9
$CHAMFERA
 40
1.1999999999999991
  9
$CHAMFERB
 40
1.1999999999999991
  9
$SKPOLY
 70
     0
  9
$TDCREATE
 40
2449840.6320370371
  9
$TDUPDATE
 40
2457534.4032143289
  9
$TDINDWG
 40
0.7994803819
  9
$TDUSRTIMER
 40
0.7994803819
  9
$USRTIMER
 70
     1
  9
$ANGBASE
 50
0.0
  9
$ANGDIR
 70
     0
  9
$PDMODE
 70
     0
  9
$PDSIZE
 40
0.0
  9
$PLINEWID
 40
0.0
  9
$COORDS
 70
     1
  9
$SPLFRAME
 70
     0
  9
$SPLINETYPE
 70
     6
  9
$SPLINESEGS
 70
     8
  9
$ATTDIA
 70
     0
  9
$ATTREQ
 70
     1
  9
$HANDLING
 70
     1
  9
$HANDSEED
  5
CEC1
  9
$SURFTAB1
 70
     6
  9
$SURFTAB2
 70
     6
  9
$SURFTYPE
 70
     6
  9
$SURFU
 70
     6
  9
$SURFV
 70
     6
  9
$UCSNAME
  2

  9
$UCSORG
 10
0.0
 20
0.0
 30
0.0
  9
$UCSXDIR
 10
1.0
 20
0.0
 30
0.0
  9
$UCSYDIR
 10
0.0
 20
1.0
 30
0.0
  9
$PUCSNAME
  2

  9
$PUCSORG
 10
0.0
 20
0.0
 30
0.0
  9
$PUCSXDIR
 10
1.0
 20
0.0
 30
0.0
  9
$PUCSYDIR
 10
0.0
 20
1.0
 30
0.0
  9
$USERI1
 70
     0
  9
$USERI2
 70
     1
  9
$USERI3
 70
     0
  9
$USERI4
 70
     0
  9
$USERI5
 70
     0
  9
$USERR1
 40
0.0
  9
$USERR2
 40
0.0
  9
$USERR3
 40
0.0
  9
$USERR4
 40
0.0
  9
$USERR5
 40
0.0
  9
$WORLDVIEW
 70
     1
  9
$SHADEDGE
 70
     3
  9
$SHADEDIF
 70
    70
  9
$TILEMODE
 70
     1
  9
$MAXACTVP
 70
    16
  9
$PLIMCHECK
 70
     0
  9
$PEXTMIN
 10
1.0000000000000000E+020
 20
1.0000000000000000E+020
 30
1.0000000000000000E+020
  9
$PEXTMAX
 10
-1.0000000000000000E+020
 20
-1.0000000000000000E+020
 30
-1.0000000000000000E+020
  9
$PLIMMIN
 10
0.0
 20
0.0
  9
$PLIMMAX
 10
12.0
 20
9.0
  9
$UNITMODE
 70
     0
  9
$VISRETAIN
 70
     0
  9
$PLINEGEN
 70
     0
  9
$PSLTSCALE
 70
     0
  0
ENDSEC
  0
SECTION
  2
TABLES
  0
TABLE
  2
VPORT
 70
     1
  0
VPORT
  2
*ACTIVE
 70
     0
 10
0.0
 20
0.0
 11
1.0
 21
1.0
 12
172.54273504273499
 22
95.0
 13
0.0
 23
0.0
 14
10.0
 24
10.0
 15
10.0
 25
10.0
 16
0.0
 26
0.0
 36
1.0
 17
0.0
 27
0.0
 37
0.0
 40
190.0
 41
1.816239316239316
 42
50.0
 43
0.0
 44
0.0
 50
0.0
 51
0.0
 71
     0
 72
   500
 73
     1
 74
     0
 75
     0
 76
     1
 77
     0
 78
     0
  0
ENDTAB
  0
TABLE
  2
LTYPE
 70
     5
  0
LTYPE
  2
CONTINUOUS
 70
     0
  3
Solid Line
 72
    65
 73
     0
 40
0.0
  0
LTYPE
  2
CENTER
 70
     0
  3
____ _ ____ _ ____ _ ____ _ ____ _ ____ _ ____
 72
    65
 73
     4
 40
2.0
 49
1.25
 49
-0.25
 49
0.25
 49
-0.25
  0
LTYPE
  2
PHANTOM2
 70
     0
  3
___ _ _ ___ _ _ ___ _ _ ___ _ _
 72
    65
 73
     6
 40
1.25
 49
0.625
 49
-0.125
 49
0.125
 49
-0.125
 49
0.125
 49
-0.125
  0
LTYPE
  2
PHANTOM
 70
     0
  3
_____ _ _ _____ _ _ _____ _ _ _____ _ _ ____
 72
    65
 73
     6
 40
2.5
 49
1.25
 49
-0.25
 49
0.25
 49
-0.25
 49
0.25
 49
-0.25
  0
LTYPE
  2
HIDDEN
 70
     0
  3
Hidden __ __ __ __ __ __ __ __ __ __ __ __ __ __
 72
    65
 73
     2
 40
1.905
 49
1.27
 49
-0.635
  0
ENDTAB
  0
TABLE
  2
LAYER
 70
     6
  0
LAYER
  2
0
 70
     0
 62
     7
  6
CONTINUOUS
  0
LAYER
  2
1
 70
     0
 62
     1
  6
CENTER
  0
LAYER
  2
3
 70
     0
 62
     3
  6
CONTINUOUS
  0
LAYER
  2
DEFPOINTS
 70
     0
 62
     7
  6
CONTINUOUS
  0
LAYER
  2
5
 70
     0
 62
     3
  6
PHANTOM
  0
LAYER
  2
2
 70
     0
 62
     2
  6
HIDDEN
  0
ENDTAB
  0
TABLE
  2
STYLE
 70
     2
  0
STYLE
  2
STANDARD
 70
     0
 40
0.0
 41
1.0
 50
0.0
 71
     0
 42
6.0
  3
TXT
  4
BIGFONT
  0
STYLE
  2
STANDARD1
 70
     0
 40
0.0
 41
1.0
 50
0.0
 71
     0
 42
3.0
  3
txt
  4

  0
ENDTAB
  0
TABLE
  2
VIEW
 70
     1
  0
VIEW
  2
ALL
 70
     0
 40
270.0
 10
213.25689075630251
 20
135.0
 41
0.0
 11
0.0
 21
0.0
 31
1.0
 12
0.0
 22
0.0
 32
0.0
 42
0.0
 43
0.0
 44
0.0
 50
0.0
 71
     0
  0
ENDTAB
  0
TABLE
  2
UCS
 70
     0
  0
ENDTAB
  0
TABLE
  2
APPID
 70
     8
  0
APPID
  2
ACAD
 70
     0
  0
APPID
  2
ACAD_EXEMPT_FROM_CAD_STANDARDS
 70
     0
  0
APPID
  2
ACAD_MLEADERVER
 70
     0
  0
APPID
  2
ACAD_DSTYLE_DIMJAG
 70
     0
  0
APPID
  2
ACAD_DSTYLE_DIMTALN
 70
     0
  0
APPID
  2
ACAD_NAV_VCDISPLAY
 70
     0
  0
APPID
  2
ACAECLAYERSTANDARD
 70
     0
  0
APPID
  2
ACCMTRANSPARENCY
 70
     0
  0
ENDTAB
  0
TABLE
  2
DIMSTYLE
 70
     1
  0
DIMSTYLE
  2
STANDARD
 70
     0
  3

  4

  5

  6

  7

 40
1.0
 41
0.18
 42
0.0625
 43
0.38
 44
0.18
 45
0.0
 46
0.0
 47
0.0
 48
0.0
140
0.18
141
0.09
142
0.0
143
25.399999999999999
144
1.0
145
0.0
146
1.0
147
0.09
 71
     0
 72
     0
 73
     1
 74
     1
 75
     0
 76
     0
 77
     0
 78
     0
170
     0
171
     2
172
     0
173
     0
174
     0
175
     0
176
     0
177
     0
178
     0
  0
ENDTAB
  0
ENDSEC
  0
SECTION
  2
BLOCKS
  0
BLOCK
  8
0
  2
$MODEL_SPACE
 70
     0
 10
0.0
 20
0.0
 30
0.0
  3
$MODEL_SPACE
  1

  0
ENDBLK
  5
126
  8
0
  0
BLOCK
 67
     1
  8
0
  2
$PAPER_SPACE
 70
     0
 10
0.0
 20
0.0
 30
0.0
  3
$PAPER_SPACE
  1

  0
ENDBLK
  5
124
 67
     1
  8
0
  0
ENDSEC
  0
SECTION
  2
ENTITIES
  0
TEXT
  5
AB7B
  8
0
 62
     3
 10
142.51935798376891
 20
0.0
 30
0.0
 40
3.2000000000000002
  1
■ワンウェイクランパーの取付け方法(下図)
  0
TEXT
  5
AB7C
  8
0
 62
     3
 10
170.95269131710231
 20
-64.094764855300554
 30
0.0
 40
3.2000000000000002
  1
組付け状態
 72
     1
 11
180.01935798376891
 21
-64.094764855300554
 31
0.0
  0
POLYLINE
  5
ABDB
  8
5
 66
     1
 10
0.0
 20
0.0
 30
0.0
 70
     1
  0
VERTEX
  5
CEBB
  8
5
 10
142.51935798376891
 20
-10.0
 30
0.0
  0
VERTEX
  5
CEBC
  8
5
 10
267.519357983769
 20
-10.0
 30
0.0
  0
VERTEX
  5
CEBD
  8
5
 10
267.519357983769
 20
-79.094764855300554
 30
0.0
  0
VERTEX
  5
CEBE
  8
5
 10
142.51935798376891
 20
-79.094764855300554
 30
0.0
  0
SEQEND
  5
CEBF
  8
5
  0
TEXT
  5
AC2E
  8
0
 62
     3
 10
222.76602465043561
 20
-64.094764855300554
 30
0.0
 40
3.2000000000000002
  1
取付け穴
 72
     1
 11
230.019357983769
 21
-64.094764855300554
 31
0.0
  0
TEXT
  5
ADB6
  8
0
 62
     3
 10
0.0
 20
0.0
 30
0.0
 40
10.0
  1
QCOWS0616-10SUS
  7
STANDARD1
  0
TEXT
  5
AE9B
  8
0
 62
     3
 10
142.51935798376891
 20
-7.0
 30
0.0
 40
3.2000000000000002
  1
■Installation Instructions for Snap-In Clamps (see diagram below)
 41
0.85
  0
TEXT
  5
AE9C
  8
0
 62
     3
 10
158.8033579837689
 20
-71.094764855300554
 30
0.0
 40
3.2000000000000002
  1
Installed condition
 41
0.85
 72
     1
 11
180.01935798376891
 21
-71.094764855300554
 31
0.0
  0
TEXT
  5
AEA1
  8
0
 62
     3
 10
211.2966913171023
 20
-71.094764855300554
 30
0.0
 40
3.2000000000000002
  1
Installation hole
 41
0.85
 72
     1
 11
230.019357983769
 21
-71.094764855300554
 31
0.0
  0
LINE
  5
C9F5
  8
0
 10
112.0
 20
126.0
 30
0.0
 11
112.0
 21
128.37794919243109
 31
0.0
  0
LINE
  5
C9F6
  8
0
 10
101.0
 20
128.37794919243109
 30
0.0
 11
101.0
 21
126.0
 31
0.0
  0
ARC
  5
C9F7
  8
0
 10
102.0
 20
128.37794919243109
 30
0.0
 40
1.0
 50
90.0
 51
180.0
  0
ARC
  5
C9F8
  8
0
 10
111.0
 20
128.37794919243109
 30
0.0
 40
1.0
 50
0.0
 51
90.0
  0
LINE
  5
C9F9
  8
0
 10
116.0
 20
106.7
 30
0.0
 11
116.0
 21
125.0
 31
0.0
  0
LINE
  5
C9FA
  8
0
 10
115.8
 20
106.5
 30
0.0
 11
116.0
 21
106.7
 31
0.0
  0
LINE
  5
C9FB
  8
0
 10
98.0
 20
126.0
 30
0.0
 11
97.0
 21
125.0
 31
0.0
  0
LINE
  5
C9FC
  8
0
 10
97.0
 20
125.0
 30
0.0
 11
97.0
 21
106.7
 31
0.0
  0
LINE
  5
C9FD
  8
0
 10
116.0
 20
125.0
 30
0.0
 11
115.0
 21
126.0
 31
0.0
  0
LINE
  5
C9FE
  8
0
 10
97.0
 20
106.7
 30
0.0
 11
97.199999999999974
 21
106.5
 31
0.0
  0
LINE
  5
C9FF
  8
0
 10
114.5
 20
103.5143593539449
 30
0.0
 11
113.78038475772929
 21
104.76076951545861
 31
0.0
  0
LINE
  5
CA00
  8
0
 10
99.219615242270663
 20
104.76076951545861
 30
0.0
 11
98.500000000000014
 21
103.5143593539449
 31
0.0
  0
LINE
  5
CA01
  8
0
 10
98.500000000000014
 20
103.5143593539449
 30
0.0
 11
98.500000000000014
 21
97.5
 31
0.0
  0
LINE
  5
CA02
  8
0
 10
114.5
 20
97.5
 30
0.0
 11
114.5
 21
103.5143593539449
 31
0.0
  0
LINE
  5
CA03
  8
0
 10
98.500000000000014
 20
97.5
 30
0.0
 11
99.0
 21
97.0
 31
0.0
  0
LINE
  5
CA04
  8
0
 10
114.0
 20
97.0
 30
0.0
 11
114.5
 21
97.5
 31
0.0
  0
ARC
  5
CA05
  8
0
 10
98.699999999999989
 20
105.90000000000001
 30
0.0
 40
0.6000000000000086
 50
0.0
 51
90.0
  0
ARC
  5
CA06
  8
0
 10
114.3
 20
105.90000000000001
 30
0.0
 40
0.6000000000000086
 50
90.0
 51
180.0
  0
ARC
  5
CA07
  8
0
 10
114.3
 20
105.0607695154587
 30
0.0
 40
0.6000000000000086
 50
180.0
 51
210.0000000000008
  0
ARC
  5
CA08
  8
0
 10
98.699999999999989
 20
105.0607695154587
 30
0.0
 40
0.6000000000000086
 50
330.00000000000102
 51
0.0
  0
LINE
  5
CA09
  8
0
 10
113.7
 20
105.0607695154587
 30
0.0
 11
113.7
 21
105.90000000000001
 31
0.0
  0
LINE
  5
CA0A
  8
0
 10
99.300000000000011
 20
105.90000000000001
 30
0.0
 11
99.300000000000011
 21
105.0607695154587
 31
0.0
  0
LINE
  5
CA0C
  8
0
 10
102.0
 20
129.37794919243109
 30
0.0
 11
111.0
 21
129.37794919243109
 31
0.0
  0
LINE
  5
CA0E
  8
0
 10
110.74264068711931
 20
125.0
 30
0.0
 11
110.74264068711931
 21
106.7
 31
0.0
  0
LINE
  5
CA10
  8
0
 10
110.74264068711931
 20
106.7
 30
0.0
 11
110.6952353926806
 21
106.5
 31
0.0
  0
LINE
  5
CA12
  8
0
 10
116.0
 20
125.0
 30
0.0
 11
97.0
 21
125.0
 31
0.0
  0
LINE
  5
CA13
  8
0
 10
98.0
 20
126.0
 30
0.0
 11
115.0
 21
126.0
 31
0.0
  0
LINE
  5
CA14
  8
0
 10
102.25735931288069
 20
125.0
 30
0.0
 11
102.49999999999829
 21
126.0
 31
0.0
  0
LINE
  5
CA16
  8
0
 10
102.25735931288069
 20
106.7
 30
0.0
 11
102.25735931288069
 21
125.0
 31
0.0
  0
LINE
  5
CA19
  8
0
 10
110.5000000000021
 20
126.0
 30
0.0
 11
110.74264068711931
 21
125.0
 31
0.0
  0
LINE
  5
CA1C
  8
0
 10
102.3047646073194
 20
106.5
 30
0.0
 11
102.25735931288069
 21
106.7
 31
0.0
  0
LINE
  5
CA1D
  8
0
 10
115.8000000000001
 20
106.5
 30
0.0
 11
97.199999999999974
 21
106.5
 31
0.0
  0
LINE
  5
CA1F
  8
0
 10
114.5
 20
103.5143593539449
 30
0.0
 11
98.500000000000014
 21
103.5143593539449
 31
0.0
  0
LINE
  5
CA21
  8
0
 10
98.500000000000014
 20
97.5
 30
0.0
 11
114.4999999999999
 21
97.5
 31
0.0
  0
LINE
  5
CA22
  8
0
 10
114.0
 20
97.0
 30
0.0
 11
99.0
 21
97.0
 31
0.0
  0
CIRCLE
  5
CA2A
  8
0
 10
106.5
 20
167.877949192431
 30
0.0
 40
5.4999999999999849
  0
LINE
  5
CA2C
  8
0
 10
102.25735931288069
 20
176.37794919243109
 30
0.0
 11
110.74264068711931
 21
176.37794919243109
 31
0.0
  0
LINE
  5
CA2D
  8
0
 10
110.5000000000026
 20
175.377949192431
 30
0.0
 11
110.74264068711931
 21
176.37794919243109
 31
0.0
  0
LINE
  5
CA2E
  8
0
 10
110.50000000000161
 20
175.37794919243021
 30
0.0
 11
102.49999999999829
 21
175.37794919243021
 31
0.0
  0
LINE
  5
CA2F
  8
0
 10
102.25735931288069
 20
176.37794919243109
 30
0.0
 11
102.4999999999979
 21
175.377949192431
 31
0.0
  0
ARC
  5
CA30
  8
0
 10
106.5
 20
167.87794919243109
 30
0.0
 40
8.5000000000000053
 50
298.07248693586951
 51
61.927513064137912
  0
ARC
  5
CA31
  8
0
 10
106.5
 20
167.87794919243109
 30
0.0
 40
9.5000000000000142
 50
296.525352016608
 51
63.474647983391989
  0
LINE
  5
CA32
  8
0
 10
110.5000000000021
 20
160.37794919243109
 30
0.0
 11
110.74264068711931
 21
159.37794919243109
 31
0.0
  0
ARC
  5
CA33
  8
0
 10
106.5
 20
167.87794919243109
 30
0.0
 40
9.5000000000000089
 50
116.525352016608
 51
243.474647983392
  0
ARC
  5
CA34
  8
0
 10
106.5
 20
167.87794919243109
 30
0.0
 40
8.5000000000007638
 50
118.072486935862
 51
241.927513064138
  0
LINE
  5
CA35
  8
0
 10
102.25735931288069
 20
159.37794919243109
 30
0.0
 11
102.49999999999829
 21
160.377949192432
 31
0.0
  0
LINE
  5
CA37
  8
0
 10
102.49999999999829
 20
160.37794919243109
 30
0.0
 11
110.50000000000161
 21
160.377949192432
 31
0.0
  0
LINE
  5
CA38
  8
0
 10
110.74264068711931
 20
159.37794919243109
 30
0.0
 11
102.25735931288069
 21
159.37794919243109
 31
0.0
  0
ARC
  5
CA39
  8
0
 10
106.4999999999999
 20
62.355064840367973
 30
0.0
 40
1.2500000000000031
 50
270.0
 51
293.15152355720983
  0
ARC
  5
CA3A
  8
0
 10
106.4999999999999
 20
62.355064840367973
 30
0.0
 40
1.2500000000000031
 50
246.84847644279719
 51
270.0
  0
ARC
  5
CA3B
  8
0
 10
110.3550648403679
 20
58.50000000000005
 30
0.0
 40
1.250000000000014
 50
180.00000000000159
 51
203.15152355721079
  0
ARC
  5
CA3C
  8
0
 10
110.3550648403679
 20
58.50000000000005
 30
0.0
 40
1.250000000000014
 50
156.84847644278921
 51
180.00000000000159
  0
ARC
  5
CA3D
  8
0
 10
106.5
 20
54.64493515963207
 30
0.0
 40
1.2500000000000031
 50
90.0
 51
113.15152355720279
  0
ARC
  5
CA3E
  8
0
 10
106.5
 20
54.64493515963207
 30
0.0
 40
1.2500000000000051
 50
66.848476442790144
 51
90.0
  0
ARC
  5
CA3F
  8
0
 10
102.644935159632
 20
58.500000000000028
 30
0.0
 40
1.2500000000000011
 50
0.0
 51
23.151523557203529
  0
ARC
  5
CA40
  8
0
 10
102.644935159632
 20
58.500000000000028
 30
0.0
 40
1.25
 50
336.84847644279648
 51
0.0
  0
CIRCLE
  5
CA41
  8
0
 10
106.5
 20
58.500000000000028
 30
0.0
 40
2.75
  0
CIRCLE
  5
CA42
  8
0
 10
106.5
 20
58.500000000000043
 30
0.0
 40
8.0000000000000036
  0
CIRCLE
  5
CA45
  8
0
 10
106.5
 20
58.500000000000043
 30
0.0
 40
3.0000000000000031
  0
ARC
  5
CA4C
  8
0
 10
106.5
 20
58.5
 30
0.0
 40
9.5
 50
116.525352016608
 51
243.474647983392
  0
ARC
  5
CA4E
  8
0
 10
106.5
 20
58.5
 30
0.0
 40
9.5000000000000053
 50
296.525352016608
 51
63.474647983391989
  0
LINE
  5
CA50
  8
0
 10
110.74264068711931
 20
50.0
 30
0.0
 11
102.25735931288069
 21
50.0
 31
0.0
  0
LINE
  5
CA51
  8
0
 10
102.25735931288069
 20
67.0
 30
0.0
 11
110.74264068711931
 21
67.0
 31
0.0
  0
LINE
  5
CA52
  8
0
 10
63.999999999999993
 20
126.0
 30
0.0
 11
63.999999999999993
 21
128.37794919243109
 31
0.0
  0
LINE
  5
CA53
  8
0
 10
52.999999999999993
 20
128.37794919243109
 30
0.0
 11
52.999999999999993
 21
126.0
 31
0.0
  0
ARC
  5
CA54
  8
0
 10
53.999999999999993
 20
128.37794919243109
 30
0.0
 40
1.0
 50
90.0
 51
180.0
  0
ARC
  5
CA55
  8
0
 10
62.999999999999993
 20
128.37794919243109
 30
0.0
 40
1.0000000000000071
 50
0.0
 51
90.0
  0
LINE
  5
CA56
  8
0
 10
50.499999999999993
 20
97.5
 30
0.0
 11
50.999999999999993
 21
97.0
 31
0.0
  0
LINE
  5
CA57
  8
0
 10
66.0
 20
97.0
 30
0.0
 11
66.5
 21
97.5
 31
0.0
  0
LINE
  5
CA58
  8
0
 10
66.5
 20
103.5143593539449
 30
0.0
 11
65.780384757729337
 21
104.76076951545861
 31
0.0
  0
LINE
  5
CA59
  8
0
 10
51.219615242270649
 20
104.76076951545861
 30
0.0
 11
50.499999999999993
 21
103.5143593539449
 31
0.0
  0
LINE
  5
CA5A
  8
0
 10
50.499999999999993
 20
103.5143593539449
 30
0.0
 11
50.499999999999993
 21
97.5
 31
0.0
  0
LINE
  5
CA5B
  8
0
 10
66.5
 20
97.5
 30
0.0
 11
66.5
 21
103.5143593539449
 31
0.0
  0
ARC
  5
CA5C
  8
0
 10
50.699999999999982
 20
105.90000000000001
 30
0.0
 40
0.600000000000005
 50
0.0
 51
90.0
  0
ARC
  5
CA5D
  8
0
 10
66.300000000000011
 20
105.90000000000001
 30
0.0
 40
0.6000000000000015
 50
90.0
 51
180.0
  0
ARC
  5
CA5E
  8
0
 10
66.300000000000011
 20
105.0607695154587
 30
0.0
 40
0.6000000000000023
 50
180.0
 51
210.0000000000008
  0
ARC
  5
CA5F
  8
0
 10
50.699999999999982
 20
105.0607695154587
 30
0.0
 40
0.6000000000000054
 50
330.00000000000102
 51
0.0
  0
LINE
  5
CA60
  8
0
 10
65.699999999999989
 20
105.0607695154587
 30
0.0
 11
65.699999999999989
 21
105.90000000000001
 31
0.0
  0
LINE
  5
CA61
  8
0
 10
51.299999999999997
 20
105.90000000000001
 30
0.0
 11
51.299999999999997
 21
105.0607695154587
 31
0.0
  0
LINE
  5
CA62
  8
0
 10
54.000000001524882
 20
129.37794919243109
 30
0.0
 11
62.999999999999993
 21
129.37794919243109
 31
0.0
  0
LINE
  5
CA63
  8
0
 10
66.800000000000011
 20
106.5
 30
0.0
 11
67.0
 21
106.7
 31
0.0
  0
LINE
  5
CA64
  8
0
 10
66.800000000000011
 20
106.5
 30
0.0
 11
50.199999999999982
 21
106.5
 31
0.0
  0
LINE
  5
CA65
  8
0
 10
50.0
 20
106.7
 30
0.0
 11
50.199999999999982
 21
106.5
 31
0.0
  0
LINE
  5
CA67
  8
0
 10
67.0
 20
125.0
 30
0.0
 11
50.0
 21
125.0
 31
0.0
  0
LINE
  5
CA68
  8
0
 10
50.0
 20
125.0
 30
0.0
 11
50.999999999999993
 21
126.0
 31
0.0
  0
LINE
  5
CA69
  8
0
 10
51.000000000000902
 20
126.0
 30
0.0
 11
66.0
 21
126.0
 31
0.0
  0
LINE
  5
CA6A
  8
0
 10
67.0
 20
125.0
 30
0.0
 11
65.999999999999091
 21
126.0
 31
0.0
  0
LINE
  5
CA6B
  8
0
 10
50.0
 20
125.0
 30
0.0
 11
50.0
 21
106.7
 31
0.0
  0
LINE
  5
CA6C
  8
0
 10
67.0
 20
106.7
 30
0.0
 11
67.0
 21
125.0
 31
0.0
  0
LINE
  5
CA6D
  8
0
 10
50.499999999999993
 20
97.5
 30
0.0
 11
66.5
 21
97.5
 31
0.0
  0
LINE
  5
CA6E
  8
0
 10
66.0
 20
97.0
 30
0.0
 11
50.999999999999993
 21
97.0
 31
0.0
  0
LINE
  5
CA6F
  8
0
 10
66.5
 20
103.5143593539449
 30
0.0
 11
50.499999999999993
 21
103.5143593539449
 31
0.0
  0
LINE
  5
CA73
  8
0
 10
51.219615242270649
 20
104.76076951545861
 30
0.0
 11
65.780384757729351
 21
104.76076951545861
 31
0.0
  0
LINE
  5
CA96
  8
3
 10
110.74264068711931
 20
125.0
 30
0.0
 11
102.25735931288069
 21
106.6999999999997
 31
0.0
  0
LINE
  5
CA97
  8
3
 10
110.74264068711931
 20
106.7
 30
0.0
 11
102.25735931288069
 21
125.0
 31
0.0
  0
LINE
  5
CA98
  8
3
 10
99.041499999999985
 20
97.0
 30
0.0
 11
99.041499999999985
 21
104.4522648662434
 31
0.0
  0
LINE
  5
CA99
  8
3
 10
113.9585
 20
97.0
 30
0.0
 11
113.9585
 21
104.4522648662433
 31
0.0
  0
CIRCLE
  5
CA9C
  8
3
 10
106.5
 20
58.500000000000043
 30
0.0
 40
7.458500000000015
  0
LINE
  5
CA9D
  8
3
 10
51.041499999999971
 20
97.0
 30
0.0
 11
51.041499999999971
 21
104.4522648662434
 31
0.0
  0
LINE
  5
CA9E
  8
3
 10
65.958500000000015
 20
97.0
 30
0.0
 11
65.958500000000015
 21
104.4522648662434
 31
0.0
  0
LINE
  5
CAE8
  8
1
 10
106.5
 20
179.37794919243109
 30
0.0
 11
106.5
 21
156.37794919243109
 31
0.0
  0
LINE
  5
CAE9
  8
1
 10
58.500000000762427
 20
132.37794919243109
 30
0.0
 11
58.500000000762427
 21
94.0
 31
0.0
  0
LINE
  5
CAEA
  8
1
 10
119.0
 20
167.877949192431
 30
0.0
 11
94.0
 21
167.877949192431
 31
0.0
  0
LINE
  5
CAEB
  8
1
 10
119.0
 20
58.500000000000028
 30
0.0
 11
94.0
 21
58.500000000000028
 31
0.0
  0
LINE
  5
CAF8
  8
1
 10
106.5
 20
70.0
 30
0.0
 11
106.5
 21
47.0
 31
0.0
  0
LINE
  5
CAF9
  8
1
 10
106.5
 20
132.37794919243109
 30
0.0
 11
106.5
 21
94.0
 31
0.0
  0
LINE
  5
CB4A
  8
0
 10
185.51935798376891
 20
-24.594764855300539
 30
0.0
 11
185.51935798376891
 21
-22.216815662869418
 31
0.0
  0
LINE
  5
CB4B
  8
0
 10
174.51935798376891
 20
-22.216815662869418
 30
0.0
 11
174.51935798376891
 21
-24.594764855300539
 31
0.0
  0
ARC
  5
CB4C
  8
0
 10
175.51935798376891
 20
-22.216815662869418
 30
0.0
 40
1.0
 50
90.0
 51
180.0
  0
ARC
  5
CB4D
  8
0
 10
184.51935798376891
 20
-22.216815662869418
 30
0.0
 40
1.0
 50
0.0
 51
90.0
  0
LINE
  5
CB4E
  8
0
 10
189.51935798376891
 20
-43.894764855300551
 30
0.0
 11
189.51935798376891
 21
-25.594764855300539
 31
0.0
  0
LINE
  5
CB4F
  8
0
 10
189.3193579837689
 20
-44.094764855300539
 30
0.0
 11
189.51935798376891
 21
-43.894764855300551
 31
0.0
  0
LINE
  5
CB50
  8
0
 10
171.51935798376891
 20
-24.594764855300539
 30
0.0
 11
170.51935798376891
 21
-25.594764855300539
 31
0.0
  0
LINE
  5
CB51
  8
0
 10
170.51935798376891
 20
-25.594764855300539
 30
0.0
 11
170.51935798376891
 21
-43.894764855300551
 31
0.0
  0
LINE
  5
CB52
  8
0
 10
189.51935798376891
 20
-25.594764855300539
 30
0.0
 11
188.51935798376891
 21
-24.594764855300539
 31
0.0
  0
LINE
  5
CB53
  8
0
 10
170.51935798376891
 20
-43.894764855300551
 30
0.0
 11
170.7193579837689
 21
-44.094764855300539
 31
0.0
  0
LINE
  5
CB54
  8
0
 10
188.01935798376891
 20
-47.080405501355649
 30
0.0
 11
187.29974274149831
 21
-45.83399533984187
 31
0.0
  0
LINE
  5
CB55
  8
0
 10
172.7389732260396
 20
-45.83399533984187
 30
0.0
 11
172.01935798376891
 21
-47.080405501355649
 31
0.0
  0
LINE
  5
CB56
  8
0
 10
172.01935798376891
 20
-47.080405501355649
 30
0.0
 11
172.01935798376891
 21
-53.094764855300539
 31
0.0
  0
LINE
  5
CB57
  8
0
 10
188.01935798376891
 20
-53.094764855300539
 30
0.0
 11
188.01935798376891
 21
-47.080405501355649
 31
0.0
  0
LINE
  5
CB58
  8
0
 10
172.01935798376891
 20
-53.094764855300539
 30
0.0
 11
172.51935798376891
 21
-53.594764855300539
 31
0.0
  0
LINE
  5
CB59
  8
0
 10
187.51935798376891
 20
-53.594764855300539
 30
0.0
 11
188.01935798376891
 21
-53.094764855300539
 31
0.0
  0
ARC
  5
CB5A
  8
0
 10
172.2193579837689
 20
-44.694764855300527
 30
0.0
 40
0.6000000000000086
 50
0.0
 51
90.0
  0
ARC
  5
CB5B
  8
0
 10
187.8193579837689
 20
-44.694764855300527
 30
0.0
 40
0.6000000000000086
 50
90.0
 51
180.0
  0
ARC
  5
CB5C
  8
0
 10
187.8193579837689
 20
-45.533995339841859
 30
0.0
 40
0.6000000000000086
 50
180.0
 51
210.0
  0
ARC
  5
CB5D
  8
0
 10
172.2193579837689
 20
-45.533995339841859
 30
0.0
 40
0.6000000000000086
 50
330.00000000000051
 51
0.0
  0
LINE
  5
CB5E
  8
0
 10
187.2193579837689
 20
-45.533995339841859
 30
0.0
 11
187.2193579837689
 21
-44.694764855300527
 31
0.0
  0
LINE
  5
CB5F
  8
0
 10
172.8193579837689
 20
-44.694764855300527
 30
0.0
 11
172.8193579837689
 21
-45.533995339841859
 31
0.0
  0
LINE
  5
CB60
  8
0
 10
175.51935798376891
 20
-21.216815662869418
 30
0.0
 11
184.51935798376891
 21
-21.216815662869418
 31
0.0
  0
LINE
  5
CB61
  8
0
 10
184.2619986708882
 20
-25.594764855300539
 30
0.0
 11
184.2619986708882
 21
-43.894764855300551
 31
0.0
  0
LINE
  5
CB62
  8
0
 10
184.2619986708882
 20
-43.894764855300551
 30
0.0
 11
184.2145933764495
 21
-44.094764855300539
 31
0.0
  0
LINE
  5
CB63
  8
0
 10
189.51935798376891
 20
-25.594764855300539
 30
0.0
 11
170.51935798376891
 21
-25.594764855300539
 31
0.0
  0
LINE
  5
CB64
  8
0
 10
171.51935798376891
 20
-24.594764855300539
 30
0.0
 11
188.51935798376891
 21
-24.594764855300539
 31
0.0
  0
LINE
  5
CB65
  8
0
 10
175.77671729664959
 20
-25.594764855300539
 30
0.0
 11
176.01935798376729
 21
-24.594764855300539
 31
0.0
  0
LINE
  5
CB66
  8
0
 10
175.77671729664959
 20
-43.894764855300551
 30
0.0
 11
175.77671729664959
 21
-25.594764855300539
 31
0.0
  0
LINE
  5
CB67
  8
0
 10
184.0193579837711
 20
-24.594764855300539
 30
0.0
 11
184.2619986708882
 21
-25.594764855300539
 31
0.0
  0
LINE
  5
CB68
  8
0
 10
175.8241225910883
 20
-44.094764855300539
 30
0.0
 11
175.77671729664959
 21
-43.894764855300551
 31
0.0
  0
LINE
  5
CB69
  8
0
 10
189.31935798376901
 20
-44.094764855300511
 30
0.0
 11
170.7193579837689
 21
-44.094764855300539
 31
0.0
  0
LINE
  5
CB6A
  8
0
 10
188.01935798376891
 20
-47.080405501355649
 30
0.0
 11
172.01935798376891
 21
-47.080405501355649
 31
0.0
  0
LINE
  5
CB6B
  8
0
 10
172.01935798376891
 20
-53.094764855300539
 30
0.0
 11
188.01935798376891
 21
-53.094764855300539
 31
0.0
  0
LINE
  5
CB6C
  8
0
 10
187.519357983769
 20
-53.594764855300539
 30
0.0
 11
172.51935798376891
 21
-53.594764855300539
 31
0.0
  0
LINE
  5
CB6E
  8
0
 10
172.7389732260396
 20
-45.83399533984187
 30
0.0
 11
187.29974274149831
 21
-45.83399533984187
 31
0.0
  0
LINE
  5
CB6F
  8
3
 10
184.2619986708882
 20
-25.594764855300539
 30
0.0
 11
175.77671729664959
 21
-43.894764855300771
 31
0.0
  0
LINE
  5
CB70
  8
3
 10
184.2619986708882
 20
-43.894764855300551
 30
0.0
 11
175.77671729664959
 21
-25.594764855300539
 31
0.0
  0
LINE
  5
CB71
  8
3
 10
172.5608579837689
 20
-53.594764855300532
 30
0.0
 11
172.5608579837689
 21
-46.142499989057228
 31
0.0
  0
LINE
  5
CB72
  8
3
 10
187.4778579837689
 20
-53.594764855300532
 30
0.0
 11
187.4778579837689
 21
-46.142499989057129
 31
0.0
  0
LINE
  5
CB73
  8
1
 10
180.019357983769
 20
-18.216815662869418
 30
0.0
 11
180.01935798376891
 21
-56.594764855300539
 31
0.0
  0
LINE
  5
CB74
  8
0
 10
170.01935798376891
 20
-44.094764855300539
 30
0.0
 11
170.7193579837689
 21
-44.094764855300539
 31
0.0
  0
LINE
  5
CB75
  8
0
 10
165.01935798376891
 20
-54.094764855300539
 30
0.0
 11
195.01935798376891
 21
-54.094764855300539
 31
0.0
  0
LINE
  5
CB76
  8
0
 10
190.019357983769
 20
-27.59476485530055
 30
0.0
 11
190.01935798376891
 21
-44.094764855300539
 31
0.0
  0
LINE
  5
CB77
  8
0
 10
170.019357983769
 20
-27.59476485530055
 30
0.0
 11
170.01935798376891
 21
-44.094764855300539
 31
0.0
  0
LINE
  5
CB78
  8
0
 10
190.01935798376891
 20
-44.094764855300539
 30
0.0
 11
189.3193579837689
 21
-44.094764855300539
 31
0.0
  0
LINE
  5
CB79
  8
0
 10
170.51935798376891
 20
-27.094764855300539
 30
0.0
 11
165.019357983769
 21
-27.094764855300539
 31
0.0
  0
LINE
  5
CB7A
  8
0
 10
189.51935798376891
 20
-27.094764855300539
 30
0.0
 11
195.019357983769
 21
-27.094764855300539
 31
0.0
  0
LINE
  5
CB87
  8
0
 10
170.01935798376891
 20
-27.59476485530055
 30
0.0
 11
169.519357983769
 21
-27.09476485530055
 31
0.0
  0
LINE
  5
CB88
  8
0
 10
170.01935798376891
 20
-27.59476485530055
 30
0.0
 11
170.51935798376891
 21
-27.59476485530055
 31
0.0
  0
LINE
  5
CB89
  8
0
 10
190.019357983769
 20
-27.59476485530055
 30
0.0
 11
190.519357983769
 21
-27.09476485530055
 31
0.0
  0
LINE
  5
CB8A
  8
0
 10
190.019357983769
 20
-27.59476485530055
 30
0.0
 11
189.519357983769
 21
-27.59476485530055
 31
0.0
  0
LINE
  5
CBC0
  8
1
 10
230.019357983769
 20
-24.594764855300539
 30
0.0
 11
230.019357983769
 21
-56.594764855300539
 31
0.0
  0
LINE
  5
CBC1
  8
0
 10
220.019357983769
 20
-27.59476485530055
 30
0.0
 11
220.01935798376891
 21
-44.094764855300539
 31
0.0
  0
LINE
  5
CBC2
  8
0
 10
240.019357983769
 20
-27.59476485530055
 30
0.0
 11
240.019357983769
 21
-44.094764855300539
 31
0.0
  0
LINE
  5
CBC4
  8
0
 10
215.019357983769
 20
-54.094764855300539
 30
0.0
 11
245.01935798376891
 21
-54.094764855300539
 31
0.0
  0
LINE
  5
CBC6
  8
0
 10
215.019357983769
 20
-27.094764855300539
 30
0.0
 11
245.019357983769
 21
-27.094764855300539
 31
0.0
  0
LINE
  5
CBC7
  8
0
 10
240.019357983769
 20
-44.094764855300539
 30
0.0
 11
220.01935798376891
 21
-44.094764855300539
 31
0.0
  0
LINE
  5
CBCE
  8
0
 10
220.019357983769
 20
-27.59476485530055
 30
0.0
 11
219.519357983769
 21
-27.09476485530055
 31
0.0
  0
LINE
  5
CBD0
  8
0
 10
240.019357983769
 20
-27.59476485530055
 30
0.0
 11
240.519357983769
 21
-27.09476485530055
 31
0.0
  0
LINE
  5
CBD1
  8
0
 10
240.019357983769
 20
-27.59476485530055
 30
0.0
 11
220.019357983769
 21
-27.59476485530055
 31
0.0
  0
LINE
  5
CC2C
  8
0
 10
99.219615241508237
 20
104.76076951545861
 30
0.0
 11
113.7803847569669
 21
104.76076951545861
 31
0.0
  0
LINE
  5
CE0B
  8
3
 10
238.019357983769
 20
-53.636264855300332
 30
0.0
 11
238.019357983769
 21
-44.553264855298927
 31
0.0
  0
LINE
  5
CE0C
  8
3
 10
222.019357983769
 20
-44.553264855299808
 30
0.0
 11
222.01935798376891
 21
-53.636264855299451
 31
0.0
  0
LINE
  5
CE0D
  8
0
 10
222.56085798376901
 20
-53.09476485529931
 30
0.0
 11
222.5608579837689
 21
-45.094764855299744
 31
0.0
  0
LINE
  5
CE0E
  8
0
 10
237.4778579837691
 20
-53.094764855299537
 30
0.0
 11
237.4778579837689
 21
-45.094764855299651
 31
0.0
  0
LINE
  5
CE0F
  8
0
 10
221.56085798376881
 20
-44.09476485529963
 30
0.0
 11
222.5608579837689
 21
-45.094764855299744
 31
0.0
  0
LINE
  5
CE10
  8
0
 10
222.5608579837689
 20
-45.094764855299744
 30
0.0
 11
237.47785798376881
 21
-45.094764855299651
 31
0.0
  0
LINE
  5
CE11
  8
0
 10
238.4778579837691
 20
-44.094764855298642
 30
0.0
 11
237.47785798376921
 21
-45.094764855298862
 31
0.0
  0
LINE
  5
CE12
  8
0
 10
221.56085798376881
 20
-54.094764855299537
 30
0.0
 11
222.5608579837689
 21
-53.094764855299431
 31
0.0
  0
LINE
  5
CE13
  8
0
 10
222.5608579837689
 20
-53.094764855299431
 30
0.0
 11
237.4778579837689
 21
-53.094764855299537
 31
0.0
  0
LINE
  5
CE14
  8
0
 10
238.4778579837691
 20
-54.094764855300539
 30
0.0
 11
237.47785798376921
 21
-53.094764855300312
 31
0.0
  0
LINE
  5
CE1F
  8
3
 10
188.019357983769
 20
-53.636264855300311
 30
0.0
 11
188.019357983769
 21
-53.09476485530044
 31
0.0
  0
LINE
  5
CE20
  8
3
 10
172.019357983769
 20
-44.553264855299801
 30
0.0
 11
172.019357983769
 21
-47.0804055013555
 31
0.0
  0
LINE
  5
CE21
  8
0
 10
172.5608579837689
 20
-46.142499989057271
 30
0.0
 11
172.5608579837689
 21
-45.094764855299722
 31
0.0
  0
LINE
  5
CE22
  8
0
 10
187.4778579837689
 20
-46.142499989057093
 30
0.0
 11
187.4778579837689
 21
-45.094764855299637
 31
0.0
  0
LINE
  5
CE23
  8
0
 10
171.56085798376881
 20
-44.094764855299609
 30
0.0
 11
172.5608579837689
 21
-45.094764855299722
 31
0.0
  0
LINE
  5
CE24
  8
0
 10
172.5608579837689
 20
-45.094764855299722
 30
0.0
 11
187.47785798376881
 21
-45.094764855299637
 31
0.0
  0
LINE
  5
CE25
  8
0
 10
188.4778579837691
 20
-44.094764855298621
 30
0.0
 11
187.4778579837691
 21
-45.094764855298848
 31
0.0
  0
LINE
  5
CE26
  8
0
 10
171.56085798376881
 20
-54.09476485529953
 30
0.0
 11
172.29010798376831
 21
-53.365514855299978
 31
0.0
  0
LINE
  5
CE27
  8
0
 10
172.5608579837689
 20
-53.09476485529941
 30
0.0
 11
187.47785798376881
 21
-53.09476485529953
 31
0.0
  0
LINE
  5
CE28
  8
0
 10
188.4778579837691
 20
-54.094764855300532
 30
0.0
 11
187.74860798376909
 21
-53.36551485530034
 31
0.0
  0
LINE
  5
CE29
  8
3
 10
188.01935798376891
 20
-47.080405501355628
 30
0.0
 11
188.01935798376891
 21
-44.55326485529892
 31
0.0
  0
LINE
  5
CE2A
  8
3
 10
172.01935798376891
 20
-53.094764855300497
 30
0.0
 11
172.01935798376891
 21
-53.63626485529943
 31
0.0
  0
ENDSEC
  0
EOF
