  0
SECTION
  2
HEADER
  9
$ACADVER
  1
AC1009
  9
$INSBASE
 10
0.0
 20
0.0
 30
0.0
  9
$EXTMIN
 10
0.0
 20
-2.960436562073669
 30
0.0
  9
$EXTMAX
 10
560.69388925945123
 20
454.72433711948167
 30
0.0
  9
$LIMMIN
 10
0.0
 20
0.0
  9
$LIMMAX
 10
375.0
 20
270.0
  9
$ORTHOMODE
 70
     0
  9
$REGENMODE
 70
     1
  9
$FILLMODE
 70
     1
  9
$QTEXTMODE
 70
     0
  9
$MIRRTEXT
 70
     0
  9
$DRAGMODE
 70
     2
  9
$LTSCALE
 40
10.0
  9
$OSMODE
 70
  3071
  9
$ATTMODE
 70
     1
  9
$TEXTSIZE
 40
0.2
  9
$TRACEWID
 40
0.05
  9
$TEXTSTYLE
  7
STANDARD
  9
$CLAYER
  8
0
  9
$CELTYPE
  6
BYLAYER
  9
$CECOLOR
 62
   256
  9
$DIMSCALE
 40
1.0
  9
$DIMASZ
 40
3.0
  9
$DIMEXO
 40
2.0
  9
$DIMDLI
 40
10.0
  9
$DIMRND
 40
0.0
  9
$DIMDLE
 40
0.0
  9
$DIMEXE
 40
2.0
  9
$DIMTP
 40
0.0
  9
$DIMTM
 40
0.0
  9
$DIMTXT
 40
3.2000000000000002
  9
$DIMCEN
 40
0.09
  9
$DIMTSZ
 40
0.0
  9
$DIMTOL
 70
     0
  9
$DIMLIM
 70
     0
  9
$DIMTIH
 70
     0
  9
$DIMTOH
 70
     0
  9
$DIMSE1
 70
     0
  9
$DIMSE2
 70
     0
  9
$DIMTAD
 70
     1
  9
$DIMZIN
 70
     0
  9
$DIMBLK
  1

  9
$DIMASO
 70
     0
  9
$DIMSHO
 70
     0
  9
$DIMPOST
  1

  9
$DIMAPOST
  1

  9
$DIMALT
 70
     0
  9
$DIMALTD
 70
     2
  9
$DIMALTF
 40
25.399999999999999
  9
$DIMLFAC
 40
1.0
  9
$DIMTOFL
 70
     1
  9
$DIMTVP
 40
1.6000000000000001
  9
$DIMTIX
 70
     0
  9
$DIMSOXD
 70
     0
  9
$DIMSAH
 70
     0
  9
$DIMBLK1
  1

  9
$DIMBLK2
  1

  9
$DIMSTYLE
  2
STANDARD
  9
$DIMCLRD
 70
     0
  9
$DIMCLRE
 70
     0
  9
$DIMCLRT
 70
     0
  9
$DIMTFAC
 40
1.0
  9
$DIMGAP
 40
0.09
  9
$LUNITS
 70
     2
  9
$LUPREC
 70
     4
  9
$SKETCHINC
 40
0.1
  9
$FILLETRAD
 40
0.0
  9
$AUNITS
 70
     0
  9
$AUPREC
 70
     0
  9
$MENU
  1
E:\r13\win\SUPPORT\ACAD
  9
$ELEVATION
 40
0.0
  9
$PELEVATION
 40
0.0
  9
$THICKNESS
 40
0.0
  9
$LIMCHECK
 70
     0
  9
$BLIPMODE
 70
     0
  9
$CHAMFERA
 40
0.0
  9
$CHAMFERB
 40
0.0
  9
$SKPOLY
 70
     0
  9
$TDCREATE
 40
2449840.6171180559
  9
$TDUPDATE
 40
2456597.7283860422
  9
$TDINDWG
 40
0.280453125
  9
$TDUSRTIMER
 40
0.280453125
  9
$USRTIMER
 70
     1
  9
$ANGBASE
 50
0.0
  9
$ANGDIR
 70
     0
  9
$PDMODE
 70
     0
  9
$PDSIZE
 40
0.0
  9
$PLINEWID
 40
0.0
  9
$COORDS
 70
     1
  9
$SPLFRAME
 70
     0
  9
$SPLINETYPE
 70
     6
  9
$SPLINESEGS
 70
     8
  9
$ATTDIA
 70
     0
  9
$ATTREQ
 70
     1
  9
$HANDLING
 70
     1
  9
$HANDSEED
  5
2AE0
  9
$SURFTAB1
 70
     6
  9
$SURFTAB2
 70
     6
  9
$SURFTYPE
 70
     6
  9
$SURFU
 70
     6
  9
$SURFV
 70
     6
  9
$UCSNAME
  2

  9
$UCSORG
 10
0.0
 20
0.0
 30
0.0
  9
$UCSXDIR
 10
1.0
 20
0.0
 30
0.0
  9
$UCSYDIR
 10
0.0
 20
1.0
 30
0.0
  9
$PUCSNAME
  2

  9
$PUCSORG
 10
0.0
 20
0.0
 30
0.0
  9
$PUCSXDIR
 10
1.0
 20
0.0
 30
0.0
  9
$PUCSYDIR
 10
0.0
 20
1.0
 30
0.0
  9
$USERI1
 70
     0
  9
$USERI2
 70
     1
  9
$USERI3
 70
     0
  9
$USERI4
 70
     0
  9
$USERI5
 70
     0
  9
$USERR1
 40
0.0
  9
$USERR2
 40
0.0
  9
$USERR3
 40
0.0
  9
$USERR4
 40
0.0
  9
$USERR5
 40
0.0
  9
$WORLDVIEW
 70
     1
  9
$SHADEDGE
 70
     3
  9
$SHADEDIF
 70
    70
  9
$TILEMODE
 70
     1
  9
$MAXACTVP
 70
    16
  9
$PLIMCHECK
 70
     0
  9
$PEXTMIN
 10
1.0000000000000000E+020
 20
1.0000000000000000E+020
 30
1.0000000000000000E+020
  9
$PEXTMAX
 10
-1.0000000000000000E+020
 20
-1.0000000000000000E+020
 30
-1.0000000000000000E+020
  9
$PLIMMIN
 10
0.0
 20
0.0
  9
$PLIMMAX
 10
12.0
 20
9.0
  9
$UNITMODE
 70
     0
  9
$VISRETAIN
 70
     0
  9
$PLINEGEN
 70
     0
  9
$PSLTSCALE
 70
     0
  0
ENDSEC
  0
SECTION
  2
TABLES
  0
TABLE
  2
VPORT
 70
     1
  0
VPORT
  2
*ACTIVE
 70
     0
 10
0.0
 20
0.0
 11
1.0
 21
1.0
 12
280.34694593519288
 22
252.48470277394151
 13
0.0
 23
0.0
 14
10.0
 24
10.0
 15
10.0
 25
10.0
 16
0.0
 26
0.0
 36
1.0
 17
0.0
 27
0.0
 37
0.0
 40
517.31128770449254
 41
2.304913294797688
 42
50.0
 43
0.0
 44
0.0
 50
0.0
 51
0.0
 71
     0
 72
   100
 73
     1
 74
     0
 75
     0
 76
     0
 77
     0
 78
     0
  0
ENDTAB
  0
TABLE
  2
LTYPE
 70
     4
  0
LTYPE
  2
CONTINUOUS
 70
     0
  3
Solid Line
 72
    65
 73
     0
 40
0.0
  0
LTYPE
  2
CENTER
 70
     0
  3
____ _ ____ _ ____ _ ____ _ ____ _ ____ _ ____
 72
    65
 73
     4
 40
2.0
 49
1.25
 49
-0.25
 49
0.25
 49
-0.25
  0
LTYPE
  2
HIDDEN
 70
     0
  3
Hidden __ __ __ __ __ __ __ __ __ __ __ __ __ _
 72
    65
 73
     2
 40
0.375
 49
0.25
 49
-0.125
  0
LTYPE
  2
PHANTOM2
 70
     0
  3
___ _ _ ___ _ _ ___ _ _ ___ _ _
 72
    65
 73
     6
 40
1.25
 49
0.625
 49
-0.125
 49
0.125
 49
-0.125
 49
0.125
 49
-0.125
  0
ENDTAB
  0
TABLE
  2
LAYER
 70
     5
  0
LAYER
  2
0
 70
     0
 62
     7
  6
CONTINUOUS
  0
LAYER
  2
1
 70
     0
 62
     1
  6
CENTER
  0
LAYER
  2
3
 70
     0
 62
     3
  6
CONTINUOUS
  0
LAYER
  2
2
 70
     0
 62
     2
  6
HIDDEN
  0
LAYER
  2
DEFPOINTS
 70
     0
 62
     7
  6
CONTINUOUS
  0
ENDTAB
  0
TABLE
  2
STYLE
 70
     2
  0
STYLE
  2
STANDARD
 70
     0
 40
0.0
 41
1.0
 50
0.0
 71
     0
 42
0.2
  3
TXT
  4
BIGFONT
  0
STYLE
  2
STANDARD1
 70
     0
 40
0.0
 41
1.0
 50
0.0
 71
     0
 42
3.0
  3
txt
  4

  0
ENDTAB
  0
TABLE
  2
VIEW
 70
     1
  0
VIEW
  2
ALL
 70
     0
 40
270.0
 10
220.99159700000001
 20
135.0
 41
0.0
 11
0.0
 21
0.0
 31
1.0
 12
0.0
 22
0.0
 32
0.0
 42
0.0
 43
0.0
 44
0.0
 50
0.0
 71
     0
  0
ENDTAB
  0
TABLE
  2
UCS
 70
     0
  0
ENDTAB
  0
TABLE
  2
APPID
 70
     4
  0
APPID
  2
ACAD
 70
     0
  0
APPID
  2
ACAD_EXEMPT_FROM_CAD_STANDARDS
 70
     0
  0
APPID
  2
ACAD_MLEADERVER
 70
     0
  0
APPID
  2
ACAD_NAV_VCDISPLAY
 70
     0
  0
ENDTAB
  0
TABLE
  2
DIMSTYLE
 70
     1
  0
DIMSTYLE
  2
STANDARD
 70
     0
  3

  4

  5

  6

  7

 40
1.0
 41
0.18
 42
0.0625
 43
0.38
 44
0.18
 45
0.0
 46
0.0
 47
0.0
 48
0.0
140
0.18
141
0.09
142
0.0
143
25.399999999999999
144
1.0
145
0.0
146
1.0
147
0.09
 71
     0
 72
     0
 73
     1
 74
     1
 75
     0
 76
     0
 77
     0
 78
     0
170
     0
171
     2
172
     0
173
     0
174
     0
175
     0
176
     0
177
     0
178
     0
  0
ENDTAB
  0
ENDSEC
  0
SECTION
  2
BLOCKS
  0
BLOCK
  8
0
  2
$MODEL_SPACE
 70
     0
 10
0.0
 20
0.0
 30
0.0
  3
$MODEL_SPACE
  1

  0
ENDBLK
  5
E8
  8
0
  0
BLOCK
 67
     1
  8
0
  2
$PAPER_SPACE
 70
     0
 10
0.0
 20
0.0
 30
0.0
  3
$PAPER_SPACE
  1

  0
ENDBLK
  5
E6
 67
     1
  8
0
  0
ENDSEC
  0
SECTION
  2
ENTITIES
  0
LINE
  5
2695
  8
2
 10
231.51327020185531
 20
158.98764204582531
 30
0.0
 11
231.51327020185531
 21
143.98764204582531
 31
0.0
  0
LINE
  5
2696
  8
2
 10
220.51327020185531
 20
158.98764204582531
 30
0.0
 11
220.51327020185531
 21
143.98764204582531
 31
0.0
  0
LINE
  5
2697
  8
2
 10
161.51327020185531
 20
158.98764204582531
 30
0.0
 11
161.51327020185531
 21
143.98764204582531
 31
0.0
  0
LINE
  5
2698
  8
2
 10
150.51327020185531
 20
158.98764204582531
 30
0.0
 11
150.51327020185531
 21
143.98764204582531
 31
0.0
  0
LINE
  5
26A7
  8
0
 10
202.01327020185531
 20
243.98764204582531
 30
0.0
 11
202.01327019305529
 21
273.98764204582528
 31
0.0
  0
LINE
  5
26A8
  8
0
 10
202.01327020185531
 20
243.98764204582531
 30
0.0
 11
180.01327020185531
 21
243.98764204582531
 31
0.0
  0
LINE
  5
26A9
  8
0
 10
180.01327020185531
 20
243.98764204582531
 30
0.0
 11
180.01327021065529
 21
273.98764204582528
 31
0.0
  0
LINE
  5
26AB
  8
0
 10
207.3722540759031
 20
273.98764204582528
 30
0.0
 11
207.37225406147201
 21
244.98764204332531
 31
0.0
  0
LINE
  5
26AC
  8
0
 10
202.01327020185531
 20
244.9876420383253
 30
0.0
 11
216.01327020185531
 21
244.98764205138741
 31
0.0
  0
LINE
  5
26AE
  8
0
 10
174.6542863344792
 20
273.98764204582528
 30
0.0
 11
174.6542863486637
 21
244.98764204582531
 31
0.0
  0
LINE
  5
26AF
  8
0
 10
166.01327020185531
 20
244.98764205388741
 30
0.0
 11
180.01327020185531
 21
244.98764204082531
 31
0.0
  0
LINE
  5
26B1
  8
0
 10
169.36263512375669
 20
273.98764204582528
 30
0.0
 11
169.36263511365041
 21
244.98764204582531
 31
0.0
  0
LINE
  5
26B3
  8
0
 10
166.01327020185531
 20
273.98764204582528
 30
0.0
 11
216.01327020185531
 21
273.98764204582528
 31
0.0
  0
LINE
  5
26B4
  8
0
 10
212.66390529888241
 20
244.98764204582531
 30
0.0
 11
212.66390528871679
 21
273.98764204582528
 31
0.0
  0
LINE
  5
26BB
  8
0
 10
178.01327020185531
 20
277.38764204582532
 30
0.0
 11
204.01327020185531
 21
277.38764204582532
 31
0.0
  0
LINE
  5
26C0
  8
0
 10
181.86227971985531
 20
299.38764204582532
 30
0.0
 11
200.1642606838553
 21
299.38764204582532
 31
0.0
  0
LINE
  5
26C1
  8
0
 10
191.0132702017635
 20
277.38764204582532
 30
0.0
 11
191.01327019842111
 21
292.60029323867002
 31
0.0
  0
LINE
  5
26C2
  8
0
 10
181.5132702051441
 20
298.08512080416273
 30
0.0
 11
181.5132702114613
 21
277.38764204582532
 31
0.0
  0
LINE
  5
26C3
  8
0
 10
200.51327020187441
 20
298.08512079181742
 30
0.0
 11
200.51327019199931
 21
277.38764204582532
 31
0.0
  0
LINE
  5
26C4
  8
0
 10
194.32989499553301
 20
302.48764204582528
 30
0.0
 11
194.32989500177209
 21
299.38764204582532
 31
0.0
  0
LINE
  5
26C5
  8
0
 10
187.69664540243849
 20
299.38764204582532
 30
0.0
 11
187.6966454086776
 21
302.48764204582528
 31
0.0
  0
LINE
  5
26C7
  8
0
 10
196.01327019771671
 20
299.38764204582532
 30
0.0
 11
196.01327020185531
 21
302.48764204582528
 31
0.0
  0
LINE
  5
26C9
  8
0
 10
186.013270205916
 20
299.38764204582532
 30
0.0
 11
186.0132702017774
 21
302.48764204582528
 31
0.0
  0
LINE
  5
26CA
  8
0
 10
186.0132702017774
 20
302.48764204582528
 30
0.0
 11
196.01327020185531
 21
302.48764204582528
 31
0.0
  0
LINE
  5
26CC
  8
0
 10
211.0132701993553
 20
143.98764204582531
 30
0.0
 11
211.0132701993553
 21
158.98764204582531
 31
0.0
  0
LINE
  5
26CE
  8
0
 10
166.01327020185531
 20
237.48764204582531
 30
0.0
 11
216.01327020185531
 21
237.48764204582531
 31
0.0
  0
LINE
  5
26CF
  8
0
 10
171.01327020185531
 20
158.98764204582531
 30
0.0
 11
171.01327020185531
 21
143.98764204582531
 31
0.0
  0
LINE
  5
26D3
  8
0
 10
146.01327020185531
 20
158.98764204582531
 30
0.0
 11
236.01327020185531
 21
158.98764204582531
 31
0.0
  0
LINE
  5
26D4
  8
0
 10
146.01327020185531
 20
143.98764204582531
 30
0.0
 11
236.01327020185531
 21
143.98764204582531
 31
0.0
  0
LINE
  5
26D5
  8
0
 10
178.01327020185531
 20
133.98764204582531
 30
0.0
 11
204.01327020185531
 21
133.98764204582531
 31
0.0
  0
LINE
  5
26D6
  8
1
 10
191.01327020185531
 20
123.9876420458253
 30
0.0
 11
191.01327020185531
 21
312.48764204582528
 31
0.0
  0
LINE
  5
26D7
  8
1
 10
156.01327020185519
 20
139.57258995909311
 30
0.0
 11
156.01327020185531
 21
164.57258995909311
 31
0.0
  0
LINE
  5
26D8
  8
1
 10
226.01327020185531
 20
139.57258995909311
 30
0.0
 11
226.01327020185531
 21
164.57258995909311
 31
0.0
  0
LINE
  5
26D9
  8
1
 10
352.44788193674071
 20
434.72433711948167
 30
0.0
 11
373.4478819367406
 21
434.7243371194815
 31
0.0
  0
LINE
  5
26DA
  8
1
 10
352.44788193674037
 20
364.72433711948179
 30
0.0
 11
373.44788193674037
 21
364.72433711948162
 31
0.0
  0
LINE
  5
26DB
  8
1
 10
362.94788193385563
 20
454.72433711948167
 30
0.0
 11
362.94788193385511
 21
344.72433711948167
 31
0.0
  0
LINE
  5
26DC
  8
1
 10
307.94788193674009
 20
409.82433711948181
 30
0.0
 11
307.94788193673998
 21
389.62433711948188
 31
0.0
  0
LINE
  5
26DD
  8
1
 10
286.94788194554008
 20
399.72433711794332
 30
0.0
 11
397.94788193674049
 21
399.72433711794281
 31
0.0
  0
LINE
  5
26DE
  8
0
 10
321.28247312274021
 20
410.72433711068169
 30
0.0
 11
307.94788193462438
 21
410.7243371106818
 31
0.0
  0
ARC
  5
26DF
  8
0
 10
321.28247312274033
 20
450.72433711948167
 30
0.0
 40
40.000000008799987
 50
270.00000000000068
 51
300.00000007276162
  0
LINE
  5
26E0
  8
0
 10
350.4478819002718
 20
421.37497219758018
 30
0.0
 11
341.28247317056781
 21
416.0833209868577
 31
0.0
  0
ARC
  5
26E1
  8
0
 10
362.94788193674009
 20
399.72433711948167
 30
0.0
 40
25.000000003933991
 50
239.99999995001181
 51
120.00000009130351
  0
LINE
  5
26E2
  8
0
 10
341.2824731821101
 20
383.36535324543399
 30
0.0
 11
350.44788191602822
 21
378.07370203262019
 31
0.0
  0
ARC
  5
26E3
  8
0
 10
321.28247312273987
 20
348.72433711948179
 30
0.0
 40
40.000000008800043
 50
59.999999908142343
 51
90.000000005729376
  0
LINE
  5
26E4
  8
0
 10
307.94788193673998
 20
388.72433712828189
 30
0.0
 11
321.28247311874009
 21
388.72433712828189
 31
0.0
  0
ARC
  5
26E5
  8
0
 10
307.94788193674009
 20
399.72433711948179
 30
0.0
 40
10.99999999120001
 50
90.000000011020106
 51
270.00000000000051
  0
CIRCLE
  5
26E6
  8
0
 10
307.94788193674009
 20
399.72433711948179
 30
0.0
 40
5.099999999999965
  0
ARC
  5
26E7
  8
0
 10
356.34659272874012
 20
415.66125905548171
 30
0.0
 40
5.0000000000000622
 50
319.59942310469802
 51
265.40057689301699
  0
ARC
  5
26E8
  8
0
 10
347.01096000074023
 20
406.3256263274817
 30
0.0
 40
5.0
 50
4.599423106984446
 51
270.00000000000023
  0
ARC
  5
26E9
  8
0
 10
347.01096000074023
 20
406.3256263274817
 30
0.0
 40
5.0
 50
270.00000000000023
 51
310.40057689530261
  0
POLYLINE
  5
26EA
  8
0
 66
     1
 10
0.0
 20
0.0
 30
0.0
 70
   128
  0
VERTEX
  5
2A48
  8
0
 10
375.14547391174011
 20
406.92192909448158
 30
0.0
  0
VERTEX
  5
2A49
  8
0
 10
374.27723302340547
 20
406.9978903294205
 30
0.0
  0
VERTEX
  5
2A4A
  8
0
 10
373.60864291732139
 20
407.1639725483796
 30
0.0
  0
SEQEND
  5
2A4B
  8
0
  0
ARC
  5
26EB
  8
0
 10
375.14547391174011
 20
411.92192909448153
 30
0.0
 40
5.0
 50
270.0000000000008
 51
197.90057688082589
  0
ARC
  5
26EC
  8
0
 10
356.34659272874001
 20
383.7874151834817
 30
0.0
 40
5.0
 50
94.599423106983068
 51
270.0000000000008
  0
ARC
  5
26ED
  8
0
 10
356.34659272874001
 20
383.7874151834817
 30
0.0
 40
5.0000000000000311
 50
270.0000000000008
 51
40.400576895301377
  0
ARC
  5
26EE
  8
0
 10
347.01096000074011
 20
393.12304791148171
 30
0.0
 40
5.0
 50
49.599423104698189
 51
270.00000000000023
  0
ARC
  5
26EF
  8
0
 10
347.01096000074011
 20
393.12304791148171
 30
0.0
 40
5.0
 50
270.00000000000023
 51
355.4005768930171
  0
ARC
  5
26F0
  8
0
 10
375.14547391174
 20
387.52674514448171
 30
0.0
 40
5.0
 50
162.09942311917359
 51
270.00000000000023
  0
ARC
  5
26F1
  8
0
 10
375.14547391174
 20
387.52674514448171
 30
0.0
 40
5.0000000000000169
 50
270.00000000000023
 51
107.9005768808255
  0
LINE
  5
26F2
  8
0
 10
377.41800860537791
 20
389.30689103386851
 30
0.0
 11
377.82339282426148
 21
386.4487453149822
 31
0.0
  0
LINE
  5
26F3
  8
0
 10
374.74008969749701
 20
390.3848908669305
 30
0.0
 11
377.41800860537791
 21
389.30689103386851
 31
0.0
  0
LINE
  5
26F4
  8
0
 10
372.46755499950223
 20
388.60474497375742
 30
0.0
 11
374.74008969749701
 21
390.3848908669305
 31
0.0
  0
LINE
  5
26F5
  8
0
 10
372.87293921916893
 20
385.74659925379012
 30
0.0
 11
372.46755499950223
 21
388.60474497375742
 31
0.0
  0
LINE
  5
26F6
  8
0
 10
375.55085812655039
 20
384.66859942158538
 30
0.0
 11
372.87293921916893
 21
385.74659925379012
 31
0.0
  0
LINE
  5
26F7
  8
0
 10
377.82339282426148
 20
386.4487453149822
 30
0.0
 11
375.55085812655039
 21
384.66859942158538
 31
0.0
  0
LINE
  5
26F8
  8
0
 10
375.14547391194799
 20
409.03517775080161
 30
0.0
 11
372.64547391267018
 21
410.47855341968159
 31
0.0
  0
LINE
  5
26F9
  8
0
 10
377.64547391056021
 20
410.47855341918148
 30
0.0
 11
375.14547391194799
 21
409.03517775080161
 31
0.0
  0
LINE
  5
26FA
  8
0
 10
377.64547391081021
 20
413.36530476928158
 30
0.0
 11
377.64547391056021
 21
410.47855341918148
 31
0.0
  0
LINE
  5
26FB
  8
0
 10
375.1454739109866
 20
414.80868043858231
 30
0.0
 11
377.64547391081021
 21
413.36530476928158
 31
0.0
  0
LINE
  5
26FC
  8
0
 10
372.64547391267018
 20
413.36530476928158
 30
0.0
 11
375.1454739109866
 21
414.80868043858231
 31
0.0
  0
LINE
  5
26FD
  8
0
 10
372.64547391267018
 20
410.47855341968159
 30
0.0
 11
372.64547391267018
 21
413.36530476928158
 31
0.0
  0
LINE
  5
26FE
  8
0
 10
356.34659272798649
 20
380.90066383938091
 30
0.0
 11
353.84659272967008
 21
382.3440395086817
 31
0.0
  0
LINE
  5
26FF
  8
0
 10
358.84659272755999
 20
382.34403950818171
 30
0.0
 11
356.34659272798649
 21
380.90066383938091
 31
0.0
  0
LINE
  5
2700
  8
0
 10
358.8465927278101
 20
385.23079085828169
 30
0.0
 11
358.84659272755999
 21
382.34403950818171
 31
0.0
  0
LINE
  5
2701
  8
0
 10
356.34659272798649
 20
386.67416652758249
 30
0.0
 11
358.8465927278101
 21
385.23079085828169
 31
0.0
  0
LINE
  5
2702
  8
0
 10
353.84659272967008
 20
385.23079085828169
 30
0.0
 11
356.34659272798649
 21
386.67416652758249
 31
0.0
  0
LINE
  5
2703
  8
0
 10
353.84659272967008
 20
382.3440395086817
 30
0.0
 11
353.84659272967008
 21
385.23079085828169
 31
0.0
  0
LINE
  5
2704
  8
0
 10
354.30535127811419
 20
417.70250050634701
 30
0.0
 11
357.09373895377638
 21
418.44964673517092
 31
0.0
  0
LINE
  5
2705
  8
0
 10
353.5582050488174
 20
414.91411283096488
 30
0.0
 11
354.30535127811419
 21
417.70250050634701
 31
0.0
  0
LINE
  5
2706
  8
0
 10
355.59944650400678
 20
412.8728713755952
 30
0.0
 11
353.5582050488174
 21
414.91411283096488
 31
0.0
  0
LINE
  5
2707
  8
0
 10
358.38783418008722
 20
413.6200176049158
 30
0.0
 11
355.59944650400678
 21
412.8728713755952
 31
0.0
  0
LINE
  5
2708
  8
0
 10
357.09373895377638
 20
418.44964673517092
 30
0.0
 11
359.13498040860998
 21
416.40840528044549
 31
0.0
  0
LINE
  5
2709
  8
0
 10
359.13498040860998
 20
416.40840528044549
 30
0.0
 11
358.38783418008722
 21
413.6200176049158
 31
0.0
  0
LINE
  5
270A
  8
0
 10
344.12420865663938
 20
406.32562632823527
 30
0.0
 11
345.56758432594017
 21
408.82562632655168
 31
0.0
  0
LINE
  5
270B
  8
0
 10
345.56758432544012
 20
403.82562632866171
 30
0.0
 11
344.12420865663938
 21
406.32562632823527
 31
0.0
  0
LINE
  5
270C
  8
0
 10
348.45433567554011
 20
403.8256263284116
 30
0.0
 11
345.56758432544012
 21
403.82562632866171
 31
0.0
  0
LINE
  5
270D
  8
0
 10
349.8977113448409
 20
406.32562632823527
 30
0.0
 11
348.45433567554011
 21
403.8256263284116
 31
0.0
  0
LINE
  5
270E
  8
0
 10
348.45433567554011
 20
408.82562632655168
 30
0.0
 11
349.8977113448409
 21
406.32562632823527
 31
0.0
  0
LINE
  5
270F
  8
0
 10
345.56758432594017
 20
408.82562632655168
 30
0.0
 11
348.45433567554011
 21
408.82562632655168
 31
0.0
  0
LINE
  5
2710
  8
0
 10
344.9697185498747
 20
391.08180646085572
 30
0.0
 11
344.22257232105079
 21
393.87019413651791
 31
0.0
  0
LINE
  5
2711
  8
0
 10
347.75810622525682
 20
390.33466023155898
 30
0.0
 11
344.9697185498747
 21
391.08180646085572
 31
0.0
  0
LINE
  5
2712
  8
0
 10
349.79934768062651
 20
392.37590168674831
 30
0.0
 11
347.75810622525682
 21
390.33466023155898
 31
0.0
  0
LINE
  5
2713
  8
0
 10
349.0522014513059
 20
395.16428936282881
 30
0.0
 11
349.79934768062651
 21
392.37590168674831
 31
0.0
  0
LINE
  5
2714
  8
0
 10
346.26381377577621
 20
395.91143559135162
 30
0.0
 11
349.0522014513059
 21
395.16428936282881
 31
0.0
  0
LINE
  5
2715
  8
0
 10
344.22257232105079
 20
393.87019413651791
 30
0.0
 11
346.26381377577621
 21
395.91143559135162
 31
0.0
  0
LINE
  5
2716
  8
0
 10
357.94788193673998
 20
403.04096191265938
 30
0.0
 11
357.94788193673998
 21
396.40771232580403
 31
0.0
  0
ARC
  5
2717
  8
0
 10
362.94788193673998
 20
399.72433711948167
 30
0.0
 40
6.0000000015600419
 50
123.55730976057519
 51
146.44269021561979
  0
LINE
  5
2718
  8
0
 10
366.26450672991768
 20
404.72433711948162
 30
0.0
 11
359.63125714650198
 21
404.72433711955949
 31
0.0
  0
ARC
  5
2719
  8
0
 10
362.94788193673998
 20
399.72433711948167
 30
0.0
 40
6.0000000015600889
 50
303.55730974882511
 51
326.44269021562093
  0
LINE
  5
271A
  8
0
 10
359.63125714656229
 20
394.72433711948167
 30
0.0
 11
366.26450672595251
 21
394.7243371187235
 31
0.0
  0
ARC
  5
271B
  8
0
 10
362.94788193673998
 20
399.72433711948167
 30
0.0
 40
6.0000000018364732
 50
213.55730978835959
 51
236.44269023949431
  0
ARC
  5
271C
  8
0
 10
362.94788193673998
 20
399.72433711948167
 30
0.0
 40
6.000000001560073
 50
33.557309754699247
 51
56.442690215619308
  0
LINE
  5
271D
  8
0
 10
367.94788193673998
 20
396.40771232630402
 30
0.0
 11
367.947881937158
 21
403.04096190920683
 31
0.0
  0
CIRCLE
  5
271E
  8
0
 10
362.94788193673998
 20
399.72433711948167
 30
0.0
 40
9.1509904819999974
  0
CIRCLE
  5
2725
  8
0
 10
362.94788193674009
 20
399.72433711948167
 30
0.0
 40
12.99999999999994
  0
ARC
  5
2728
  8
0
 10
362.9478819367406
 20
419.72433711948162
 30
0.0
 40
25.0
 50
0.0000000110202668
 51
179.99999999999949
  0
LINE
  5
2729
  8
0
 10
387.9478819367406
 20
419.72433712429012
 30
0.0
 11
387.94788193674049
 21
379.72433711948162
 31
0.0
  0
LINE
  5
272A
  8
0
 10
337.9478819367406
 20
414.36138689453111
 30
0.0
 11
337.9478819367406
 21
419.72433711948179
 31
0.0
  0
CIRCLE
  5
272B
  8
0
 10
362.94788193674071
 20
434.72433711948162
 30
0.0
 40
5.5
  0
ARC
  5
272C
  8
0
 10
362.94788193674037
 20
379.72433711948167
 30
0.0
 40
25.0
 50
179.99999999427021
 51
0.0000000000003562
  0
LINE
  5
272D
  8
0
 10
337.94788193674049
 20
379.7243371219817
 30
0.0
 11
337.94788193674049
 21
385.08728734443241
 31
0.0
  0
CIRCLE
  5
272E
  8
0
 10
362.94788193674037
 20
364.72433711948167
 30
0.0
 40
5.5
  0
LINE
  5
2730
  8
2
 10
368.4478819367402
 20
158.98764204582531
 30
0.0
 11
368.4478819367402
 21
143.98764204582531
 31
0.0
  0
LINE
  5
2731
  8
2
 10
357.4478819367402
 20
143.98764204582531
 30
0.0
 11
357.4478819367402
 21
158.98764204582531
 31
0.0
  0
LINE
  5
273F
  8
0
 10
350.44788194058822
 20
244.98764204582531
 30
0.0
 11
350.44788191602828
 21
273.98764204582528
 31
0.0
  0
LINE
  5
2741
  8
0
 10
341.28247318211032
 20
273.98764204582528
 30
0.0
 11
341.28247314175582
 21
244.98764204332531
 31
0.0
  0
LINE
  5
2744
  8
0
 10
321.2824731187402
 20
273.98764204582528
 30
0.0
 11
321.2824731187402
 21
244.9876420383253
 31
0.0
  0
LINE
  5
2747
  8
0
 10
318.94788193674032
 20
243.98764204582531
 30
0.0
 11
318.94788193674032
 21
244.98764204582531
 31
0.0
  0
LINE
  5
2748
  8
0
 10
318.94788193403559
 20
243.98764204582531
 30
0.0
 11
296.94788193674032
 21
243.98764204582531
 31
0.0
  0
LINE
  5
2749
  8
0
 10
307.94788193674032
 20
243.98764204582531
 30
0.0
 11
307.94788193674032
 21
273.98764204582528
 31
0.0
  0
LINE
  5
274A
  8
0
 10
387.94788193674032
 20
244.9876421097141
 30
0.0
 11
318.94788193403559
 21
244.9876420358253
 31
0.0
  0
LINE
  5
274B
  8
0
 10
296.94788193674032
 20
273.98764204582528
 30
0.0
 11
387.94788193674032
 21
273.98764204582528
 31
0.0
  0
LINE
  5
274E
  8
0
 10
349.94788193674032
 20
277.38764204582532
 30
0.0
 11
375.94788193674032
 21
277.38764204582532
 31
0.0
  0
LINE
  5
2752
  8
0
 10
353.79689145474032
 20
299.38764204582532
 30
0.0
 11
372.09887241874031
 21
299.38764204582532
 31
0.0
  0
LINE
  5
2753
  8
0
 10
357.46305438114882
 20
292.60029324631017
 30
0.0
 11
357.46305438535632
 21
277.38764204582532
 31
0.0
  0
LINE
  5
2754
  8
0
 10
351.97822682115731
 20
277.38764204582532
 30
0.0
 11
351.97822682372299
 21
292.60029323867002
 31
0.0
  0
LINE
  5
2755
  8
0
 10
373.91753704777477
 20
292.60029324606973
 30
0.0
 11
373.91753705232333
 21
277.38764204582532
 31
0.0
  0
LINE
  5
2756
  8
0
 10
368.43270949221659
 20
292.60029324668699
 30
0.0
 11
368.43270948712433
 21
277.38764204582532
 31
0.0
  0
LINE
  5
2757
  8
0
 10
367.94788193260177
 20
299.38764204582532
 30
0.0
 11
367.94788193674032
 21
302.48764204582528
 31
0.0
  0
LINE
  5
2758
  8
0
 10
366.26450673219188
 20
299.38764204582532
 30
0.0
 11
366.2645067259528
 21
302.48764204582528
 31
0.0
  0
LINE
  5
275A
  8
0
 10
359.6312571403235
 20
299.38764204582532
 30
0.0
 11
359.63125714656258
 21
302.48764204582528
 31
0.0
  0
LINE
  5
275C
  8
0
 10
357.94788193674032
 20
302.48764204582528
 30
0.0
 11
357.94788194087891
 21
299.38764204582532
 31
0.0
  0
LINE
  5
275D
  8
0
 10
357.94788193674032
 20
302.48764204582528
 30
0.0
 11
367.94788193674032
 21
302.48764204582528
 31
0.0
  0
LINE
  5
275E
  8
0
 10
387.9478819367402
 20
237.48764204582531
 30
0.0
 11
387.94788193674032
 21
143.98764204582531
 31
0.0
  0
LINE
  5
275F
  8
0
 10
337.94788193674032
 20
143.98764204582531
 30
0.0
 11
387.94788193674032
 21
143.98764204582531
 31
0.0
  0
LINE
  5
2760
  8
0
 10
337.94788193674032
 20
143.98764204582531
 30
0.0
 11
337.94788193674032
 21
237.48764204582531
 31
0.0
  0
LINE
  5
2761
  8
0
 10
337.94788193674032
 20
158.98764204582531
 30
0.0
 11
387.94788193674032
 21
158.98764204582531
 31
0.0
  0
LINE
  5
2762
  8
0
 10
337.94788193674032
 20
237.48764204582531
 30
0.0
 11
387.94788193674032
 21
237.48764204582531
 31
0.0
  0
LINE
  5
2763
  8
0
 10
349.94788193674032
 20
133.98764204582531
 30
0.0
 11
375.94788193674032
 21
133.98764204582531
 31
0.0
  0
LINE
  5
2764
  8
1
 10
307.94788193674032
 20
278.98764204582528
 30
0.0
 11
307.94788193674032
 21
238.98764204582531
 31
0.0
  0
LINE
  5
2765
  8
1
 10
362.94788193674032
 20
123.9876420458253
 30
0.0
 11
362.94788193674037
 21
312.48764204582528
 31
0.0
  0
LINE
  5
2766
  8
2
 10
556.193889259451
 20
158.98764204582531
 30
0.0
 11
556.193889259451
 21
143.98764204582531
 31
0.0
  0
LINE
  5
2767
  8
2
 10
545.19388925945111
 20
158.98764204582531
 30
0.0
 11
545.19388925945111
 21
143.98764204582531
 31
0.0
  0
LINE
  5
2768
  8
2
 10
486.19388925945111
 20
158.98764204582531
 30
0.0
 11
486.19388925945111
 21
143.98764204582531
 31
0.0
  0
LINE
  5
2769
  8
2
 10
475.19388925945123
 20
158.98764204582531
 30
0.0
 11
475.19388925945123
 21
143.98764204582531
 31
0.0
  0
LINE
  5
2778
  8
0
 10
540.69388925945111
 20
244.98764204582531
 30
0.0
 11
490.69388925945111
 21
244.98764204582531
 31
0.0
  0
LINE
  5
2779
  8
0
 10
490.69388925945111
 20
273.98764204582528
 30
0.0
 11
540.69388925945111
 21
273.98764204582528
 31
0.0
  0
LINE
  5
277A
  8
0
 10
502.69388925945111
 20
277.38764204582532
 30
0.0
 11
528.69388925945111
 21
277.38764204582532
 31
0.0
  0
LINE
  5
277F
  8
0
 10
506.54289877745111
 20
299.38764204582532
 30
0.0
 11
524.84487974145111
 21
299.38764204582532
 31
0.0
  0
LINE
  5
2780
  8
0
 10
525.19388925903252
 20
298.08512079345081
 30
0.0
 11
525.19388924884515
 21
277.38764204582532
 31
0.0
  0
LINE
  5
2781
  8
0
 10
515.69388925945111
 20
292.60029324606973
 30
0.0
 11
515.69388925954286
 21
277.38764204582532
 31
0.0
  0
LINE
  5
2782
  8
0
 10
506.19388926041989
 20
298.08512079550411
 30
0.0
 11
506.19388926905708
 21
277.38764204582532
 31
0.0
  0
LINE
  5
2783
  8
0
 10
520.69388925531246
 20
299.38764204582532
 30
0.0
 11
520.69388925945111
 21
302.48764204582528
 31
0.0
  0
LINE
  5
2784
  8
0
 10
519.01051405541546
 20
299.38764204582532
 30
0.0
 11
519.01051404917644
 21
302.48764204582528
 31
0.0
  0
LINE
  5
2786
  8
0
 10
512.37726446003444
 20
299.38764204582532
 30
0.0
 11
512.37726446627335
 21
302.48764204582528
 31
0.0
  0
LINE
  5
2788
  8
0
 10
510.69388926283148
 20
299.38764204582532
 30
0.0
 11
510.6938892586931
 21
302.48764204582528
 31
0.0
  0
LINE
  5
2789
  8
0
 10
510.6938892586931
 20
302.48764204582528
 30
0.0
 11
520.69388925945111
 21
302.48764204582528
 31
0.0
  0
LINE
  5
278A
  8
0
 10
495.69388925945111
 20
158.98764204582531
 30
0.0
 11
495.69388925945111
 21
143.98764204582531
 31
0.0
  0
LINE
  5
278B
  8
0
 10
470.69388925945123
 20
143.98764204582531
 30
0.0
 11
560.69388925945123
 21
143.98764204582531
 31
0.0
  0
LINE
  5
278C
  8
0
 10
470.69388925945123
 20
158.98764204582531
 30
0.0
 11
560.69388925945123
 21
158.98764204582531
 31
0.0
  0
LINE
  5
278D
  8
0
 10
535.69388926425972
 20
143.98764204582531
 30
0.0
 11
535.69388926425972
 21
158.98764204582531
 31
0.0
  0
LINE
  5
2794
  8
0
 10
490.69388925945111
 20
237.48764204582531
 30
0.0
 11
540.69388925945111
 21
237.48764204582531
 31
0.0
  0
LINE
  5
2795
  8
0
 10
502.69388925945111
 20
133.98764204582531
 30
0.0
 11
528.69388925945111
 21
133.98764204582531
 31
0.0
  0
LINE
  5
2797
  8
1
 10
550.69388925945111
 20
138.98764204582531
 30
0.0
 11
550.69388925945111
 21
163.98764204582531
 31
0.0
  0
LINE
  5
2798
  8
1
 10
480.69388925945111
 20
138.98764204582531
 30
0.0
 11
480.693889259451
 21
163.98764204582531
 31
0.0
  0
LINE
  5
2799
  8
1
 10
515.69388925945123
 20
123.9876420458253
 30
0.0
 11
515.69388925945123
 21
312.48764204582528
 31
0.0
  0
CIRCLE
  5
27F5
  8
3
 10
307.94788193674009
 20
399.72433711794321
 30
0.0
 40
6.0
  0
LINE
  5
2857
  8
0
 10
166.01327020185531
 20
237.48764204582531
 30
0.0
 11
166.01327020185531
 21
158.98764204582531
 31
0.0
  0
LINE
  5
2858
  8
0
 10
166.01327020185531
 20
273.98764204582528
 30
0.0
 11
166.01327020185531
 21
244.98764205388741
 31
0.0
  0
LINE
  5
2859
  8
0
 10
213.01327020185531
 20
244.98764204582531
 30
0.0
 11
213.01327020185531
 21
237.48764204582531
 31
0.0
  0
LINE
  5
285B
  8
0
 10
169.01327020185531
 20
244.98764204582551
 30
0.0
 11
169.01327020185519
 21
237.48764204582551
 31
0.0
  0
LINE
  5
285C
  8
0
 10
216.01327020185531
 20
273.98764204582528
 30
0.0
 11
216.01327022891249
 21
244.98764205138741
 31
0.0
  0
LINE
  5
285D
  8
0
 10
216.01327020185531
 20
237.48764204582531
 30
0.0
 11
216.01327020185531
 21
158.98764204582531
 31
0.0
  0
LINE
  5
285E
  8
0
 10
204.01327020185531
 20
143.98764204582531
 30
0.0
 11
204.01327020185531
 21
133.98764204582531
 31
0.0
  0
LINE
  5
285F
  8
0
 10
178.01327020185531
 20
143.98764204582531
 30
0.0
 11
178.01327020185531
 21
133.98764204582531
 31
0.0
  0
LINE
  5
2860
  8
0
 10
236.01327020185531
 20
158.98764204582531
 30
0.0
 11
236.01327020185531
 21
143.98764204582531
 31
0.0
  0
LINE
  5
2861
  8
0
 10
146.01327020185531
 20
158.98764204582531
 30
0.0
 11
146.01327020185531
 21
143.98764204582531
 31
0.0
  0
LINE
  5
2862
  8
0
 10
178.01327020185531
 20
277.38764204582532
 30
0.0
 11
178.01327020185531
 21
273.98764204582528
 31
0.0
  0
LINE
  5
2863
  8
0
 10
204.01327020185531
 20
277.38764204582532
 30
0.0
 11
204.01327020185531
 21
273.98764204582528
 31
0.0
  0
LINE
  5
2864
  8
0
 10
200.1642606838553
 20
299.38764204582532
 30
0.0
 11
200.51327020187441
 21
298.08512079181742
 31
0.0
  0
LINE
  5
2865
  8
0
 10
181.86227971985531
 20
299.38764204582532
 30
0.0
 11
181.51327020187821
 21
298.08512079197408
 31
0.0
  0
LINE
  5
2866
  8
0
 10
296.94788193674032
 20
273.98764204582528
 30
0.0
 11
296.94788193674032
 21
243.98764204582531
 31
0.0
  0
LINE
  5
2867
  8
0
 10
387.94788193674032
 20
273.98764204582528
 30
0.0
 11
387.94788193674032
 21
244.98764204582531
 31
0.0
  0
LINE
  5
2868
  8
0
 10
384.94788193674032
 20
244.98764204582531
 30
0.0
 11
384.94788193674032
 21
237.48764204582531
 31
0.0
  0
LINE
  5
2869
  8
0
 10
340.94788193674032
 20
244.98764204582531
 30
0.0
 11
340.94788193674032
 21
237.48764204582531
 31
0.0
  0
LINE
  5
286A
  8
0
 10
349.94788193674032
 20
277.38764204582532
 30
0.0
 11
349.94788193674032
 21
273.98764204582528
 31
0.0
  0
LINE
  5
286B
  8
0
 10
375.94788193674032
 20
277.38764204582532
 30
0.0
 11
375.94788193674032
 21
273.98764204582528
 31
0.0
  0
LINE
  5
286C
  8
0
 10
372.09887241874031
 20
299.38764204582532
 30
0.0
 11
373.91753705125802
 21
292.60029323307032
 31
0.0
  0
LINE
  5
286D
  8
0
 10
353.79689145474032
 20
299.38764204582532
 30
0.0
 11
351.97822682716151
 21
292.60029324586412
 31
0.0
  0
LINE
  5
286E
  8
0
 10
375.94788193674032
 20
143.98764204582531
 30
0.0
 11
375.94788193674032
 21
133.98764204582531
 31
0.0
  0
LINE
  5
286F
  8
0
 10
349.94788193674032
 20
143.98764204582531
 30
0.0
 11
349.94788193674032
 21
133.98764204582531
 31
0.0
  0
LINE
  5
2870
  8
0
 10
540.69388925945111
 20
273.98764204582528
 30
0.0
 11
540.69388925945111
 21
244.98764204582531
 31
0.0
  0
LINE
  5
2871
  8
0
 10
537.69388925945111
 20
244.98764204582531
 30
0.0
 11
537.69388925945111
 21
237.48764204582531
 31
0.0
  0
LINE
  5
2872
  8
0
 10
540.69388925945111
 20
237.48764204582531
 30
0.0
 11
540.69388925945111
 21
158.98764204582531
 31
0.0
  0
LINE
  5
2873
  8
0
 10
560.69388925945123
 20
158.98764204582531
 30
0.0
 11
560.69388925945123
 21
143.98764204582531
 31
0.0
  0
LINE
  5
2874
  8
0
 10
490.69388925945111
 20
237.48764204582531
 30
0.0
 11
490.69388925945111
 21
158.98764204582531
 31
0.0
  0
LINE
  5
2875
  8
0
 10
470.69388925945123
 20
158.98764204582531
 30
0.0
 11
470.69388925945123
 21
143.98764204582531
 31
0.0
  0
LINE
  5
2876
  8
0
 10
502.69388925945111
 20
143.98764204582531
 30
0.0
 11
502.69388925945111
 21
133.98764204582531
 31
0.0
  0
LINE
  5
2877
  8
0
 10
528.69388925945111
 20
143.98764204582531
 30
0.0
 11
528.69388925945111
 21
133.98764204582531
 31
0.0
  0
LINE
  5
2878
  8
0
 10
490.69388925945111
 20
273.98764204582528
 30
0.0
 11
490.69388925945111
 21
244.98764204582531
 31
0.0
  0
LINE
  5
2879
  8
0
 10
493.693889259451
 20
244.98764204582531
 30
0.0
 11
493.693889259451
 21
237.48764204582531
 31
0.0
  0
LINE
  5
287A
  8
0
 10
502.69388925945111
 20
277.38764204582532
 30
0.0
 11
502.69388925945111
 21
273.98764204582528
 31
0.0
  0
LINE
  5
287B
  8
0
 10
528.69388925945111
 20
277.38764204582532
 30
0.0
 11
528.69388925945111
 21
273.98764204582528
 31
0.0
  0
LINE
  5
287C
  8
0
 10
524.84487974145111
 20
299.38764204582532
 30
0.0
 11
525.19388925942815
 21
298.08512079197408
 31
0.0
  0
LINE
  5
287D
  8
0
 10
506.54289877745111
 20
299.38764204582532
 30
0.0
 11
506.19388925945123
 21
298.08512079188898
 31
0.0
  0
LINE
  5
287E
  8
0
 10
357.46305438126382
 20
409.22433711622409
 30
0.0
 11
368.43270949703702
 21
409.22433711323521
 31
0.0
  0
LINE
  5
287F
  8
0
 10
368.43270949703702
 20
409.22433711323521
 30
0.0
 11
373.91753704631878
 21
399.72433712595267
 31
0.0
  0
LINE
  5
2880
  8
0
 10
373.91753704631878
 20
399.72433712595267
 30
0.0
 11
368.43270949805941
 21
390.22433712586297
 31
0.0
  0
LINE
  5
2881
  8
0
 10
368.43270949805941
 20
390.22433712586297
 30
0.0
 11
357.46305437561762
 21
390.22433712588992
 31
0.0
  0
LINE
  5
2882
  8
0
 10
357.46305437561762
 20
390.22433712588992
 30
0.0
 11
351.97822682572712
 21
399.72433712638741
 31
0.0
  0
LINE
  5
2883
  8
0
 10
351.97822682572712
 20
399.72433712638741
 30
0.0
 11
357.46305438126382
 21
409.22433711622409
 31
0.0
  0
POLYLINE
  5
2884
  8
0
 66
     1
 10
0.0
 20
0.0
 30
0.0
  0
VERTEX
  5
2A80
  8
0
 10
515.69388926592228
 20
292.60029324586401
 30
0.0
  0
VERTEX
  5
2A81
  8
0
 10
516.41622356493019
 20
294.08095963780011
 30
0.0
  0
VERTEX
  5
2A82
  8
0
 10
516.92210412099053
 20
294.94791066821881
 30
0.0
  0
VERTEX
  5
2A83
  8
0
 10
517.41353001880975
 20
295.77151445513908
 30
0.0
  0
VERTEX
  5
2A84
  8
0
 10
517.96277048929608
 20
296.49397364715469
 30
0.0
  0
VERTEX
  5
2A85
  8
0
 10
518.53011074988763
 20
297.15128914993062
 30
0.0
  0
VERTEX
  5
2A86
  8
0
 10
519.05233501748864
 20
297.60307352555128
 30
0.0
  0
VERTEX
  5
2A87
  8
0
 10
519.70511712837015
 20
297.95446103100898
 30
0.0
  0
VERTEX
  5
2A88
  8
0
 10
520.24742768651015
 20
298.08497634617578
 30
0.0
  0
VERTEX
  5
2A89
  8
0
 10
520.4845135188192
 20
298.08487931907229
 30
0.0
  0
VERTEX
  5
2A8A
  8
0
 10
520.66509625447588
 20
298.07636403565931
 30
0.0
  0
VERTEX
  5
2A8B
  8
0
 10
520.87804666480474
 20
298.0371935779479
 30
0.0
  0
VERTEX
  5
2A8C
  8
0
 10
521.28444587772901
 20
297.90876280539271
 30
0.0
  0
VERTEX
  5
2A8D
  8
0
 10
521.68629654264885
 20
297.68414275071649
 30
0.0
  0
VERTEX
  5
2A8E
  8
0
 10
522.08382502113705
 20
297.38608857984968
 30
0.0
  0
VERTEX
  5
2A8F
  8
0
 10
522.49431802877211
 20
297.00164255414211
 30
0.0
  0
VERTEX
  5
2A90
  8
0
 10
522.95319455361664
 20
296.47479308292492
 30
0.0
  0
VERTEX
  5
2A91
  8
0
 10
523.31946483365834
 20
295.980483884016
 30
0.0
  0
VERTEX
  5
2A92
  8
0
 10
523.85055679047264
 20
295.1871471629803
 30
0.0
  0
VERTEX
  5
2A93
  8
0
 10
524.35615617094766
 20
294.28711913095867
 30
0.0
  0
VERTEX
  5
2A94
  8
0
 10
524.78794239248214
 20
293.43420622828648
 30
0.0
  0
VERTEX
  5
2A95
  8
0
 10
525.1938892532047
 20
292.60029324735223
 30
0.0
  0
SEQEND
  5
2A96
  8
0
  0
POLYLINE
  5
2885
  8
0
 66
     1
 10
0.0
 20
0.0
 30
0.0
  0
VERTEX
  5
2A97
  8
0
 10
515.69388925463966
 20
292.60029324586401
 30
0.0
  0
VERTEX
  5
2A98
  8
0
 10
514.97155495526965
 20
294.08095963762349
 30
0.0
  0
VERTEX
  5
2A99
  8
0
 10
514.46567439899752
 20
294.94791066791839
 30
0.0
  0
VERTEX
  5
2A9A
  8
0
 10
513.97424850097684
 20
295.77151445471861
 30
0.0
  0
VERTEX
  5
2A9B
  8
0
 10
513.42500803031373
 20
296.4939736465999
 30
0.0
  0
VERTEX
  5
2A9C
  8
0
 10
512.85766776956154
 20
297.15128914923702
 30
0.0
  0
VERTEX
  5
2A9D
  8
0
 10
512.33544350184991
 20
297.60307352473001
 30
0.0
  0
VERTEX
  5
2A9E
  8
0
 10
511.68266139088257
 20
297.9544610300282
 30
0.0
  0
VERTEX
  5
2A9F
  8
0
 10
511.14035083271062
 20
298.08497634506227
 30
0.0
  0
VERTEX
  5
2AA0
  8
0
 10
510.90326500040152
 20
298.0848793179008
 30
0.0
  0
VERTEX
  5
2AA1
  8
0
 10
510.72268226474699
 20
298.0763640344436
 30
0.0
  0
VERTEX
  5
2AA2
  8
0
 10
510.5097318544278
 20
298.03719357668012
 30
0.0
  0
VERTEX
  5
2AA3
  8
0
 10
510.10333264153502
 20
297.90876280402563
 30
0.0
  0
VERTEX
  5
2AA4
  8
0
 10
509.70148197666992
 20
297.68414274925118
 30
0.0
  0
VERTEX
  5
2AA5
  8
0
 10
509.30395349825471
 20
297.38608857828712
 30
0.0
  0
VERTEX
  5
2AA6
  8
0
 10
508.89346049071361
 20
297.0016425524791
 30
0.0
  0
VERTEX
  5
2AA7
  8
0
 10
508.43458396599789
 20
296.4747930811497
 30
0.0
  0
VERTEX
  5
2AA8
  8
0
 10
508.06831368607709
 20
295.9804838821513
 30
0.0
  0
VERTEX
  5
2AA9
  8
0
 10
507.5372217294568
 20
295.18714716098572
 30
0.0
  0
VERTEX
  5
2AAA
  8
0
 10
507.03162234920183
 20
294.2871191288404
 30
0.0
  0
VERTEX
  5
2AAB
  8
0
 10
506.5998361278759
 20
293.4342062260626
 30
0.0
  0
VERTEX
  5
2AAC
  8
0
 10
506.19388926735729
 20
292.60029324502909
 30
0.0
  0
SEQEND
  5
2AAD
  8
0
  0
POLYLINE
  5
2888
  8
0
 66
     1
 10
0.0
 20
0.0
 30
0.0
  0
VERTEX
  5
2AAE
  8
0
 10
191.01327020814281
 20
292.60029317452739
 30
0.0
  0
VERTEX
  5
2AAF
  8
0
 10
191.73560450715081
 20
294.08095956646338
 30
0.0
  0
VERTEX
  5
2AB0
  8
0
 10
192.241485063211
 20
294.94791059688208
 30
0.0
  0
VERTEX
  5
2AB1
  8
0
 10
192.7329109610302
 20
295.77151438380253
 30
0.0
  0
VERTEX
  5
2AB2
  8
0
 10
193.2821514315167
 20
296.49397357581802
 30
0.0
  0
VERTEX
  5
2AB3
  8
0
 10
193.8494916921081
 20
297.15128907859389
 30
0.0
  0
VERTEX
  5
2AB4
  8
0
 10
194.37171595970921
 20
297.60307345421461
 30
0.0
  0
VERTEX
  5
2AB5
  8
0
 10
195.0244980705906
 20
297.9544609596723
 30
0.0
  0
VERTEX
  5
2AB6
  8
0
 10
195.56680862873071
 20
298.08497627483911
 30
0.0
  0
VERTEX
  5
2AB7
  8
0
 10
195.80389446103979
 20
298.08487924773561
 30
0.0
  0
VERTEX
  5
2AB8
  8
0
 10
195.9844771966963
 20
298.07636396432258
 30
0.0
  0
VERTEX
  5
2AB9
  8
0
 10
196.19742760702519
 20
298.03719350661117
 30
0.0
  0
VERTEX
  5
2ABA
  8
0
 10
196.60382681994949
 20
297.9087627340561
 30
0.0
  0
VERTEX
  5
2ABB
  8
0
 10
197.00567748486949
 20
297.68414267937987
 30
0.0
  0
VERTEX
  5
2ABC
  8
0
 10
197.40320596335749
 20
297.38608850851301
 30
0.0
  0
VERTEX
  5
2ABD
  8
0
 10
197.81369897099259
 20
297.00164248280538
 30
0.0
  0
VERTEX
  5
2ABE
  8
0
 10
198.27257549583709
 20
296.47479301158819
 30
0.0
  0
VERTEX
  5
2ABF
  8
0
 10
198.63884577587891
 20
295.98048381267938
 30
0.0
  0
VERTEX
  5
2AC0
  8
0
 10
199.16993773269311
 20
295.18714709164362
 30
0.0
  0
VERTEX
  5
2AC1
  8
0
 10
199.67553711316819
 20
294.287119059622
 30
0.0
  0
VERTEX
  5
2AC2
  8
0
 10
200.10732333470261
 20
293.43420615694981
 30
0.0
  0
VERTEX
  5
2AC3
  8
0
 10
200.51327019542521
 20
292.6002931760155
 30
0.0
  0
SEQEND
  5
2AC4
  8
0
  0
POLYLINE
  5
2889
  8
0
 66
     1
 10
0.0
 20
0.0
 30
0.0
  0
VERTEX
  5
2AC5
  8
0
 10
191.0132701968603
 20
292.60029317452739
 30
0.0
  0
VERTEX
  5
2AC6
  8
0
 10
190.2909358974901
 20
294.08095956628682
 30
0.0
  0
VERTEX
  5
2AC7
  8
0
 10
189.785055341218
 20
294.94791059658172
 30
0.0
  0
VERTEX
  5
2AC8
  8
0
 10
189.29362944319729
 20
295.77151438338188
 30
0.0
  0
VERTEX
  5
2AC9
  8
0
 10
188.74438897253421
 20
296.49397357526323
 30
0.0
  0
VERTEX
  5
2ACA
  8
0
 10
188.17704871178199
 20
297.1512890779004
 30
0.0
  0
VERTEX
  5
2ACB
  8
0
 10
187.65482444407041
 20
297.60307345339328
 30
0.0
  0
VERTEX
  5
2ACC
  8
0
 10
187.00204233310319
 20
297.95446095869153
 30
0.0
  0
VERTEX
  5
2ACD
  8
0
 10
186.4597317749311
 20
298.08497627372572
 30
0.0
  0
VERTEX
  5
2ACE
  8
0
 10
186.22264594262211
 20
298.08487924656418
 30
0.0
  0
VERTEX
  5
2ACF
  8
0
 10
186.0420632069675
 20
298.07636396310693
 30
0.0
  0
VERTEX
  5
2AD0
  8
0
 10
185.8291127966483
 20
298.03719350534351
 30
0.0
  0
VERTEX
  5
2AD1
  8
0
 10
185.42271358375541
 20
297.90876273268901
 30
0.0
  0
VERTEX
  5
2AD2
  8
0
 10
185.0208629188904
 20
297.68414267791451
 30
0.0
  0
VERTEX
  5
2AD3
  8
0
 10
184.62333444047519
 20
297.38608850695039
 30
0.0
  0
VERTEX
  5
2AD4
  8
0
 10
184.21284143293411
 20
297.00164248114248
 30
0.0
  0
VERTEX
  5
2AD5
  8
0
 10
183.75396490821839
 20
296.47479300981303
 30
0.0
  0
VERTEX
  5
2AD6
  8
0
 10
183.3876946282976
 20
295.98048381081458
 30
0.0
  0
VERTEX
  5
2AD7
  8
0
 10
182.85660267167731
 20
295.18714708964899
 30
0.0
  0
VERTEX
  5
2AD8
  8
0
 10
182.3510032914223
 20
294.28711905750379
 30
0.0
  0
VERTEX
  5
2AD9
  8
0
 10
181.91921707009641
 20
293.43420615472598
 30
0.0
  0
VERTEX
  5
2ADA
  8
0
 10
181.5132702095778
 20
292.60029317369242
 30
0.0
  0
SEQEND
  5
2ADB
  8
0
  0
POLYLINE
  5
28EB
  8
0
 66
     1
 10
0.0
 20
0.0
 30
0.0
  0
VERTEX
  5
28EF
  8
0
 10
357.4630543756179
 20
292.60029324633479
 30
0.0
 42
0.0000112273736852
  0
VERTEX
  5
28F0
  8
0
 10
357.46305438114882
 20
292.6000469254044
 30
0.0
 42
0.0984914034306993
  0
SEQEND
  5
28EC
  8
0
  0
POLYLINE
  5
28F1
  8
0
 66
     1
 10
0.0
 20
0.0
 30
0.0
  0
VERTEX
  5
28F3
  8
0
 10
368.4327094922167
 20
292.6002932426627
 30
0.0
 42
0.0162190416584199
  0
VERTEX
  5
28F4
  8
0
 10
367.43297962440028
 20
294.33311156882752
 30
0.0
 42
0.0304604127751764
  0
VERTEX
  5
28F5
  8
0
 10
366.24818694493757
 20
296.00660076973458
 30
0.0
 42
0.0627884597230927
 70
     2
 50
135.00000003780301
  0
VERTEX
  5
28F6
  8
0
 10
364.84215713383833
 20
297.38718962928709
 30
0.0
 42
0.1603933404415682
 50
135.00000003780301
  0
VERTEX
  5
28F7
  8
0
 10
362.94788193575317
 20
298.08512079188853
 30
0.0
 42
0.160402737053899
  0
VERTEX
  5
28F8
  8
0
 10
361.05359858463191
 20
297.38716855376907
 30
0.0
 42
0.0628245673852212
  0
VERTEX
  5
28F9
  8
0
 10
359.64761451517461
 20
296.00665702304559
 30
0.0
 42
0.0307224301113965
 70
     2
 50
224.99999992383809
  0
VERTEX
  5
28FA
  8
0
 10
358.46334233675282
 20
294.33323769773801
 30
0.0
 42
0.0171625276131366
 50
224.99999992383809
  0
VERTEX
  5
28FB
  8
0
 10
357.4630543756179
 20
292.60029324633479
 30
0.0
 42
0.0984914035347061
  0
SEQEND
  5
28F2
  8
0
  0
POLYLINE
  5
290E
  8
0
 66
     1
 10
0.0
 20
0.0
 30
0.0
  0
VERTEX
  5
2910
  8
0
 10
373.91753704777489
 20
292.60001725030838
 30
0.0
 42
0.0000063091382364
 50
63.432807038493543
  0
VERTEX
  5
2911
  8
0
 10
373.91753705125802
 20
292.60029323307032
 30
0.0
 42
0.0109033064377093
  0
VERTEX
  5
2912
  8
0
 10
373.29723545767689
 20
294.71005162108412
 30
0.0
 42
0.0240349962441248
  0
VERTEX
  5
2913
  8
0
 10
372.70217277646748
 20
296.29775597421872
 30
0.0
 42
0.0661101779750776
 70
     2
 50
116.5671926790337
  0
VERTEX
  5
2914
  8
0
 10
371.94765303147028
 20
297.61926448901249
 30
0.0
 42
0.2106403204718225
 50
116.5671926790337
  0
VERTEX
  5
2915
  8
0
 10
371.17512328817787
 20
298.08460829168843
 30
0.0
 42
0.2159148649661225
  0
VERTEX
  5
2916
  8
0
 10
370.40213566010601
 20
297.61948311324579
 30
0.0
 42
0.0654436509124743
  0
VERTEX
  5
2917
  8
0
 10
369.64783401589102
 20
296.2982660285561
 30
0.0
 42
0.0229979155079003
 70
     2
 50
243.43280703849351
  0
VERTEX
  5
2918
  8
0
 10
369.04699941070783
 20
294.691677262746
 30
0.0
 42
0.0115839691972658
 50
243.43280703849351
  0
VERTEX
  5
2919
  8
0
 10
368.43270949805969
 20
292.60029324659058
 30
0.0
 42
0.0511039505159248
  0
SEQEND
  5
290F
  8
0
  0
POLYLINE
  5
291A
  8
0
 66
     1
 10
0.0
 20
0.0
 30
0.0
  0
VERTEX
  5
291B
  8
0
 10
351.97822682570541
 20
292.60001725030878
 30
0.0
 42
-0.0000063091382364
 50
63.432807038493543
  0
VERTEX
  5
291C
  8
0
 10
351.97822682222233
 20
292.60029323307072
 30
0.0
 42
-0.0109033064377093
  0
VERTEX
  5
291D
  8
0
 10
352.59852841580363
 20
294.71005162108452
 30
0.0
 42
-0.0240349962441248
  0
VERTEX
  5
291E
  8
0
 10
353.19359109701293
 20
296.29775597421911
 30
0.0
 42
-0.0661101779750776
 70
     2
 50
296.56719267903162
  0
VERTEX
  5
291F
  8
0
 10
353.94811084201018
 20
297.61926448901289
 30
0.0
 42
-0.2106403204718225
 50
116.5671926790337
  0
VERTEX
  5
2920
  8
0
 10
354.72064058530259
 20
298.08460829168871
 30
0.0
 42
-0.2159148649661225
  0
VERTEX
  5
2921
  8
0
 10
355.49362821337451
 20
297.61948311324602
 30
0.0
 42
-0.0654436509124743
  0
VERTEX
  5
2922
  8
0
 10
356.24792985758938
 20
296.29826602855638
 30
0.0
 42
-0.0229979155079003
 70
     2
 50
63.432807038491447
  0
VERTEX
  5
2923
  8
0
 10
356.84876446277258
 20
294.69167726274628
 30
0.0
 42
-0.0115839691972658
 50
243.43280703849351
  0
VERTEX
  5
2924
  8
0
 10
357.4630543754206
 20
292.60029324659081
 30
0.0
 42
-0.0511039505159248
  0
SEQEND
  5
2925
  8
0
  0
TEXT
  5
2A19
  8
0
 62
     3
 10
0.0
 20
0.0
 30
0.0
 40
10.0
  1
PTSW2-12L
  7
STANDARD1
  0
ENDSEC
  0
EOF
