  0
SECTION
  2
HEADER
  9
$ACADVER
  1
AC1009
  9
$INSBASE
 10
0.0
 20
0.0
 30
0.0
  9
$EXTMIN
 10
0.0
 20
-2.960436562073669
 30
0.0
  9
$EXTMAX
 10
299.9999998509883881
 20
294.9999995529651073
 30
0.0
  9
$LIMMIN
 10
0.0
 20
0.0
  9
$LIMMAX
 10
770.0
 20
540.0
  9
$ORTHOMODE
 70
     1
  9
$REGENMODE
 70
     1
  9
$FILLMODE
 70
     1
  9
$QTEXTMODE
 70
     0
  9
$MIRRTEXT
 70
     0
  9
$DRAGMODE
 70
     2
  9
$LTSCALE
 40
10.0
  9
$OSMODE
 70
    37
  9
$ATTMODE
 70
     1
  9
$TEXTSIZE
 40
4.000000000000048
  9
$TRACEWID
 40
0.05
  9
$TEXTSTYLE
  7
STANDARD
  9
$CLAYER
  8
0
  9
$CELTYPE
  6
BYLAYER
  9
$CECOLOR
 62
   256
  9
$DIMSCALE
 40
2.0
  9
$DIMASZ
 40
3.0
  9
$DIMEXO
 40
2.0
  9
$DIMDLI
 40
0.38
  9
$DIMRND
 40
0.0
  9
$DIMDLE
 40
0.0
  9
$DIMEXE
 40
2.0
  9
$DIMTP
 40
0.0
  9
$DIMTM
 40
0.0
  9
$DIMTXT
 40
3.0
  9
$DIMCEN
 40
0.0
  9
$DIMTSZ
 40
0.0
  9
$DIMTOL
 70
     0
  9
$DIMLIM
 70
     0
  9
$DIMTIH
 70
     0
  9
$DIMTOH
 70
     0
  9
$DIMSE1
 70
     0
  9
$DIMSE2
 70
     0
  9
$DIMTAD
 70
     1
  9
$DIMZIN
 70
     8
  9
$DIMBLK
  1

  9
$DIMASO
 70
     0
  9
$DIMSHO
 70
     0
  9
$DIMPOST
  1

  9
$DIMAPOST
  1

  9
$DIMALT
 70
     0
  9
$DIMALTD
 70
     2
  9
$DIMALTF
 40
25.3999999999999986
  9
$DIMLFAC
 40
1.0
  9
$DIMTOFL
 70
     0
  9
$DIMTVP
 40
1.6000000000000001
  9
$DIMTIX
 70
     1
  9
$DIMSOXD
 70
     0
  9
$DIMSAH
 70
     0
  9
$DIMBLK1
  1

  9
$DIMBLK2
  1

  9
$DIMSTYLE
  2
STANDARD
  9
$DIMCLRD
 70
     4
  9
$DIMCLRE
 70
     4
  9
$DIMCLRT
 70
     4
  9
$DIMTFAC
 40
1.0
  9
$DIMGAP
 40
0.09
  9
$LUNITS
 70
     2
  9
$LUPREC
 70
     1
  9
$SKETCHINC
 40
0.1
  9
$FILLETRAD
 40
0.0
  9
$AUNITS
 70
     0
  9
$AUPREC
 70
     1
  9
$MENU
  1
E:\r13\win\SUPPORT\ACAD
  9
$ELEVATION
 40
0.0
  9
$PELEVATION
 40
0.0
  9
$THICKNESS
 40
0.0
  9
$LIMCHECK
 70
     0
  9
$BLIPMODE
 70
     0
  9
$CHAMFERA
 40
1.1999999999999991
  9
$CHAMFERB
 40
1.1999999999999991
  9
$SKPOLY
 70
     0
  9
$TDCREATE
 40
2450158.5834259260445833
  9
$TDUPDATE
 40
2460376.450219907797873
  9
$TDINDWG
 40
0.5110012846999999
  9
$TDUSRTIMER
 40
0.5110012846999999
  9
$USRTIMER
 70
     1
  9
$ANGBASE
 50
0.0
  9
$ANGDIR
 70
     0
  9
$PDMODE
 70
     0
  9
$PDSIZE
 40
0.0
  9
$PLINEWID
 40
0.0
  9
$COORDS
 70
     1
  9
$SPLFRAME
 70
     0
  9
$SPLINETYPE
 70
     6
  9
$SPLINESEGS
 70
     8
  9
$ATTDIA
 70
     1
  9
$ATTREQ
 70
     1
  9
$HANDLING
 70
     1
  9
$HANDSEED
  5
740E
  9
$SURFTAB1
 70
     6
  9
$SURFTAB2
 70
     6
  9
$SURFTYPE
 70
     6
  9
$SURFU
 70
     6
  9
$SURFV
 70
     6
  9
$UCSNAME
  2

  9
$UCSORG
 10
0.0
 20
0.0
 30
0.0
  9
$UCSXDIR
 10
1.0
 20
0.0
 30
0.0
  9
$UCSYDIR
 10
0.0
 20
1.0
 30
0.0
  9
$PUCSNAME
  2

  9
$PUCSORG
 10
0.0
 20
0.0
 30
0.0
  9
$PUCSXDIR
 10
1.0
 20
0.0
 30
0.0
  9
$PUCSYDIR
 10
0.0
 20
1.0
 30
0.0
  9
$USERI1
 70
     3
  9
$USERI2
 70
     1
  9
$USERI3
 70
     0
  9
$USERI4
 70
     0
  9
$USERI5
 70
     0
  9
$USERR1
 40
2.0
  9
$USERR2
 40
3.0
  9
$USERR3
 40
3.0
  9
$USERR4
 40
3.0
  9
$USERR5
 40
10.0
  9
$WORLDVIEW
 70
     1
  9
$SHADEDGE
 70
     3
  9
$SHADEDIF
 70
    70
  9
$TILEMODE
 70
     1
  9
$MAXACTVP
 70
    16
  9
$PLIMCHECK
 70
     0
  9
$PEXTMIN
 10
1.0000000000000000E+20
 20
1.0000000000000000E+20
 30
1.0000000000000000E+20
  9
$PEXTMAX
 10
-1.0000000000000000E+20
 20
-1.0000000000000000E+20
 30
-1.0000000000000000E+20
  9
$PLIMMIN
 10
0.0
 20
0.0
  9
$PLIMMAX
 10
12.0
 20
9.0
  9
$UNITMODE
 70
     0
  9
$VISRETAIN
 70
     0
  9
$PLINEGEN
 70
     0
  9
$PSLTSCALE
 70
     0
  0
ENDSEC
  0
SECTION
  2
TABLES
  0
TABLE
  2
VPORT
 70
     1
  0
VPORT
  2
*ACTIVE
 70
     0
 10
0.0
 20
0.0
 11
1.0
 21
1.0
 12
364.020935960591089
 22
155.0
 13
0.0
 23
0.0
 14
10.0
 24
10.0
 15
10.0
 25
10.0
 16
0.0
 26
0.0
 36
1.0
 17
0.0
 27
0.0
 37
0.0
 40
310.0
 41
2.3485221674876842
 42
50.0
 43
0.0
 44
0.0
 50
0.0
 51
0.0
 71
     0
 72
   500
 73
     1
 74
     0
 75
     0
 76
     0
 77
     0
 78
     2
  0
ENDTAB
  0
TABLE
  2
LTYPE
 70
     4
  0
LTYPE
  2
CONTINUOUS
 70
     0
  3
Solid Line
 72
    65
 73
     0
 40
0.0
  0
LTYPE
  2
CENTER
 70
     0
  3
____ _ ____ _ ____ _ ____ _ ____ _ ____ _ ____
 72
    65
 73
     4
 40
2.0
 49
1.25
 49
-0.25
 49
0.25
 49
-0.25
  0
LTYPE
  2
HIDDEN
 70
     0
  3
_ _ _ _ _ _ _ _ _ _ _ _ _ _ _ _ _ _ _ _ _ _ _
 72
    65
 73
     2
 40
0.375
 49
0.25
 49
-0.125
  0
LTYPE
  2
PHANTOM2
 70
     0
  3
___ _ _ ___ _ _ ___ _ _ ___ _ _
 72
    65
 73
     6
 40
1.25
 49
0.625
 49
-0.125
 49
0.125
 49
-0.125
 49
0.125
 49
-0.125
  0
ENDTAB
  0
TABLE
  2
LAYER
 70
     5
  0
LAYER
  2
0
 70
     0
 62
     7
  6
CONTINUOUS
  0
LAYER
  2
1
 70
     0
 62
     1
  6
CENTER
  0
LAYER
  2
2
 70
     0
 62
     2
  6
HIDDEN
  0
LAYER
  2
3
 70
     0
 62
     3
  6
CONTINUOUS
  0
LAYER
  2
DEFPOINTS
 70
     0
 62
     7
  6
CONTINUOUS
  0
ENDTAB
  0
TABLE
  2
STYLE
 70
     2
  0
STYLE
  2
STANDARD
 70
     0
 40
0.0
 41
1.0
 50
0.0
 71
     0
 42
4.000000000000048
  3
SIMPLEX
  4
BIGFONT
  0
STYLE
  2
STANDARD1
 70
     0
 40
0.0
 41
1.0
 50
0.0
 71
     0
 42
3.0
  3
txt
  4

  0
ENDTAB
  0
TABLE
  2
VIEW
 70
     1
  0
VIEW
  2
ALL
 70
     0
 40
179.538466448915301
 10
146.9499716985239104
 20
89.7692332244576647
 41
0.0
 11
0.0
 21
0.0
 31
1.0
 12
0.0
 22
0.0
 32
0.0
 42
50.0
 43
0.0
 44
0.0
 50
0.0
 71
     0
  0
ENDTAB
  0
TABLE
  2
UCS
 70
     0
  0
ENDTAB
  0
TABLE
  2
APPID
 70
     9
  0
APPID
  2
ACAD
 70
     0
  0
APPID
  2
ACAD_MLEADERVER
 70
     0
  0
APPID
  2
ACAD_NAV_VCDISPLAY
 70
     0
  0
APPID
  2
ACAD_EXEMPT_FROM_CAD_STANDARDS
 70
     0
  0
APPID
  2
ACAD_DSTYLE_DIMRADIAL_EXTENSION
 70
     0
  0
APPID
  2
ACAD_DSTYLE_DIMJAG
 70
     0
  0
APPID
  2
ACAD_DSTYLE_DIMTALN
 70
     0
  0
APPID
  2
ACAD_PSEXT
 70
     0
  0
APPID
  2
ACAD_TC
 70
     0
  0
ENDTAB
  0
TABLE
  2
DIMSTYLE
 70
     1
  0
DIMSTYLE
  2
STANDARD
 70
     0
  3

  4

  5

  6

  7

 40
1.0
 41
0.18
 42
0.0625
 43
0.38
 44
0.18
 45
0.0
 46
0.0
 47
0.0
 48
0.0
140
0.18
141
0.09
142
0.0
143
25.3999999999999986
144
1.0
145
0.0
146
1.0
147
0.09
 71
     0
 72
     0
 73
     1
 74
     1
 75
     0
 76
     0
 77
     0
 78
     0
170
     0
171
     2
172
     0
173
     0
174
     0
175
     0
176
     0
177
     0
178
     0
  0
ENDTAB
  0
ENDSEC
  0
SECTION
  2
BLOCKS
  0
BLOCK
  8
0
  2
$MODEL_SPACE
 70
     0
 10
0.0
 20
0.0
 30
0.0
  3
$MODEL_SPACE
  1

  0
ENDBLK
  5
644
  8
0
  0
BLOCK
 67
     1
  8
0
  2
$PAPER_SPACE
 70
     0
 10
0.0
 20
0.0
 30
0.0
  3
$PAPER_SPACE
  1

  0
ENDBLK
  5
642
 67
     1
  8
0
  0
ENDSEC
  0
SECTION
  2
ENTITIES
  0
TEXT
  5
2975
  8
0
 62
     3
 10
0.0
 20
0.0
 30
0.0
 40
10.0
  1
PSLC08-3L
  7
STANDARD1
  0
ARC
  5
63BA
  8
0
 10
182.0246440470737923
 20
261.5213527051608935
 30
0.0
 40
1.8354474660024021
 50
9.3360185736946093
 51
37.5838190855901573
  0
ARC
  5
63BB
  8
0
 10
184.9353876693934069
 20
261.5235638790978783
 30
0.0
 40
1.83544746600242
 50
142.5032314598597907
 51
170.751031971751388
  0
LINE
  5
63BC
  8
0
 10
183.1238025054335026
 20
261.8185659870504765
 30
0.0
 11
183.8357790559529974
 21
261.8191066198050976
 31
0.0
  0
LINE
  5
63BD
  8
0
 10
180.9927436709403992
 20
261.8169468827546211
 30
0.0
 11
181.5825642272830009
 21
261.8173948489128975
 31
0.0
  0
LINE
  5
63BE
  8
0
 10
181.5825642272830009
 20
261.8173948489128975
 30
0.0
 11
181.5813712030648901
 21
263.3886794559658142
 31
0.0
  0
ARC
  5
63BF
  8
0
 10
181.7458852429842864
 20
261.4092971751662731
 30
0.0
 40
1.986207072235016
 50
94.7511618222697791
 51
129.2768480987450062
  0
ARC
  5
63C0
  8
0
 10
178.7658445630603978
 20
261.5005342389321754
 30
0.0
 40
2.2492656475153612
 50
8.0868359828601264
 51
40.015895282298537
  0
ARC
  5
63C1
  8
0
 10
181.901376368357802
 20
258.9477742586246904
 30
0.0
 40
2.457249347033815
 50
71.4964832766541605
 51
81.129597981815806
  0
ARC
  5
63C2
  8
0
 10
184.8685434663470062
 20
261.6308929687011187
 30
0.0
 40
2.215612518239173
 50
186.6080300229191096
 51
189.1650058665896097
  0
LINE
  5
63C3
  8
0
 10
182.6676500216125874
 20
261.3759283907710937
 30
0.0
 11
182.2802840918301968
 21
261.3756340928375721
 31
0.0
  0
ARC
  5
63C4
  8
0
 10
181.6357495191952012
 20
261.6715225214584279
 30
0.0
 40
1.835447466002426
 50
189.336018573694588
 51
217.5838190855901928
  0
ARC
  5
63C5
  8
0
 10
178.7250058968755866
 20
261.6693113475212726
 30
0.0
 40
1.8354474660023741
 50
322.5032314598597054
 51
350.7510319717546281
  0
LINE
  5
63C6
  8
0
 10
180.5365911871195124
 20
261.3743092864751816
 30
0.0
 11
179.8246146365999891
 21
261.3737686537206173
 31
0.0
  0
ARC
  5
63C7
  8
0
 10
181.8320163655577062
 20
259.200696384326875
 30
0.0
 40
0.5897210879941133
 50
270.0435607421944724
 51
90.0434451930187834
  0
LINE
  5
63C8
  8
0
 10
181.585000567138195
 20
258.6107874289155006
 30
0.0
 11
181.8324650824069977
 21
258.610975556075573
 31
0.0
  0
LINE
  5
63C9
  8
0
 10
181.5853088349103928
 20
258.2053547725080875
 30
0.0
 11
181.585000567138195
 21
258.6107874289155006
 31
0.0
  0
LINE
  5
63CA
  8
0
 10
181.8327724188565924
 20
258.2055419683455852
 30
0.0
 11
181.5853088349103928
 21
258.2053547725080875
 31
0.0
  0
ARC
  5
63CB
  8
0
 10
181.8896986986513866
 20
259.2731173421404947
 30
0.0
 40
1.069091653027078
 50
266.9477245724283989
 51
344.1081361654962052
  0
LINE
  5
63CC
  8
0
 10
183.379798866808386
 20
258.9807264506816864
 30
0.0
 11
182.9179299250245094
 21
258.9803762733935741
 31
0.0
  0
ARC
  5
63CD
  8
0
 10
181.9142412824488133
 20
259.2972616991070254
 30
0.0
 40
1.49935073666171
 50
266.8970350705628221
 51
347.8123147831702795
  0
LINE
  5
63CE
  8
0
 10
181.5856161713599874
 20
257.7999211847782135
 30
0.0
 11
181.8330806866287901
 21
257.8001093119382858
 31
0.0
  0
LINE
  5
63CF
  8
0
 10
181.5859244391322136
 20
257.3944885283709141
 30
0.0
 11
181.5856161713599874
 21
257.7999211847782135
 31
0.0
  0
LINE
  5
63D0
  8
0
 10
181.8333889544009878
 20
257.3946757242082981
 30
0.0
 11
181.5859244391322136
 21
257.3944885283709141
 31
0.0
  0
ARC
  5
63D1
  8
0
 10
181.9385853921654927
 20
259.3214059053016172
 30
0.0
 40
1.9295994894743269
 50
266.8748350594030967
 51
349.8413737440067166
  0
LINE
  5
63D2
  8
0
 10
184.2944237589836121
 20
258.9814212173222927
 30
0.0
 11
183.8379350677132038
 21
258.9810747653245926
 31
0.0
  0
ARC
  5
63D3
  8
0
 10
181.8523783264747067
 20
259.142590816713323
 30
0.0
 40
2.4473576041129168
 50
149.1660893084396946
 51
356.2240871269867171
  0
ARC
  5
63D4
  8
0
 10
181.8300884853605908
 20
261.7389985621734922
 30
0.0
 40
2.4746435999752339
 50
327.2463569769096807
 51
212.8406935685383985
  0
ARC
  5
63D5
  8
0
 10
182.0736336229736878
 20
259.1164399357991783
 30
0.0
 40
2.241613448465265
 50
7.8787040467295597
 51
34.9367018652760208
  0
LINE
  5
63D6
  8
0
 10
183.837598860263796
 20
259.4233654439448742
 30
0.0
 11
184.2940875515342043
 21
259.423711895942688
 31
0.0
  0
ARC
  5
63D7
  8
0
 10
181.9387686653213905
 20
259.080148914916208
 30
0.0
 40
1.9295994894743469
 50
10.2456768014429596
 51
93.212215486051349
  0
LINE
  5
63D8
  8
0
 10
181.5831807628273964
 20
261.006528604775724
 30
0.0
 11
181.830644346773596
 21
261.0067167319356827
 31
0.0
  0
LINE
  5
63D9
  8
0
 10
181.5829004347324087
 20
261.3751041702926159
 30
0.0
 11
181.5831807628273964
 21
261.006528604775724
 31
0.0
  0
LINE
  5
63DA
  8
0
 10
180.9930798783898069
 20
261.3746562041342258
 30
0.0
 11
181.5829004347324087
 21
261.3751041702926159
 31
0.0
  0
ARC
  5
63DB
  8
0
 10
178.7657023920986887
 20
261.6876851513616202
 30
0.0
 40
2.2492656475153772
 50
320.0711552631523205
 51
352.0002145625946923
  0
ARC
  5
63DC
  8
0
 10
181.7587598967120925
 20
261.7842684610295123
 30
0.0
 40
1.995180101209256
 50
230.5321756082975924
 51
272.0913362175464272
  0
LINE
  5
63DD
  8
0
 10
179.8242784291506098
 20
261.8160593323410126
 30
0.0
 11
180.5362549796699909
 21
261.81659996509552
 31
0.0
  0
ARC
  5
63DE
  8
0
 10
178.7251201991558105
 20
261.5188461906465136
 30
0.0
 40
1.835447466002369
 50
9.3360185736946093
 51
37.5838190855901573
  0
ARC
  5
63DF
  8
0
 10
181.6358638214755103
 20
261.5210573645833847
 30
0.0
 40
1.8354474660024509
 50
142.5032314598597907
 51
170.751031971751388
  0
ARC
  5
63E0
  8
0
 10
184.8946911741701058
 20
261.5051900752577012
 30
0.0
 40
2.2492656475152968
 50
140.071155263152292
 51
172.0002145625946923
  0
ARC
  5
63E1
  8
0
 10
181.9147925518207956
 20
261.4094254872018155
 30
0.0
 40
1.986207072235014
 50
50.8102024467008917
 51
85.3358887231788259
  0
LINE
  5
63E2
  8
0
 10
182.0762993022798923
 20
263.3890552446246147
 30
0.0
 11
182.0774932578206062
 21
261.817771103233099
 31
0.0
  0
LINE
  5
63E3
  8
0
 10
182.0774932578206062
 20
261.817771103233099
 30
0.0
 11
182.667313814163208
 21
261.818219069391489
 31
0.0
  0
LINE
  5
63E4
  8
0
 10
183.8361152634024052
 20
261.376815941184816
 30
0.0
 11
183.1241387128829956
 21
261.3762753084301949
 31
0.0
  0
ARC
  5
63E5
  8
0
 10
184.9208276580748986
 20
261.6451906561670739
 30
0.0
 40
1.81670250459843
 50
188.5124314108194028
 51
199.4991308438220869
  0
ARC
  5
63E6
  8
0
 10
182.0000004321335894
 20
258.9999997019767761
 30
0.0
 40
2.36995691722466
 50
47.2338198269183991
 51
59.3462641676366971
  0
ARC
  5
63E7
  8
0
 10
182.031377239262099
 20
261.6608019549046276
 30
0.0
 40
1.8269445998976761
 50
329.7290583165406019
 51
351.0575023933179182
  0
CIRCLE
  5
63E8
  8
0
 10
181.9421077208594113
 20
275.9475528443136909
 30
0.0
 40
1.834601999999989
  0
CIRCLE
  5
63E9
  8
0
 10
181.9421077208594113
 20
275.9475528443136909
 30
0.0
 40
0.6450074399935489
  0
LINE
  5
63EA
  8
0
 10
181.4659905806184099
 20
265.96787930466229
 30
0.0
 11
183.7515977397561073
 21
265.9696155227720737
 31
0.0
  0
LINE
  5
63EB
  8
0
 10
183.7489844486117079
 20
269.409654289484024
 30
0.0
 11
183.7481676787137985
 21
270.4846664331852821
 31
0.0
  0
LINE
  5
63EC
  8
0
 10
181.4633772894740105
 20
269.4079179549589753
 30
0.0
 11
183.7489844486117079
 21
269.409654289484024
 31
0.0
  0
ARC
  5
63ED
  8
0
 10
181.4636220819571975
 20
269.0854143555854989
 30
0.0
 40
0.3225037199967849
 50
90.043525272726427
 51
270.0435252727264128
  0
LINE
  5
63EE
  8
0
 10
183.7494743242860125
 20
268.7646470498294207
 30
0.0
 11
181.4638671651482014
 21
268.7629107153043151
 31
0.0
  0
LINE
  5
63EF
  8
0
 10
183.7515977397561073
 20
265.9696155227720737
 30
0.0
 11
183.750780969858198
 21
267.0446276664733887
 31
0.0
  0
ARC
  5
63F0
  8
0
 10
181.399355021241206
 20
267.397330044953776
 30
0.0
 40
1.431003044279811
 50
144.6890974464521946
 51
272.6689698913070856
  0
ARC
  5
63F1
  8
0
 10
181.3980969874251912
 20
269.0533797320986764
 30
0.0
 40
1.4310030442798001
 50
87.4180806541416757
 51
215.3979530989984141
  0
LINE
  5
63F2
  8
0
 10
183.7481676787137985
 20
270.4846664331852821
 30
0.0
 11
181.4625605195761011
 21
270.4829299822450253
 31
0.0
  0
LINE
  5
63F3
  8
0
 10
183.7502910941838934
 20
267.689634920680021
 30
0.0
 11
183.7494743242860125
 21
268.7646470498294207
 31
0.0
  0
LINE
  5
63F4
  8
0
 10
181.464683935046196
 20
267.6878986443625763
 30
0.0
 11
183.7502910941838934
 21
267.689634920680021
 31
0.0
  0
ARC
  5
63F5
  8
0
 10
181.4649287109282909
 20
267.3653950118991816
 30
0.0
 40
0.3225037199967849
 50
90.043525272726427
 51
270.0435252727198758
  0
LINE
  5
63F6
  8
0
 10
183.750780969858198
 20
267.0446276664733887
 30
0.0
 11
181.4651738107203869
 21
267.0428913901560009
 31
0.0
  0
LINE
  5
63F7
  8
0
 10
183.7519246339797974
 20
265.5396108515561195
 30
0.0
 11
179.9024797230958939
 21
265.5366864986718269
 31
0.0
  0
LINE
  5
63F8
  8
0
 10
183.7527414038777067
 20
264.4645987078546909
 30
0.0
 11
183.7519246339797974
 21
265.5396108515561195
 31
0.0
  0
LINE
  5
63F9
  8
0
 10
179.9032964929938032
 20
264.4616743549703983
 30
0.0
 11
183.7527414038777067
 21
264.4645987078546909
 31
0.0
  0
LINE
  5
63FA
  8
0
 10
179.9024797230958939
 20
265.5366864986718269
 30
0.0
 11
179.9032964929938032
 21
264.4616743549703983
 31
0.0
  0
LINE
  5
63FB
  8
0
 10
181.461416855454388
 20
271.9879467971622944
 30
0.0
 11
181.9425977021456049
 21
271.9883123412727741
 31
0.0
  0
ARC
  5
63FC
  8
0
 10
181.4611718508620868
 20
272.3104506247681229
 30
0.0
 40
0.3225037199969297
 50
90.043471659651189
 51
270.0435788857952275
  0
LINE
  5
63FD
  8
0
 10
181.9421078264713003
 20
272.633319813758078
 30
0.0
 11
181.4609269797801971
 21
272.6329542696475983
 31
0.0
  0
LINE
  5
63FE
  8
0
 10
183.7478417158127115
 20
270.9146711044012932
 30
0.0
 11
183.7470249459146885
 21
271.9896832481027218
 31
0.0
  0
ARC
  5
63FF
  8
0
 10
181.4611718508620868
 20
272.3104506247681229
 30
0.0
 40
1.397516119986056
 50
90.0435129004762871
 51
270.0435376449764817
  0
LINE
  5
6400
  8
0
 10
183.745718300342503
 20
273.7097023986279964
 30
0.0
 11
181.4601102098822025
 21
273.7079664133489132
 31
0.0
  0
LINE
  5
6401
  8
0
 10
183.7465350702404976
 20
272.6346907205880257
 30
0.0
 11
183.745718300342503
 21
273.7097023986279964
 31
0.0
  0
LINE
  5
6402
  8
0
 10
182.9044685885309889
 20
272.634050901979208
 30
0.0
 11
183.7465350702404976
 21
272.6346907205880257
 31
0.0
  0
LINE
  5
6403
  8
0
 10
182.9049584642052935
 20
271.9890434294939041
 30
0.0
 11
182.9044685885309889
 21
272.634050901979208
 31
0.0
  0
LINE
  5
6404
  8
0
 10
183.7470249459146885
 20
271.9896832481027218
 30
0.0
 11
182.9049584642052935
 21
271.9890434294939041
 31
0.0
  0
LINE
  5
6405
  8
0
 10
181.4622336253524111
 20
270.9129348862916231
 30
0.0
 11
183.7478417158127115
 21
270.9146711044012932
 31
0.0
  0
LINE
  5
6406
  8
0
 10
181.9425977021456049
 20
271.9883123412727741
 30
0.0
 11
181.9421078264713003
 21
272.633319813758078
 31
0.0
  0
LINE
  5
6407
  8
0
 10
182.9175937175751017
 20
259.4226669520140263
 30
0.0
 11
183.3794626593590067
 21
259.4230171293020248
 31
0.0
  0
LINE
  5
6408
  8
0
 10
181.5837963670491888
 20
260.1956623606383801
 30
0.0
 11
181.8312608823179914
 21
260.1958504877983955
 31
0.0
  0
ARC
  5
6409
  8
0
 10
181.8898086625449082
 20
259.1283631479086011
 30
0.0
 40
1.06909165302703
 50
15.9789143799549596
 51
93.139325973021144
  0
LINE
  5
640A
  8
0
 10
181.5834880992769911
 20
260.6010954827070236
 30
0.0
 11
181.5837963670491888
 21
260.1956623606383801
 31
0.0
  0
LINE
  5
640B
  8
0
 10
181.8309526145457937
 20
260.6012836098670959
 30
0.0
 11
181.5834880992769911
 21
260.6010954827070236
 31
0.0
  0
ARC
  5
640C
  8
0
 10
181.9143879009733951
 20
259.1042561067991983
 30
0.0
 40
1.499350736661736
 50
12.2747357622777198
 51
93.1900154748809655
  0
ARC
  5
640D
  8
0
 10
182.0000004321335894
 20
257.9999997019767761
 30
0.0
 40
3.5
 50
180.0
 51
0.0
  0
LINE
  5
640E
  8
0
 10
178.5000001266598133
 20
258.0000000074505806
 30
0.0
 11
178.5000001266598133
 21
276.9999993965029716
 31
0.0
  0
ARC
  5
640F
  8
0
 10
182.0000004321335894
 20
276.9999997019767761
 30
0.0
 40
3.5
 50
0.0
 51
180.0
  0
LINE
  5
6410
  8
0
 10
185.5000003427267075
 20
276.9999993965029716
 30
0.0
 11
185.5000003427267075
 21
258.0000000074505806
 31
0.0
  0
LINE
  5
6411
  8
0
 10
155.0
 20
241.0000000149011896
 30
0.0
 11
155.0
 21
293.9999993890523911
 31
0.0
  0
LINE
  5
6424
  8
0
 10
190.0000001490116119
 20
241.0000000149011896
 30
0.0
 11
188.9999999850988104
 21
239.9999998509883881
 31
0.0
  0
LINE
  5
6427
  8
0
 10
190.0000001490116119
 20
293.9999993890523911
 30
0.0
 11
190.0000001490116119
 21
241.0000000149011896
 31
0.0
  0
LINE
  5
6428
  8
0
 10
188.9999999850988104
 20
239.9999998509883881
 30
0.0
 11
156.0000001639126879
 21
239.9999998509883881
 31
0.0
  0
LINE
  5
642B
  8
0
 10
188.9999999850988104
 20
294.9999995529651073
 30
0.0
 11
190.0000001490116119
 21
293.9999993890523911
 31
0.0
  0
LINE
  5
642C
  8
0
 10
156.0000001639126879
 20
239.9999998509883881
 30
0.0
 11
155.0
 21
241.0000000149011896
 31
0.0
  0
LINE
  5
642E
  8
0
 10
156.0000001639126879
 20
294.9999995529651073
 30
0.0
 11
188.9999999850988104
 21
294.9999995529651073
 31
0.0
  0
LINE
  5
6430
  8
0
 10
155.0
 20
293.9999993890523911
 30
0.0
 11
156.0000001639126879
 21
294.9999995529651073
 31
0.0
  0
CIRCLE
  5
6431
  8
0
 10
169.000000432133703
 20
284.9999997019767761
 30
0.0
 40
4.7499999999999707
  0
CIRCLE
  5
6432
  8
0
 10
169.000000432133703
 20
249.9999997019768045
 30
0.0
 40
4.75
  0
CIRCLE
  5
6433
  8
0
 10
169.000000432133703
 20
284.9999997019767761
 30
0.0
 40
2.750000000000028
  0
CIRCLE
  5
6434
  8
0
 10
169.000000432133703
 20
249.9999997019768045
 30
0.0
 40
2.75
  0
LINE
  5
6445
  8
0
 10
287.7783122602317007
 20
184.7500005341750011
 30
0.0
 11
287.0566245268578882
 21
183.4999997764832074
 31
0.0
  0
CIRCLE
  5
644B
  8
0
 10
288.5
 20
183.4999997764826105
 30
0.0
 40
4.0000000000000151
  0
CIRCLE
  5
6458
  8
0
 10
246.5
 20
161.4999997764826105
 30
0.0
 40
4.0000000000000293
  0
CIRCLE
  5
6465
  8
0
 10
288.5
 20
161.4999997764826105
 30
0.0
 40
4.0000000000000151
  0
CIRCLE
  5
6472
  8
0
 10
246.5
 20
183.4999997764826105
 30
0.0
 40
4.0000000000000293
  0
LINE
  5
6474
  8
0
 10
246.5000002831220911
 20
156.4999990165233044
 30
0.0
 11
288.4999997168779942
 21
156.4999990165233044
 31
0.0
  0
LINE
  5
6475
  8
0
 10
241.499999463558197
 20
183.4999997168779089
 30
0.0
 11
241.499999463558197
 21
161.4999998360871984
 31
0.0
  0
ARC
  5
6476
  8
0
 10
246.5
 20
183.4999997764826105
 30
0.0
 40
5.0
 50
90.0
 51
180.0
  0
LINE
  5
6477
  8
0
 10
288.4999997168779942
 20
188.500000536441803
 30
0.0
 11
246.5000002831220911
 21
188.500000536441803
 31
0.0
  0
ARC
  5
6478
  8
0
 10
288.5
 20
183.4999997764826105
 30
0.0
 40
5.0
 50
0.0
 51
90.0
  0
LINE
  5
6479
  8
0
 10
293.500000536441803
 20
161.4999998360871984
 30
0.0
 11
293.500000536441803
 21
183.4999997168779089
 31
0.0
  0
ARC
  5
647E
  8
0
 10
288.5
 20
161.4999997764826105
 30
0.0
 40
5.0
 50
270.0
 51
0.0
  0
ARC
  5
647F
  8
0
 10
246.5
 20
161.4999997764826105
 30
0.0
 40
5.0
 50
180.0
 51
270.0
  0
LINE
  5
6482
  8
0
 10
240.4999992996453955
 20
154.9999997019766909
 30
0.0
 11
240.0000001490116119
 21
155.4999988526105881
 31
0.0
  0
LINE
  5
6488
  8
0
 10
294.9999998509883881
 20
155.4999988526105881
 30
0.0
 11
294.5000007003545761
 21
154.9999997019766909
 31
0.0
  0
LINE
  5
6489
  8
0
 10
294.5000007003545761
 20
154.9999997019766909
 30
0.0
 11
240.4999992996453955
 21
154.9999997019766909
 31
0.0
  0
LINE
  5
648A
  8
0
 10
240.0000001490116119
 20
155.4999988526105881
 30
0.0
 11
294.9999998509883881
 21
155.4999988526105881
 31
0.0
  0
LINE
  5
648B
  8
0
 10
294.9999998509885017
 20
189.5000007003544908
 30
0.0
 11
240.0000001490116119
 21
189.5000007003544908
 31
0.0
  0
LINE
  5
6497
  8
0
 10
294.9999998509883881
 20
189.5000007003544908
 30
0.0
 11
294.9999998509883881
 21
155.4999988526105881
 31
0.0
  0
LINE
  5
6499
  8
0
 10
240.0000001490116119
 20
155.4999988526105881
 30
0.0
 11
240.0000001490116119
 21
189.5000007003544908
 31
0.0
  0
LINE
  5
649B
  8
0
 10
294.5000007003545761
 20
189.9999998509883881
 30
0.0
 11
294.9999998509883881
 21
189.5000007003544908
 31
0.0
  0
LINE
  5
649D
  8
0
 10
240.4999992996453955
 20
189.9999998509883881
 30
0.0
 11
294.5000007003545761
 21
189.9999998509883881
 31
0.0
  0
LINE
  5
64A0
  8
0
 10
240.0000001490116119
 20
189.5000007003544908
 30
0.0
 11
240.4999992996453955
 21
189.9999998509883881
 31
0.0
  0
LINE
  5
64B9
  8
0
 10
189.5000009983776863
 20
154.9999997019766909
 30
0.0
 11
155.5000000819563866
 21
154.9999997019766909
 31
0.0
  0
LINE
  5
64BE
  8
0
 10
155.0
 20
155.4999988526105881
 30
0.0
 11
190.0000001490116119
 21
155.4999988526105881
 31
0.0
  0
LINE
  5
64BF
  8
0
 10
189.5000009983778
 20
154.9999997019766909
 30
0.0
 11
190.0000001490116119
 21
155.4999988526105881
 31
0.0
  0
LINE
  5
64C1
  8
0
 10
155.0
 20
155.4999988526105881
 30
0.0
 11
155.5000000819563866
 21
154.9999997019766909
 31
0.0
  0
LINE
  5
64C3
  8
0
 10
190.0000001490114983
 20
189.5000007003544908
 30
0.0
 11
154.9999999999998863
 21
189.5000007003544908
 31
0.0
  0
LINE
  5
64C7
  8
0
 10
155.0
 20
155.4999988526105881
 30
0.0
 11
155.0
 21
189.5000007003544908
 31
0.0
  0
LINE
  5
64C9
  8
0
 10
190.0000001490116119
 20
189.5000007003544908
 30
0.0
 11
190.0000001490116119
 21
155.4999988526105881
 31
0.0
  0
LINE
  5
64CB
  8
0
 10
155.5000000819563866
 20
189.9999998509883881
 30
0.0
 11
189.5000009983776863
 21
189.9999998509883881
 31
0.0
  0
LINE
  5
64CE
  8
0
 10
189.5000009983778
 20
189.9999998509883881
 30
0.0
 11
190.0000001490116119
 21
189.5000007003544908
 31
0.0
  0
LINE
  5
64CF
  8
0
 10
155.0
 20
189.5000007003544908
 30
0.0
 11
155.5000000819563866
 21
189.9999998509883881
 31
0.0
  0
LINE
  5
6756
  8
0
 10
104.5
 20
154.9999998509883881
 30
0.0
 11
105.0
 21
155.4999998509883881
 31
0.0
  0
LINE
  5
675A
  8
0
 10
50.0
 20
155.4999998509883881
 30
0.0
 11
50.5
 21
154.9999998509883881
 31
0.0
  0
LINE
  5
675B
  8
0
 10
50.0
 20
155.4999998509883881
 30
0.0
 11
105.0
 21
155.4999998509883881
 31
0.0
  0
LINE
  5
675C
  8
0
 10
104.5
 20
154.9999998509883881
 30
0.0
 11
50.5
 21
154.9999998509883881
 31
0.0
  0
LINE
  5
675F
  8
0
 10
50.0
 20
155.4999998509883881
 30
0.0
 11
50.0
 21
189.4999998509883881
 31
0.0
  0
LINE
  5
6761
  8
0
 10
105.0
 20
189.4999998509883881
 30
0.0
 11
105.0
 21
155.4999998509883881
 31
0.0
  0
LINE
  5
6763
  8
0
 10
105.0
 20
189.4999998509883881
 30
0.0
 11
50.0
 21
189.4999998509883881
 31
0.0
  0
CIRCLE
  5
6765
  8
0
 10
77.5
 20
172.4999998509883881
 30
0.0
 40
8.9999999999999716
  0
LINE
  5
6768
  8
0
 10
105.0
 20
189.4999998509883881
 30
0.0
 11
104.5
 21
189.9999998509883881
 31
0.0
  0
LINE
  5
676B
  8
0
 10
50.5
 20
189.9999998509883881
 30
0.0
 11
50.0
 21
189.4999998509883881
 31
0.0
  0
LINE
  5
676C
  8
0
 10
50.5
 20
189.9999998509883881
 30
0.0
 11
104.5
 21
189.9999998509883881
 31
0.0
  0
LINE
  5
688F
  8
0
 10
155.0
 20
51.0000001639127731
 30
0.0
 11
155.0
 21
103.999999538064003
 31
0.0
  0
LINE
  5
6893
  8
0
 10
156.0000001639126879
 20
50.0
 30
0.0
 11
155.0
 21
51.0000001639127731
 31
0.0
  0
LINE
  5
6897
  8
0
 10
155.0
 20
103.999999538064003
 30
0.0
 11
156.0000001639126879
 21
104.9999997019767051
 31
0.0
  0
LINE
  5
68A1
  8
0
 10
188.9999999850988104
 20
50.0
 30
0.0
 11
156.0000001639126879
 21
50.0
 31
0.0
  0
LINE
  5
68A3
  8
0
 10
156.0000001639126879
 20
104.9999997019767051
 30
0.0
 11
188.9999999850988104
 21
104.9999997019767051
 31
0.0
  0
CIRCLE
  5
68A6
  8
0
 10
169.000000432133703
 20
59.9999998509883881
 30
0.0
 40
2.7499999999999711
  0
CIRCLE
  5
68A7
  8
0
 10
169.000000432133703
 20
94.9999998509883739
 30
0.0
 40
2.75
  0
LINE
  5
68A8
  8
0
 10
188.9999999850988104
 20
104.9999997019767051
 30
0.0
 11
190.0000001490116119
 21
103.999999538064003
 31
0.0
  0
LINE
  5
68AB
  8
0
 10
190.0000001490116119
 20
51.0000001639127731
 30
0.0
 11
188.9999999850988104
 21
50.0
 31
0.0
  0
LINE
  5
68AC
  8
0
 10
190.0000001490116119
 20
103.999999538064003
 30
0.0
 11
190.0000001490116119
 21
51.0000001639127731
 31
0.0
  0
LINE
  5
70DB
  8
2
 10
164.2500005848706053
 20
184.4999998807907104
 30
0.0
 11
173.7500002793966871
 21
184.4999998807907104
 31
0.0
  0
LINE
  5
71F6
  8
2
 10
164.2500005848706053
 20
189.9999998509883881
 30
0.0
 11
164.2500005848706053
 21
184.4999998807907104
 31
0.0
  0
LINE
  5
71F7
  8
2
 10
173.7500002793966871
 20
184.4999998807907104
 30
0.0
 11
173.7500002793968861
 21
189.9999998509883881
 31
0.0
  0
LINE
  5
71FA
  8
2
 10
166.2500004470348074
 20
184.4999998807907104
 30
0.0
 11
166.2500004470348927
 21
154.9999997019766909
 31
0.0
  0
LINE
  5
71FB
  8
2
 10
171.7500004172325987
 20
154.9999997019766909
 30
0.0
 11
171.7500004172325134
 21
184.4999998807907104
 31
0.0
  0
LINE
  5
722F
  8
1
 10
77.5
 20
194.9999998509883881
 30
0.0
 11
77.5
 21
149.9999998509883881
 31
0.0
  0
LINE
  5
7230
  8
1
 10
45.0
 20
172.4999998509883881
 30
0.0
 11
110.0
 21
172.4999998509883881
 31
0.0
  0
LINE
  5
7235
  8
1
 10
169.000000432133703
 20
151.9999997019766909
 30
0.0
 11
169.000000432133703
 21
192.9999998509883881
 31
0.0
  0
LINE
  5
723C
  8
1
 10
169.000000432133703
 20
100.7499998509884023
 30
0.0
 11
169.000000432133703
 21
89.2499998509883881
 31
0.0
  0
LINE
  5
723D
  8
1
 10
195.0000001490116119
 20
77.4999998509883739
 30
0.0
 11
150.0
 21
77.4999998509883739
 31
0.0
  0
LINE
  5
7243
  8
1
 10
169.000000432133703
 20
84.4999998509883881
 30
0.0
 11
169.000000432133703
 21
70.4999998509883881
 31
0.0
  0
LINE
  5
7244
  8
1
 10
169.000000432133703
 20
65.7499998509883596
 30
0.0
 11
169.000000432133703
 21
54.2499998509884307
 31
0.0
  0
LINE
  5
7245
  8
1
 10
174.7500004321335894
 20
94.9999998509883739
 30
0.0
 11
163.2500004321335894
 21
94.9999998509883739
 31
0.0
  0
LINE
  5
7246
  8
1
 10
174.7500004321335894
 20
59.9999998509883881
 30
0.0
 11
163.2500004321335894
 21
59.9999998509883881
 31
0.0
  0
LINE
  5
724B
  8
1
 10
169.000000432133703
 20
292.7499997019767761
 30
0.0
 11
169.000000432133703
 21
277.2499997019767761
 31
0.0
  0
LINE
  5
724C
  8
1
 10
195.0000001490116119
 20
267.4999997019767761
 30
0.0
 11
150.0
 21
267.4999997019767761
 31
0.0
  0
LINE
  5
7251
  8
1
 10
176.7500004321335894
 20
249.9999997019768045
 30
0.0
 11
161.250000432133703
 21
249.9999997019768045
 31
0.0
  0
LINE
  5
7252
  8
1
 10
161.250000432133703
 20
284.9999997019767761
 30
0.0
 11
176.7500004321335894
 21
284.9999997019767761
 31
0.0
  0
LINE
  5
7254
  8
1
 10
169.000000432133703
 20
257.7499997019767761
 30
0.0
 11
169.000000432133703
 21
242.2499997019768045
 31
0.0
  0
LINE
  5
7255
  8
1
 10
169.000000432133703
 20
274.4999997019767761
 30
0.0
 11
169.000000432133703
 21
260.4999997019767761
 31
0.0
  0
CIRCLE
  5
725C
  8
0
 10
267.5
 20
172.4999997764824968
 30
0.0
 40
2.0669999999999988
  0
CIRCLE
  5
725D
  8
3
 10
267.5
 20
172.4999997764824968
 30
0.0
 40
2.5
  0
LINE
  5
7262
  8
0
 10
287.7783122602317007
 20
184.7500005341750011
 30
0.0
 11
289.2216879109150796
 21
184.7500005341750011
 31
0.0
  0
LINE
  5
7263
  8
0
 10
289.2216877790191916
 20
184.7500005341750011
 30
0.0
 11
289.9433758282251006
 21
183.4999993195814056
 31
0.0
  0
LINE
  5
7264
  8
0
 10
287.7783122602317007
 20
182.2499990187901062
 30
0.0
 11
287.0566245268578882
 21
183.4999997764819
 31
0.0
  0
LINE
  5
7265
  8
0
 10
287.7783122602317007
 20
182.2499990187901062
 30
0.0
 11
289.2216879109150796
 21
182.2499990187901062
 31
0.0
  0
LINE
  5
7266
  8
0
 10
289.2216877790191916
 20
182.2499990187901062
 30
0.0
 11
289.9433758282251006
 21
183.5000002333837017
 31
0.0
  0
LINE
  5
726E
  8
0
 10
287.7783122602317007
 20
162.7500005341750011
 30
0.0
 11
287.0566245268578882
 21
161.4999997764832074
 31
0.0
  0
LINE
  5
726F
  8
0
 10
287.7783122602317007
 20
162.7500005341750011
 30
0.0
 11
289.2216879109150796
 21
162.7500005341750011
 31
0.0
  0
LINE
  5
7270
  8
0
 10
289.2216877790191916
 20
162.7500005341750011
 30
0.0
 11
289.9433758282251006
 21
161.4999993195814056
 31
0.0
  0
LINE
  5
7271
  8
0
 10
287.7783122602317007
 20
160.2499990187901062
 30
0.0
 11
287.0566245268578882
 21
161.4999997764819
 31
0.0
  0
LINE
  5
7272
  8
0
 10
287.7783122602317007
 20
160.2499990187901062
 30
0.0
 11
289.2216879109150796
 21
160.2499990187901062
 31
0.0
  0
LINE
  5
7273
  8
0
 10
289.2216877790191916
 20
160.2499990187901062
 30
0.0
 11
289.9433758282251006
 21
161.5000002333837017
 31
0.0
  0
LINE
  5
7274
  8
0
 10
245.7783122602317007
 20
162.7500005341750011
 30
0.0
 11
245.0566245268578882
 21
161.4999997764832074
 31
0.0
  0
LINE
  5
7275
  8
0
 10
245.7783122602317007
 20
162.7500005341750011
 30
0.0
 11
247.221687910915108
 21
162.7500005341750011
 31
0.0
  0
LINE
  5
7276
  8
0
 10
247.2216877790191916
 20
162.7500005341750011
 30
0.0
 11
247.9433758282249869
 21
161.4999993195814056
 31
0.0
  0
LINE
  5
7277
  8
0
 10
245.7783122602317007
 20
160.2499990187901062
 30
0.0
 11
245.0566245268578882
 21
161.4999997764819
 31
0.0
  0
LINE
  5
7278
  8
0
 10
245.7783122602317007
 20
160.2499990187901062
 30
0.0
 11
247.221687910915108
 21
160.2499990187901062
 31
0.0
  0
LINE
  5
7279
  8
0
 10
247.2216877790191916
 20
160.2499990187901062
 30
0.0
 11
247.9433758282249869
 21
161.5000002333837017
 31
0.0
  0
LINE
  5
727A
  8
0
 10
245.7783122602317007
 20
184.7500005341750011
 30
0.0
 11
245.0566245268578882
 21
183.4999997764832074
 31
0.0
  0
LINE
  5
727B
  8
0
 10
245.7783122602317007
 20
184.7500005341750011
 30
0.0
 11
247.221687910915108
 21
184.7500005341750011
 31
0.0
  0
LINE
  5
727C
  8
0
 10
247.2216877790191916
 20
184.7500005341750011
 30
0.0
 11
247.9433758282249869
 21
183.4999993195814056
 31
0.0
  0
LINE
  5
727D
  8
0
 10
245.7783122602317007
 20
182.2499990187901062
 30
0.0
 11
245.0566245268578882
 21
183.4999997764819
 31
0.0
  0
LINE
  5
727E
  8
0
 10
245.7783122602317007
 20
182.2499990187901062
 30
0.0
 11
247.221687910915108
 21
182.2499990187901062
 31
0.0
  0
LINE
  5
727F
  8
0
 10
247.2216877790191916
 20
182.2499990187901062
 30
0.0
 11
247.9433758282249869
 21
183.5000002333837017
 31
0.0
  0
LINE
  5
728D
  8
1
 10
267.5
 20
194.9999998509883881
 30
0.0
 11
267.5
 21
149.9999997019766909
 31
0.0
  0
LINE
  5
728E
  8
1
 10
299.9999998509883881
 20
172.4999997764824968
 30
0.0
 11
235.0000001490116119
 21
172.4999997764824968
 31
0.0
  0
LINE
  5
7299
  8
1
 10
246.5
 20
190.4999997764826105
 30
0.0
 11
246.5
 21
176.4999997764824968
 31
0.0
  0
LINE
  5
729A
  8
1
 10
288.5
 20
190.4999997764826105
 30
0.0
 11
288.5
 21
176.4999997764826105
 31
0.0
  0
LINE
  5
729B
  8
1
 10
295.5
 20
183.4999997764826105
 30
0.0
 11
281.5
 21
183.4999997764826105
 31
0.0
  0
LINE
  5
729C
  8
1
 10
295.5
 20
161.4999997764826105
 30
0.0
 11
281.5
 21
161.4999997764826105
 31
0.0
  0
LINE
  5
72A1
  8
1
 10
253.5
 20
183.4999997764826105
 30
0.0
 11
239.5
 21
183.4999997764826105
 31
0.0
  0
LINE
  5
72A2
  8
1
 10
288.5
 20
168.4999997764826105
 30
0.0
 11
288.5
 21
154.4999997764826105
 31
0.0
  0
LINE
  5
72A3
  8
1
 10
253.5
 20
161.4999997764826105
 30
0.0
 11
239.5
 21
161.4999997764826105
 31
0.0
  0
LINE
  5
72A4
  8
1
 10
246.5
 20
168.4999997764826105
 30
0.0
 11
246.5
 21
154.4999997764824968
 31
0.0
  0
CIRCLE
  5
7363
  8
0
 10
169.000000432133703
 20
267.4999997019767761
 30
0.0
 40
4.0
  0
CIRCLE
  5
7364
  8
0
 10
169.000000432133703
 20
77.4999998509883739
 30
0.0
 40
4.0
  0
LINE
  5
73A4
  8
1
 10
161.9999999999998863
 20
243.9999998509885017
 30
0.0
 11
156.0
 21
243.9999998509883028
 31
0.0
  0
LINE
  5
73A5
  8
1
 10
158.9999999999998863
 20
246.9999998509883881
 30
0.0
 11
159.0
 21
240.9999998509883881
 31
0.0
  0
CIRCLE
  5
73A6
  8
0
 10
159.0
 20
243.9999998509883881
 30
0.0
 40
1.5
  0
LINE
  5
73AB
  8
1
 10
159.0
 20
191.4999998509883881
 30
0.0
 11
159.0
 21
187.5887089224470117
 31
0.0
  0
LINE
  5
73AC
  8
2
 10
157.5
 20
189.9999998509883881
 30
0.0
 11
157.5
 21
189.9899998509883119
 31
0.0
  0
LINE
  5
73AD
  8
2
 10
160.5
 20
189.9999998509883881
 30
0.0
 11
160.5
 21
189.9899998509883119
 31
0.0
  0
LINE
  5
73AE
  8
2
 10
157.5
 20
189.9899998509883119
 30
0.0
 11
160.5
 21
189.9899998509883119
 31
0.0
  0
LINE
  5
73AF
  8
2
 10
157.4999999999998863
 20
189.9899998509883119
 30
0.0
 11
159.0
 21
189.0887089224470117
 31
0.0
  0
LINE
  5
73B0
  8
2
 10
160.5
 20
189.9899998509883119
 30
0.0
 11
159.0
 21
189.088708922446699
 31
0.0
  0
ENDSEC
  0
EOF
