  0
SECTION
  2
HEADER
  9
$ACADVER
  1
AC1009
  9
$INSBASE
 10
0.0
 20
0.0
 30
0.0
  9
$EXTMIN
 10
0.0
 20
-2.960436562073669
 30
0.0
  9
$EXTMAX
 10
256.4999999999996
 20
131.0
 30
0.0
  9
$LIMMIN
 10
0.0
 20
0.0
  9
$LIMMAX
 10
375.0
 20
270.0
  9
$ORTHOMODE
 70
     1
  9
$REGENMODE
 70
     1
  9
$FILLMODE
 70
     1
  9
$QTEXTMODE
 70
     0
  9
$MIRRTEXT
 70
     0
  9
$DRAGMODE
 70
     2
  9
$LTSCALE
 40
10.0
  9
$OSMODE
 70
  3071
  9
$ATTMODE
 70
     1
  9
$TEXTSIZE
 40
2.0
  9
$TRACEWID
 40
0.05
  9
$TEXTSTYLE
  7
STANDARD
  9
$CLAYER
  8
0
  9
$CELTYPE
  6
BYLAYER
  9
$CECOLOR
 62
   256
  9
$DIMSCALE
 40
1.0
  9
$DIMASZ
 40
2.5
  9
$DIMEXO
 40
2.0
  9
$DIMDLI
 40
0.38
  9
$DIMRND
 40
0.0
  9
$DIMDLE
 40
0.0
  9
$DIMEXE
 40
2.0
  9
$DIMTP
 40
0.0
  9
$DIMTM
 40
0.0
  9
$DIMTXT
 40
3.0
  9
$DIMCEN
 40
0.09
  9
$DIMTSZ
 40
0.0
  9
$DIMTOL
 70
     0
  9
$DIMLIM
 70
     0
  9
$DIMTIH
 70
     0
  9
$DIMTOH
 70
     0
  9
$DIMSE1
 70
     0
  9
$DIMSE2
 70
     0
  9
$DIMTAD
 70
     1
  9
$DIMZIN
 70
     0
  9
$DIMBLK
  1

  9
$DIMASO
 70
     1
  9
$DIMSHO
 70
     0
  9
$DIMPOST
  1

  9
$DIMAPOST
  1

  9
$DIMALT
 70
     0
  9
$DIMALTD
 70
     2
  9
$DIMALTF
 40
25.399999999999999
  9
$DIMLFAC
 40
1.0
  9
$DIMTOFL
 70
     0
  9
$DIMTVP
 40
1.6000000000000001
  9
$DIMTIX
 70
     1
  9
$DIMSOXD
 70
     0
  9
$DIMSAH
 70
     0
  9
$DIMBLK1
  1

  9
$DIMBLK2
  1

  9
$DIMSTYLE
  2
STANDARD
  9
$DIMCLRD
 70
     0
  9
$DIMCLRE
 70
     0
  9
$DIMCLRT
 70
     0
  9
$DIMTFAC
 40
1.0
  9
$DIMGAP
 40
0.09
  9
$LUNITS
 70
     2
  9
$LUPREC
 70
     4
  9
$SKETCHINC
 40
0.1
  9
$FILLETRAD
 40
2.5
  9
$AUNITS
 70
     0
  9
$AUPREC
 70
     0
  9
$MENU
  1
E:\r13\win\SUPPORT\ACAD
  9
$ELEVATION
 40
0.0
  9
$PELEVATION
 40
0.0
  9
$THICKNESS
 40
0.0
  9
$LIMCHECK
 70
     0
  9
$BLIPMODE
 70
     0
  9
$CHAMFERA
 40
0.0
  9
$CHAMFERB
 40
0.0
  9
$SKPOLY
 70
     0
  9
$TDCREATE
 40
2448650.5678784722
  9
$TDUPDATE
 40
2456597.7228504508
  9
$TDINDWG
 40
0.0591681597
  9
$TDUSRTIMER
 40
0.0591681597
  9
$USRTIMER
 70
     1
  9
$ANGBASE
 50
0.0
  9
$ANGDIR
 70
     0
  9
$PDMODE
 70
     0
  9
$PDSIZE
 40
0.0
  9
$PLINEWID
 40
0.0
  9
$COORDS
 70
     1
  9
$SPLFRAME
 70
     0
  9
$SPLINETYPE
 70
     6
  9
$SPLINESEGS
 70
     8
  9
$ATTDIA
 70
     0
  9
$ATTREQ
 70
     1
  9
$HANDLING
 70
     1
  9
$HANDSEED
  5
1AE5
  9
$SURFTAB1
 70
     6
  9
$SURFTAB2
 70
     6
  9
$SURFTYPE
 70
     6
  9
$SURFU
 70
     6
  9
$SURFV
 70
     6
  9
$UCSNAME
  2

  9
$UCSORG
 10
0.0
 20
0.0
 30
0.0
  9
$UCSXDIR
 10
1.0
 20
0.0
 30
0.0
  9
$UCSYDIR
 10
0.0
 20
1.0
 30
0.0
  9
$PUCSNAME
  2

  9
$PUCSORG
 10
0.0
 20
0.0
 30
0.0
  9
$PUCSXDIR
 10
1.0
 20
0.0
 30
0.0
  9
$PUCSYDIR
 10
0.0
 20
1.0
 30
0.0
  9
$USERI1
 70
     0
  9
$USERI2
 70
     1
  9
$USERI3
 70
     1
  9
$USERI4
 70
     0
  9
$USERI5
 70
     0
  9
$USERR1
 40
0.0
  9
$USERR2
 40
0.0
  9
$USERR3
 40
0.0
  9
$USERR4
 40
0.0
  9
$USERR5
 40
0.0
  9
$WORLDVIEW
 70
     1
  9
$SHADEDGE
 70
     3
  9
$SHADEDIF
 70
    70
  9
$TILEMODE
 70
     1
  9
$MAXACTVP
 70
    16
  9
$PLIMCHECK
 70
     0
  9
$PEXTMIN
 10
1.0000000000000000E+020
 20
1.0000000000000000E+020
 30
1.0000000000000000E+020
  9
$PEXTMAX
 10
-1.0000000000000000E+020
 20
-1.0000000000000000E+020
 30
-1.0000000000000000E+020
  9
$PLIMMIN
 10
0.0
 20
0.0
  9
$PLIMMAX
 10
12.0
 20
9.0
  9
$UNITMODE
 70
     0
  9
$VISRETAIN
 70
     0
  9
$PLINEGEN
 70
     1
  9
$PSLTSCALE
 70
     0
  0
ENDSEC
  0
SECTION
  2
TABLES
  0
TABLE
  2
VPORT
 70
     1
  0
VPORT
  2
*ACTIVE
 70
     0
 10
0.0
 20
0.0
 11
1.0
 21
1.0
 12
187.49427839065231
 22
134.10366293909439
 13
0.0
 23
0.0
 14
10.0
 24
10.0
 15
10.0
 25
10.0
 16
0.0
 26
0.0
 36
1.0
 17
0.0
 27
0.0
 37
0.0
 40
277.29405978699532
 41
2.304913294797688
 42
50.0
 43
0.0
 44
0.0
 50
0.0
 51
0.0
 71
     0
 72
   500
 73
     1
 74
     0
 75
     0
 76
     0
 77
     0
 78
     2
  0
ENDTAB
  0
TABLE
  2
LTYPE
 70
     3
  0
LTYPE
  2
CONTINUOUS
 70
     0
  3
Solid Line
 72
    65
 73
     0
 40
0.0
  0
LTYPE
  2
CENTER
 70
     0
  3
____ _ ____ _ ____ _ ____ _ ____ _ ____ _ ____
 72
    65
 73
     4
 40
2.0
 49
1.25
 49
-0.25
 49
0.25
 49
-0.25
  0
LTYPE
  2
PHANTOM2
 70
     0
  3
___ _ _ ___ _ _ ___ _ _ ___ _ _
 72
    65
 73
     6
 40
1.25
 49
0.625
 49
-0.125
 49
0.125
 49
-0.125
 49
0.125
 49
-0.125
  0
ENDTAB
  0
TABLE
  2
LAYER
 70
     3
  0
LAYER
  2
0
 70
     0
 62
     7
  6
CONTINUOUS
  0
LAYER
  2
1
 70
     0
 62
     1
  6
CENTER
  0
LAYER
  2
3
 70
     0
 62
     3
  6
CONTINUOUS
  0
ENDTAB
  0
TABLE
  2
STYLE
 70
     2
  0
STYLE
  2
STANDARD
 70
     0
 40
0.0
 41
1.0
 50
0.0
 71
     0
 42
2.0
  3
TXT
  4
BIGFONT
  0
STYLE
  2
STANDARD1
 70
     0
 40
0.0
 41
1.0
 50
0.0
 71
     0
 42
3.0
  3
txt
  4

  0
ENDTAB
  0
TABLE
  2
VIEW
 70
     1
  0
VIEW
  2
ALL
 70
     0
 40
270.0
 10
220.99159663865549
 20
135.0
 41
0.0
 11
0.0
 21
0.0
 31
1.0
 12
0.0
 22
0.0
 32
0.0
 42
0.0
 43
0.0
 44
0.0
 50
0.0
 71
     0
  0
ENDTAB
  0
TABLE
  2
UCS
 70
     0
  0
ENDTAB
  0
TABLE
  2
APPID
 70
     4
  0
APPID
  2
ACAD
 70
     0
  0
APPID
  2
ACAD_MLEADERVER
 70
     0
  0
APPID
  2
ACAD_EXEMPT_FROM_CAD_STANDARDS
 70
     0
  0
APPID
  2
ACAD_NAV_VCDISPLAY
 70
     0
  0
ENDTAB
  0
TABLE
  2
DIMSTYLE
 70
     1
  0
DIMSTYLE
  2
STANDARD
 70
     0
  3

  4

  5

  6

  7

 40
1.0
 41
0.18
 42
0.0625
 43
0.38
 44
0.18
 45
0.0
 46
0.0
 47
0.0
 48
0.0
140
0.18
141
0.09
142
0.0
143
25.399999999999999
144
1.0
145
0.0
146
1.0
147
0.09
 71
     0
 72
     0
 73
     1
 74
     1
 75
     0
 76
     0
 77
     0
 78
     0
170
     0
171
     2
172
     0
173
     0
174
     0
175
     0
176
     0
177
     0
178
     0
  0
ENDTAB
  0
ENDSEC
  0
SECTION
  2
BLOCKS
  0
BLOCK
  8
0
  2
$MODEL_SPACE
 70
     0
 10
0.0
 20
0.0
 30
0.0
  3
$MODEL_SPACE
  1

  0
ENDBLK
  5
217
  8
0
  0
BLOCK
 67
     1
  8
0
  2
$PAPER_SPACE
 70
     0
 10
0.0
 20
0.0
 30
0.0
  3
$PAPER_SPACE
  1

  0
ENDBLK
  5
215
 67
     1
  8
0
  0
ENDSEC
  0
SECTION
  2
ENTITIES
  0
LINE
  5
109C
  8
0
 10
129.5
 20
109.25
 30
0.0
 11
126.5
 21
109.25
 31
0.0
  0
LINE
  5
109D
  8
0
 10
126.5
 20
130.75
 30
0.0
 11
129.5
 21
130.75
 31
0.0
  0
LINE
  5
109E
  8
0
 10
129.5
 20
130.75
 30
0.0
 11
129.5
 21
109.25
 31
0.0
  0
LINE
  5
109F
  8
0
 10
129.5
 20
120.4019237886467
 30
0.0
 11
126.5
 21
119.5980762113533
 31
0.0
  0
ARC
  5
10A0
  8
0
 10
151.09999999999951
 20
112.09999999999999
 30
0.0
 40
0.4
 50
0.0
 51
90.0
  0
ARC
  5
10A1
  8
0
 10
151.09999999999951
 20
127.90000000000001
 30
0.0
 40
0.4
 50
270.0
 51
0.0
  0
LINE
  5
10A9
  8
0
 10
130.4999999999998
 20
112.5
 30
0.0
 11
129.9999999999998
 21
113.0
 31
0.0
  0
LINE
  5
10AA
  8
0
 10
130.5
 20
127.5
 30
0.0
 11
130.0
 21
127.0
 31
0.0
  0
LINE
  5
10AB
  8
0
 10
130.4999999999998
 20
112.5
 30
0.0
 11
151.09999999999951
 21
112.5
 31
0.0
  0
LINE
  5
10AC
  8
0
 10
130.5
 20
127.5
 30
0.0
 11
151.09999999999951
 21
127.5
 31
0.0
  0
LINE
  5
10AD
  8
0
 10
130.0
 20
127.0
 30
0.0
 11
130.0
 21
112.9999999999999
 31
0.0
  0
LINE
  5
10AE
  8
0
 10
151.9999999999996
 20
109.0
 30
0.0
 11
151.4999999999996
 21
109.5
 31
0.0
  0
LINE
  5
10AF
  8
0
 10
166.4999999999996
 20
109.5
 30
0.0
 11
165.9999999999996
 21
109.0
 31
0.0
  0
LINE
  5
10B0
  8
0
 10
165.9999999999996
 20
131.0
 30
0.0
 11
166.4999999999996
 21
130.5
 31
0.0
  0
LINE
  5
10B1
  8
0
 10
151.9999999999996
 20
131.0
 30
0.0
 11
151.4999999999996
 21
130.5
 31
0.0
  0
LINE
  5
10B2
  8
0
 10
151.4999999999996
 20
130.5
 30
0.0
 11
151.4999999999996
 21
109.5
 31
0.0
  0
LINE
  5
10B3
  8
0
 10
166.4999999999996
 20
130.5
 30
0.0
 11
166.4999999999996
 21
109.5
 31
0.0
  0
LINE
  5
10B4
  8
0
 10
165.9999999999996
 20
109.0
 30
0.0
 11
151.9999999999996
 21
109.0
 31
0.0
  0
LINE
  5
10B5
  8
0
 10
151.9999999999996
 20
131.0
 30
0.0
 11
165.9999999999996
 21
131.0
 31
0.0
  0
LINE
  5
10B6
  8
0
 10
126.5
 20
109.25
 30
0.0
 11
126.5
 21
130.75
 31
0.0
  0
LINE
  5
10B7
  8
0
 10
117.6371809106259
 20
119.9999999999968
 30
0.0
 11
126.5
 21
120.0000000000028
 31
0.0
  0
LINE
  5
10B8
  8
0
 10
116.5
 20
111.0
 30
0.0
 11
116.5
 21
129.0
 31
0.0
  0
LINE
  5
10B9
  8
0
 10
116.7886751345948
 20
110.5
 30
0.0
 11
116.5
 21
111.0
 31
0.0
  0
ARC
  5
10BA
  8
0
 10
130.50835902458789
 20
115.25
 30
0.0
 40
13.719683889993171
 50
159.74384199960269
 51
200.25615800039731
  0
LINE
  5
10BB
  8
0
 10
126.5
 20
110.5
 30
0.0
 11
116.7886751345948
 21
110.5
 31
0.0
  0
LINE
  5
10BC
  8
0
 10
126.5
 20
129.5
 30
0.0
 11
116.7886751345948
 21
129.5
 31
0.0
  0
ARC
  5
10BD
  8
0
 10
130.50835902458789
 20
124.75
 30
0.0
 40
13.719683889993171
 50
159.74384199960269
 51
200.25615800039731
  0
LINE
  5
10BE
  8
0
 10
116.7886751345948
 20
129.5
 30
0.0
 11
116.5
 21
129.0
 31
0.0
  0
LINE
  5
10BF
  8
1
 10
106.0
 20
120.0
 30
0.0
 11
194.0
 21
120.0
 31
0.0
  0
CIRCLE
  5
10C1
  8
0
 10
238.9999999999996
 20
60.0
 30
0.0
 40
8.0000000000000568
  0
CIRCLE
  5
10C2
  8
3
 10
238.9999999999996
 20
60.0
 30
0.0
 40
6.917500000000075
  0
ARC
  5
10C3
  8
0
 10
238.9999999999996
 20
60.0
 30
0.0
 40
12.5
 50
208.35763657632739
 51
331.64236342367309
  0
LINE
  5
10C4
  8
1
 10
221.4999999999996
 20
60.0
 30
0.0
 11
256.4999999999996
 21
60.0
 31
0.0
  0
LINE
  5
10C5
  8
1
 10
238.9999999999996
 20
77.5
 30
0.0
 11
238.9999999999996
 21
42.5
 31
0.0
  0
LINE
  5
10C6
  8
0
 10
249.9999999999996
 20
65.937171043518902
 30
0.0
 11
249.9999999999996
 21
54.062828956481098
 31
0.0
  0
LINE
  5
10C7
  8
0
 10
227.9999999999996
 20
65.937171043518902
 30
0.0
 11
227.9999999999996
 21
54.062828956481098
 31
0.0
  0
ARC
  5
10C8
  8
0
 10
238.9999999999996
 20
60.0
 30
0.0
 40
12.5
 50
28.357636576326922
 51
151.642363423673
  0
ARC
  5
123B
  8
0
 10
60.999999999999972
 20
60.0
 30
0.0
 40
10.75000000000003
 50
32.094527208922713
 51
87.905472791074203
  0
ARC
  5
123C
  8
0
 10
60.999999999999972
 20
60.0
 30
0.0
 40
10.75000000000003
 50
92.094527208925783
 51
147.90547279107719
  0
ARC
  5
123D
  8
0
 10
60.999999999999972
 20
60.0
 30
0.0
 40
10.75000000000003
 50
152.09452720892489
 51
207.90547279107511
  0
ARC
  5
123E
  8
0
 10
60.999999999999972
 20
60.0
 30
0.0
 40
10.75000000000003
 50
212.0945272089227
 51
267.9054727910742
  0
ARC
  5
123F
  8
0
 10
60.999999999999972
 20
60.0
 30
0.0
 40
10.75000000000003
 50
272.0945272089258
 51
327.90547279107102
  0
ARC
  5
1240
  8
0
 10
60.999999999999972
 20
60.0
 30
0.0
 40
10.75000000000003
 50
332.09452720892477
 51
27.905472791075091
  0
LINE
  5
1241
  8
0
 10
60.999999999999972
 20
70.969655114602915
 30
0.0
 11
51.499999999999972
 21
65.484827557301401
 31
0.0
  0
LINE
  5
1242
  8
0
 10
70.499999999999972
 20
65.484827557301287
 30
0.0
 11
60.999999999999972
 21
70.969655114602915
 31
0.0
  0
LINE
  5
1243
  8
0
 10
70.499999999999972
 20
54.515172442698479
 30
0.0
 11
70.499999999999972
 21
65.484827557301287
 31
0.0
  0
LINE
  5
1244
  8
0
 10
60.999999999999972
 20
49.030344885397199
 30
0.0
 11
70.499999999999972
 21
54.515172442698479
 31
0.0
  0
LINE
  5
1245
  8
0
 10
51.499999999999972
 20
54.515172442698713
 30
0.0
 11
60.999999999999972
 21
49.030344885397199
 31
0.0
  0
CIRCLE
  5
1246
  8
3
 10
60.999999999999972
 20
60.0
 30
0.0
 40
5.052999999999999
  0
CIRCLE
  5
1247
  8
0
 10
60.999999999999972
 20
60.0
 30
0.0
 40
6.0
  0
CIRCLE
  5
1248
  8
0
 10
60.999999999999972
 20
60.0
 30
0.0
 40
9.0
  0
LINE
  5
1249
  8
0
 10
51.499999999999972
 20
65.484827557301401
 30
0.0
 11
51.499999999999972
 21
54.515172442698713
 31
0.0
  0
LINE
  5
124A
  8
0
 10
129.4999999999998
 20
49.25
 30
0.0
 11
126.4999999999998
 21
49.25
 31
0.0
  0
LINE
  5
124B
  8
0
 10
126.4999999999998
 20
70.75
 30
0.0
 11
129.4999999999998
 21
70.75
 31
0.0
  0
LINE
  5
124C
  8
0
 10
129.4999999999998
 20
70.75
 30
0.0
 11
129.4999999999998
 21
49.25
 31
0.0
  0
LINE
  5
124D
  8
0
 10
129.5
 20
60.401923788646741
 30
0.0
 11
126.4999999999998
 21
59.598076211353373
 31
0.0
  0
LINE
  5
124E
  8
0
 10
117.6371809106259
 20
49.030344885396971
 30
0.0
 11
116.5
 21
50.999999999998629
 31
0.0
  0
ARC
  5
124F
  8
0
 10
121.6447383566033
 20
51.772758664047622
 30
0.0
 40
4.8560632220084576
 50
145.61575253199459
 51
205.61575253191339
  0
ARC
  5
1250
  8
0
 10
134.94016935858031
 20
60.0
 30
0.0
 40
18.15149422398537
 50
162.41204622602311
 51
197.58795377397689
  0
ARC
  5
1251
  8
0
 10
121.6447383566033
 20
68.227241335952385
 30
0.0
 40
4.8560632220084576
 50
154.38424746808661
 51
214.3842474680053
  0
LINE
  5
1252
  8
0
 10
117.6371809106259
 20
70.969655114603029
 30
0.0
 11
116.5
 21
69.000000000001364
 31
0.0
  0
LINE
  5
1253
  8
0
 10
116.5
 20
50.999999999998629
 30
0.0
 11
116.5
 21
69.000000000001364
 31
0.0
  0
LINE
  5
1254
  8
0
 10
117.6371809106259
 20
49.030344885396971
 30
0.0
 11
126.5
 21
49.030344885396971
 31
0.0
  0
LINE
  5
1255
  8
0
 10
117.6371809106259
 20
54.515172442702813
 30
0.0
 11
126.4999999999998
 21
54.515172442695068
 31
0.0
  0
LINE
  5
1256
  8
0
 10
117.6371809106259
 20
70.969655114603029
 30
0.0
 11
126.4999999999998
 21
70.969655114603029
 31
0.0
  0
LINE
  5
1257
  8
0
 10
117.6371809106259
 20
65.484827557297194
 30
0.0
 11
126.4999999999998
 21
65.484827557304811
 31
0.0
  0
LINE
  5
1258
  8
0
 10
126.5
 20
49.030344885396971
 30
0.0
 11
126.4999999999998
 21
70.969655114603029
 31
0.0
  0
LINE
  5
125E
  8
0
 10
166.5
 20
48.000000000000107
 30
0.0
 11
166.5
 21
72.0
 31
0.0
  0
LINE
  5
125F
  8
0
 10
129.9999999999998
 20
53.0
 30
0.0
 11
130.4999999999998
 21
52.5
 31
0.0
  0
LINE
  5
1260
  8
0
 10
130.5
 20
67.5
 30
0.0
 11
130.0
 21
67.0
 31
0.0
  0
ARC
  5
1261
  8
0
 10
151.09999999999991
 20
52.100000000000023
 30
0.0
 40
0.4
 50
0.0
 51
90.0
  0
ARC
  5
1262
  8
0
 10
151.09999999999991
 20
67.899999999999977
 30
0.0
 40
0.4
 50
270.0
 51
0.0
  0
LINE
  5
1263
  8
0
 10
129.9999999999998
 20
53.0
 30
0.0
 11
130.00000000000031
 21
67.000000000000227
 31
0.0
  0
LINE
  5
1264
  8
0
 10
130.4999999999998
 20
52.5
 30
0.0
 11
151.09999999999991
 21
52.5
 31
0.0
  0
LINE
  5
1265
  8
0
 10
130.5
 20
67.5
 30
0.0
 11
151.09999999999991
 21
67.5
 31
0.0
  0
LINE
  5
1266
  8
3
 10
166.5
 20
65.937171043518561
 30
0.0
 11
151.4999999999998
 21
54.06282895648075
 31
0.0
  0
LINE
  5
1267
  8
3
 10
151.4999999999998
 20
65.937171043518674
 30
0.0
 11
166.4999999999998
 21
54.062828956480651
 31
0.0
  0
LINE
  5
1268
  8
0
 10
151.4999999999998
 20
54.06282895648075
 30
0.0
 11
166.4999999999998
 21
54.062828956480651
 31
0.0
  0
LINE
  5
1269
  8
0
 10
151.4999999999998
 20
65.937171043518674
 30
0.0
 11
166.5
 21
65.937171043518561
 31
0.0
  0
LINE
  5
126A
  8
0
 10
151.9999999999998
 20
47.5
 30
0.0
 11
151.4999999999998
 21
48.0
 31
0.0
  0
LINE
  5
126B
  8
0
 10
166.4999999999998
 20
48.0
 30
0.0
 11
165.9999999999998
 21
47.5
 31
0.0
  0
LINE
  5
126C
  8
0
 10
166.0
 20
72.5
 30
0.0
 11
166.5
 21
72.0
 31
0.0
  0
LINE
  5
126D
  8
0
 10
152.0
 20
72.5
 30
0.0
 11
151.5
 21
72.0
 31
0.0
  0
LINE
  5
126E
  8
1
 10
106.0
 20
60.0
 30
0.0
 11
194.0
 21
60.0
 31
0.0
  0
LINE
  5
126F
  8
0
 10
151.4999999999998
 20
48.0
 30
0.0
 11
151.4999999999998
 21
72.0
 31
0.0
  0
LINE
  5
1270
  8
0
 10
151.9999999999998
 20
47.5
 30
0.0
 11
165.9999999999998
 21
47.5
 31
0.0
  0
LINE
  5
1271
  8
0
 10
152.0
 20
72.5
 30
0.0
 11
166.0
 21
72.5
 31
0.0
  0
ARC
  5
1272
  8
0
 10
60.999999999999972
 20
60.0
 30
0.0
 40
12.5
 50
28.357636576326922
 51
151.642363423673
  0
LINE
  5
1273
  8
0
 10
71.999999999999972
 20
65.937171043518902
 30
0.0
 11
71.999999999999972
 21
54.062828956481098
 31
0.0
  0
LINE
  5
1274
  8
0
 10
49.999999999999972
 20
65.937171043518902
 30
0.0
 11
49.999999999999972
 21
54.062828956481098
 31
0.0
  0
LINE
  5
1275
  8
1
 10
60.999999999999972
 20
77.5
 30
0.0
 11
60.999999999999972
 21
42.5
 31
0.0
  0
LINE
  5
1276
  8
1
 10
78.499999999999972
 20
60.0
 30
0.0
 11
43.499999999999957
 21
60.0
 31
0.0
  0
ARC
  5
1277
  8
0
 10
60.999999999999972
 20
60.0
 30
0.0
 40
12.5
 50
208.35763657632691
 51
331.64236342367212
  0
LINE
  5
160B
  8
0
 10
188.9999999999996
 20
126.5
 30
0.0
 11
188.9999999999996
 21
113.5
 31
0.0
  0
LINE
  5
160C
  8
0
 10
186.40192378864651
 20
127.9999999999999
 30
0.0
 11
186.40192378864651
 21
112.0000000000001
 31
0.0
  0
LINE
  5
160D
  8
3
 10
171.22315500080629
 20
113.0824999999999
 30
0.0
 11
188.2768687878395
 21
113.0824999999999
 31
0.0
  0
LINE
  5
160E
  8
0
 10
173.09809999999959
 20
111.9999999999999
 30
0.0
 11
186.40192378864629
 21
111.9999999999999
 31
0.0
  0
LINE
  5
160F
  8
0
 10
173.09809999999959
 20
127.9999999999999
 30
0.0
 11
186.40192378864651
 21
127.9999999999999
 31
0.0
  0
LINE
  5
1610
  8
3
 10
171.22315500080629
 20
126.9174999999999
 30
0.0
 11
188.27686878783959
 21
126.9174999999999
 31
0.0
  0
LINE
  5
1611
  8
0
 10
166.89999999999961
 20
126.5
 30
0.0
 11
170.3928441116739
 21
126.4999999999999
 31
0.0
  0
LINE
  5
1612
  8
0
 10
173.09809999999959
 20
127.9999999999999
 30
0.0
 11
173.09809999999959
 21
111.9999999999999
 31
0.0
  0
LINE
  5
1613
  8
0
 10
173.09809999999959
 20
127.9999999999999
 30
0.0
 11
170.59284411167391
 21
126.5535898384861
 31
0.0
  0
LINE
  5
1614
  8
0
 10
170.5000237886463
 20
113.5
 30
0.0
 11
170.5000237886463
 21
126.4999999999999
 31
0.0
  0
ARC
  5
1615
  8
0
 10
166.89999999999961
 20
126.90000000000001
 30
0.0
 40
0.4
 50
180.0
 51
270.0
  0
ARC
  5
1616
  8
0
 10
170.3928441116739
 20
126.89999999999991
 30
0.0
 40
0.4
 50
270.0
 51
299.9999999999996
  0
LINE
  5
1617
  8
0
 10
166.89999999999961
 20
113.5
 30
0.0
 11
170.3928441116739
 21
113.5
 31
0.0
  0
LINE
  5
1618
  8
0
 10
173.09809999999959
 20
111.9999999999999
 30
0.0
 11
170.5928441116738
 21
113.4464101615137
 31
0.0
  0
ARC
  5
1619
  8
0
 10
166.89999999999961
 20
113.10000000000009
 30
0.0
 40
0.4
 50
90.0
 51
180.0
  0
ARC
  5
161A
  8
0
 10
170.3928441116739
 20
113.09999999999999
 30
0.0
 40
0.4
 50
60.000000000000419
 51
90.0
  0
LINE
  5
161B
  8
0
 10
188.9999999999996
 20
113.5
 30
0.0
 11
186.40192378864629
 21
111.9999999999999
 31
0.0
  0
LINE
  5
161C
  8
0
 10
188.99999999999969
 20
126.4999999999999
 30
0.0
 11
186.4019237886464
 21
128.0
 31
0.0
  0
LINE
  5
161E
  8
0
 10
188.9999999999996
 20
66.5
 30
0.0
 11
188.9999999999996
 21
53.5
 31
0.0
  0
LINE
  5
161F
  8
0
 10
186.40192378864651
 20
67.999999999999943
 30
0.0
 11
186.40192378864651
 21
52.000000000000078
 31
0.0
  0
LINE
  5
1620
  8
3
 10
171.22315500080629
 20
53.082499999999953
 30
0.0
 11
188.2768687878395
 21
53.082499999999953
 31
0.0
  0
LINE
  5
1621
  8
0
 10
173.09809999999959
 20
51.999999999999972
 30
0.0
 11
186.40192378864629
 21
51.999999999999972
 31
0.0
  0
LINE
  5
1622
  8
0
 10
173.09809999999959
 20
67.999999999999943
 30
0.0
 11
186.40192378864651
 21
67.999999999999943
 31
0.0
  0
LINE
  5
1623
  8
3
 10
171.22315500080629
 20
66.917499999999961
 30
0.0
 11
188.27686878783959
 21
66.917499999999961
 31
0.0
  0
LINE
  5
1624
  8
0
 10
166.89999999999961
 20
66.5
 30
0.0
 11
170.3928441116739
 21
66.499999999999943
 31
0.0
  0
LINE
  5
1625
  8
0
 10
173.09809999999959
 20
67.999999999999943
 30
0.0
 11
173.09809999999959
 21
51.999999999999972
 31
0.0
  0
LINE
  5
1626
  8
0
 10
173.09809999999959
 20
67.999999999999943
 30
0.0
 11
170.59284411167391
 21
66.553589838486175
 31
0.0
  0
LINE
  5
1627
  8
0
 10
170.5000237886463
 20
53.499999999999972
 30
0.0
 11
170.5000237886463
 21
66.499999999999943
 31
0.0
  0
ARC
  5
1628
  8
0
 10
166.89999999999961
 20
66.900000000000034
 30
0.0
 40
0.4
 50
180.0
 51
270.0
  0
ARC
  5
1629
  8
0
 10
170.3928441116739
 20
66.89999999999992
 30
0.0
 40
0.4
 50
270.0
 51
299.9999999999996
  0
LINE
  5
162A
  8
0
 10
166.89999999999961
 20
53.50000000000005
 30
0.0
 11
170.3928441116739
 21
53.499999999999972
 31
0.0
  0
LINE
  5
162B
  8
0
 10
173.09809999999959
 20
51.999999999999972
 30
0.0
 11
170.5928441116738
 21
53.446410161513739
 31
0.0
  0
ARC
  5
162C
  8
0
 10
166.89999999999961
 20
53.10000000000008
 30
0.0
 40
0.4
 50
90.0
 51
180.0
  0
ARC
  5
162D
  8
0
 10
170.3928441116739
 20
53.099999999999987
 30
0.0
 40
0.4
 50
60.000000000000419
 51
90.0
  0
LINE
  5
162E
  8
0
 10
188.9999999999996
 20
53.5
 30
0.0
 11
186.40192378864629
 21
51.999999999999972
 31
0.0
  0
LINE
  5
162F
  8
0
 10
188.99999999999969
 20
66.499999999999943
 30
0.0
 11
186.4019237886464
 21
68.0
 31
0.0
  0
LINE
  5
17D0
  8
0
 10
129.5
 20
124.6999999999999
 30
0.0
 11
129.59999999999991
 21
124.6999999999999
 31
0.0
  0
LINE
  5
17D1
  8
0
 10
129.5
 20
115.2999999999999
 30
0.0
 11
129.59999999999991
 21
115.2999999999999
 31
0.0
  0
LINE
  5
17D2
  8
0
 10
116.5
 20
125.9999999999999
 30
0.0
 11
113.2516660498392
 21
125.9999999999999
 31
0.0
  0
LINE
  5
17D3
  8
0
 10
116.5
 20
113.9999999999999
 30
0.0
 11
113.2516660498392
 21
113.9999999999999
 31
0.0
  0
LINE
  5
17D4
  8
3
 10
116.5
 20
125.0529999999999
 30
0.0
 11
111.6114139350715
 21
125.0529999999999
 31
0.0
  0
LINE
  5
17D5
  8
3
 10
116.5
 20
114.9469999999999
 30
0.0
 11
111.6114139350714
 21
114.9469999999999
 31
0.0
  0
LINE
  5
17D6
  8
0
 10
110.9999999999996
 20
115.2999999999998
 30
0.0
 11
110.9999999999998
 21
124.6999999999999
 31
0.0
  0
ARC
  5
17D7
  8
0
 10
129.59999999999991
 20
125.09999999999989
 30
0.0
 40
0.4
 50
270.0
 51
0.0
  0
ARC
  5
17D8
  8
0
 10
129.59999999999991
 20
114.89999999999981
 30
0.0
 40
0.4
 50
0.0
 51
89.999999999996746
  0
LINE
  5
17D9
  8
0
 10
110.9999999999996
 20
115.2999999999998
 30
0.0
 11
113.2516660498392
 21
113.9999999999999
 31
0.0
  0
LINE
  5
17DA
  8
0
 10
110.9999999999996
 20
124.6999999999999
 30
0.0
 11
113.2516660498392
 21
125.9999999999999
 31
0.0
  0
LINE
  5
17DB
  8
0
 10
113.2516660498392
 20
125.9999999999999
 30
0.0
 11
113.2516660498392
 21
113.9999999999999
 31
0.0
  0
LINE
  5
17DC
  8
0
 10
129.50000000000031
 20
64.700000000000045
 30
0.0
 11
129.60000000000011
 21
64.700000000000045
 31
0.0
  0
LINE
  5
17DD
  8
0
 10
129.50000000000031
 20
55.300000000000068
 30
0.0
 11
129.60000000000011
 21
55.300000000000068
 31
0.0
  0
LINE
  5
17DE
  8
0
 10
116.5000000000003
 20
66.0
 30
0.0
 11
113.2516660498394
 21
66.0
 31
0.0
  0
LINE
  5
17DF
  8
0
 10
116.5000000000003
 20
54.0
 30
0.0
 11
113.2516660498394
 21
54.0
 31
0.0
  0
LINE
  5
17E0
  8
3
 10
116.5000000000003
 20
65.052999999999997
 30
0.0
 11
111.6114139350717
 21
65.052999999999997
 31
0.0
  0
LINE
  5
17E1
  8
3
 10
116.5000000000003
 20
54.947000000000003
 30
0.0
 11
111.6114139350716
 21
54.947000000000003
 31
0.0
  0
LINE
  5
17E2
  8
0
 10
110.9999999999999
 20
55.299999999999947
 30
0.0
 11
111.0
 21
64.700000000000045
 31
0.0
  0
ARC
  5
17E3
  8
0
 10
129.60000000000011
 20
65.100000000000023
 30
0.0
 40
0.4
 50
270.0
 51
0.0
  0
ARC
  5
17E4
  8
0
 10
129.60000000000011
 20
54.899999999999977
 30
0.0
 40
0.4
 50
0.0
 51
89.999999999996746
  0
LINE
  5
17E5
  8
0
 10
110.9999999999999
 20
55.299999999999947
 30
0.0
 11
113.2516660498394
 21
54.0
 31
0.0
  0
LINE
  5
17E6
  8
0
 10
110.9999999999999
 20
64.700000000000045
 30
0.0
 11
113.2516660498394
 21
66.0
 31
0.0
  0
LINE
  5
17E7
  8
0
 10
113.2516660498394
 20
66.0
 30
0.0
 11
113.2516660498394
 21
54.0
 31
0.0
  0
TEXT
  5
1A8A
  8
0
 62
     3
 10
0.0
 20
0.0
 30
0.0
 40
10.0
  1
PID1522-M16-SUS
  7
STANDARD1
  0
ENDSEC
  0
EOF
