  0
SECTION
  2
HEADER
  9
$ACADVER
  1
AC1009
  9
$INSBASE
 10
0.0
 20
0.0
 30
0.0
  9
$EXTMIN
 10
0.0
 20
-2.960436562073669
 30
0.0
  9
$EXTMAX
 10
244.5
 20
131.0
 30
0.0
  9
$LIMMIN
 10
0.0
 20
0.0
  9
$LIMMAX
 10
375.0
 20
270.0
  9
$ORTHOMODE
 70
     1
  9
$REGENMODE
 70
     1
  9
$FILLMODE
 70
     1
  9
$QTEXTMODE
 70
     0
  9
$MIRRTEXT
 70
     0
  9
$DRAGMODE
 70
     2
  9
$LTSCALE
 40
10.0
  9
$OSMODE
 70
  3071
  9
$ATTMODE
 70
     1
  9
$TEXTSIZE
 40
0.2
  9
$TRACEWID
 40
0.05
  9
$TEXTSTYLE
  7
STANDARD
  9
$CLAYER
  8
0
  9
$CELTYPE
  6
BYLAYER
  9
$CECOLOR
 62
   256
  9
$DIMSCALE
 40
1.0
  9
$DIMASZ
 40
3.0
  9
$DIMEXO
 40
2.0
  9
$DIMDLI
 40
0.38
  9
$DIMRND
 40
0.0
  9
$DIMDLE
 40
0.0
  9
$DIMEXE
 40
2.0
  9
$DIMTP
 40
0.0
  9
$DIMTM
 40
0.0
  9
$DIMTXT
 40
3.2000000000000002
  9
$DIMCEN
 40
0.0
  9
$DIMTSZ
 40
0.0
  9
$DIMTOL
 70
     0
  9
$DIMLIM
 70
     0
  9
$DIMTIH
 70
     0
  9
$DIMTOH
 70
     0
  9
$DIMSE1
 70
     0
  9
$DIMSE2
 70
     0
  9
$DIMTAD
 70
     1
  9
$DIMZIN
 70
     0
  9
$DIMBLK
  1

  9
$DIMASO
 70
     0
  9
$DIMSHO
 70
     0
  9
$DIMPOST
  1

  9
$DIMAPOST
  1

  9
$DIMALT
 70
     0
  9
$DIMALTD
 70
     2
  9
$DIMALTF
 40
25.399999999999999
  9
$DIMLFAC
 40
1.0
  9
$DIMTOFL
 70
     1
  9
$DIMTVP
 40
1.6000000000000001
  9
$DIMTIX
 70
     1
  9
$DIMSOXD
 70
     0
  9
$DIMSAH
 70
     0
  9
$DIMBLK1
  1

  9
$DIMBLK2
  1

  9
$DIMSTYLE
  2
STANDARD
  9
$DIMCLRD
 70
     0
  9
$DIMCLRE
 70
     0
  9
$DIMCLRT
 70
     0
  9
$DIMTFAC
 40
1.0
  9
$DIMGAP
 40
0.09
  9
$LUNITS
 70
     2
  9
$LUPREC
 70
     4
  9
$SKETCHINC
 40
0.1
  9
$FILLETRAD
 40
1.0
  9
$AUNITS
 70
     0
  9
$AUPREC
 70
     4
  9
$MENU
  1
E:\r13\win\SUPPORT\ACAD
  9
$ELEVATION
 40
0.0
  9
$PELEVATION
 40
0.0
  9
$THICKNESS
 40
0.0
  9
$LIMCHECK
 70
     0
  9
$BLIPMODE
 70
     0
  9
$CHAMFERA
 40
0.0
  9
$CHAMFERB
 40
0.0
  9
$SKPOLY
 70
     0
  9
$TDCREATE
 40
2449839.7763425931
  9
$TDUPDATE
 40
2456597.7228325931
  9
$TDINDWG
 40
0.0253539931
  9
$TDUSRTIMER
 40
0.0253539931
  9
$USRTIMER
 70
     1
  9
$ANGBASE
 50
0.0
  9
$ANGDIR
 70
     0
  9
$PDMODE
 70
     0
  9
$PDSIZE
 40
0.0
  9
$PLINEWID
 40
0.0
  9
$COORDS
 70
     1
  9
$SPLFRAME
 70
     0
  9
$SPLINETYPE
 70
     6
  9
$SPLINESEGS
 70
     8
  9
$ATTDIA
 70
     0
  9
$ATTREQ
 70
     1
  9
$HANDLING
 70
     1
  9
$HANDSEED
  5
4A0
  9
$SURFTAB1
 70
     6
  9
$SURFTAB2
 70
     6
  9
$SURFTYPE
 70
     6
  9
$SURFU
 70
     6
  9
$SURFV
 70
     6
  9
$UCSNAME
  2

  9
$UCSORG
 10
0.0
 20
0.0
 30
0.0
  9
$UCSXDIR
 10
1.0
 20
0.0
 30
0.0
  9
$UCSYDIR
 10
0.0
 20
1.0
 30
0.0
  9
$PUCSNAME
  2

  9
$PUCSORG
 10
0.0
 20
0.0
 30
0.0
  9
$PUCSXDIR
 10
1.0
 20
0.0
 30
0.0
  9
$PUCSYDIR
 10
0.0
 20
1.0
 30
0.0
  9
$USERI1
 70
     0
  9
$USERI2
 70
     1
  9
$USERI3
 70
     0
  9
$USERI4
 70
     0
  9
$USERI5
 70
     0
  9
$USERR1
 40
0.0
  9
$USERR2
 40
0.0
  9
$USERR3
 40
0.0
  9
$USERR4
 40
0.0
  9
$USERR5
 40
0.0
  9
$WORLDVIEW
 70
     1
  9
$SHADEDGE
 70
     3
  9
$SHADEDIF
 70
    70
  9
$TILEMODE
 70
     1
  9
$MAXACTVP
 70
    16
  9
$PLIMCHECK
 70
     0
  9
$PEXTMIN
 10
1.0000000000000000E+020
 20
1.0000000000000000E+020
 30
1.0000000000000000E+020
  9
$PEXTMAX
 10
-1.0000000000000000E+020
 20
-1.0000000000000000E+020
 30
-1.0000000000000000E+020
  9
$PLIMMIN
 10
0.0
 20
0.0
  9
$PLIMMAX
 10
12.0
 20
9.0
  9
$UNITMODE
 70
     0
  9
$VISRETAIN
 70
     0
  9
$PLINEGEN
 70
     0
  9
$PSLTSCALE
 70
     0
  0
ENDSEC
  0
SECTION
  2
TABLES
  0
TABLE
  2
VPORT
 70
     1
  0
VPORT
  2
*ACTIVE
 70
     0
 10
0.0
 20
0.0
 11
1.0
 21
1.0
 12
187.49427839065231
 22
134.10366293909439
 13
0.0
 23
0.0
 14
10.0
 24
10.0
 15
10.0
 25
10.0
 16
0.0
 26
0.0
 36
1.0
 17
0.0
 27
0.0
 37
0.0
 40
277.29405978699532
 41
2.304913294797688
 42
50.0
 43
0.0
 44
0.0
 50
0.0
 51
0.0
 71
     0
 72
   100
 73
     1
 74
     0
 75
     0
 76
     0
 77
     0
 78
     2
  0
ENDTAB
  0
TABLE
  2
LTYPE
 70
     3
  0
LTYPE
  2
CONTINUOUS
 70
     0
  3
Solid Line
 72
    65
 73
     0
 40
0.0
  0
LTYPE
  2
CENTER
 70
     0
  3
____ _ ____ _ ____ _ ____ _ ____ _ ____ _ ____
 72
    65
 73
     4
 40
2.0
 49
1.25
 49
-0.25
 49
0.25
 49
-0.25
  0
LTYPE
  2
PHANTOM2
 70
     0
  3
___ _ _ ___ _ _ ___ _ _ ___ _ _
 72
    65
 73
     6
 40
1.25
 49
0.625
 49
-0.125
 49
0.125
 49
-0.125
 49
0.125
 49
-0.125
  0
ENDTAB
  0
TABLE
  2
LAYER
 70
     3
  0
LAYER
  2
0
 70
     0
 62
     7
  6
CONTINUOUS
  0
LAYER
  2
1
 70
     0
 62
     1
  6
CENTER
  0
LAYER
  2
3
 70
     0
 62
     3
  6
CONTINUOUS
  0
ENDTAB
  0
TABLE
  2
STYLE
 70
     2
  0
STYLE
  2
STANDARD
 70
     0
 40
0.0
 41
1.0
 50
0.0
 71
     0
 42
0.2
  3
ROMANS
  4
EXTFONT
  0
STYLE
  2
STANDARD1
 70
     0
 40
0.0
 41
1.0
 50
0.0
 71
     0
 42
3.0
  3
txt
  4

  0
ENDTAB
  0
TABLE
  2
VIEW
 70
     1
  0
VIEW
  2
ALL
 70
     0
 40
270.0
 10
220.99159700000001
 20
135.0
 41
0.0
 11
0.0
 21
0.0
 31
1.0
 12
0.0
 22
0.0
 32
0.0
 42
0.0
 43
0.0
 44
0.0
 50
0.0
 71
     0
  0
ENDTAB
  0
TABLE
  2
UCS
 70
     0
  0
ENDTAB
  0
TABLE
  2
APPID
 70
     4
  0
APPID
  2
ACAD
 70
     0
  0
APPID
  2
ACAD_EXEMPT_FROM_CAD_STANDARDS
 70
     0
  0
APPID
  2
ACAD_NAV_VCDISPLAY
 70
     0
  0
APPID
  2
ACAD_MLEADERVER
 70
     0
  0
ENDTAB
  0
TABLE
  2
DIMSTYLE
 70
     1
  0
DIMSTYLE
  2
STANDARD
 70
     0
  3

  4

  5

  6

  7

 40
1.0
 41
0.18
 42
0.0625
 43
0.38
 44
0.18
 45
0.0
 46
0.0
 47
0.0
 48
0.0
140
0.18
141
0.09
142
0.0
143
25.399999999999999
144
1.0
145
0.0
146
1.0
147
0.09
 71
     0
 72
     0
 73
     1
 74
     1
 75
     0
 76
     0
 77
     0
 78
     0
170
     0
171
     2
172
     0
173
     0
174
     0
175
     0
176
     0
177
     0
178
     0
  0
ENDTAB
  0
ENDSEC
  0
SECTION
  2
BLOCKS
  0
BLOCK
  8
0
  2
$MODEL_SPACE
 70
     0
 10
0.0
 20
0.0
 30
0.0
  3
$MODEL_SPACE
  1

  0
ENDBLK
  5
154
  8
0
  0
BLOCK
 67
     1
  8
0
  2
$PAPER_SPACE
 70
     0
 10
0.0
 20
0.0
 30
0.0
  3
$PAPER_SPACE
  1

  0
ENDBLK
  5
152
 67
     1
  8
0
  0
ENDSEC
  0
SECTION
  2
ENTITIES
  0
ARC
  5
27
  8
0
 10
60.0
 20
60.0
 30
0.0
 40
12.5
 50
28.35763700000031
 51
151.64236299999959
  0
LINE
  5
28
  8
0
 10
49.0
 20
65.937170999999978
 30
0.0
 11
49.0
 21
54.062828999999986
 31
0.0
  0
LINE
  5
29
  8
0
 10
71.0
 20
65.937170999999978
 30
0.0
 11
71.0
 21
54.062828999999986
 31
0.0
  0
ARC
  5
2A
  8
0
 10
60.0
 20
60.0
 30
0.0
 40
12.5
 50
208.3576370000003
 51
331.64236299999959
  0
LINE
  5
2B
  8
0
 10
50.5
 20
65.484827999999993
 30
0.0
 11
50.5
 21
54.51517299999999
 31
0.0
  0
CIRCLE
  5
2C
  8
0
 10
60.0
 20
60.0
 30
0.0
 40
9.0
  0
CIRCLE
  5
2D
  8
0
 10
60.0
 20
60.0
 30
0.0
 40
6.0
  0
CIRCLE
  5
2E
  8
3
 10
60.0
 20
60.0
 30
0.0
 40
5.052999999999999
  0
LINE
  5
2F
  8
0
 10
50.5
 20
54.51517299999999
 30
0.0
 11
60.0
 21
49.03034499999999
 31
0.0
  0
LINE
  5
30
  8
0
 10
60.0
 20
49.03034499999999
 30
0.0
 11
69.5
 21
54.51517299999999
 31
0.0
  0
LINE
  5
31
  8
0
 10
69.5
 20
54.51517299999999
 30
0.0
 11
69.5
 21
65.484827999999993
 31
0.0
  0
LINE
  5
32
  8
0
 10
69.5
 20
65.484827999999993
 30
0.0
 11
60.0
 21
70.969654999999989
 31
0.0
  0
LINE
  5
33
  8
0
 10
60.0
 20
70.969654999999989
 30
0.0
 11
50.5
 21
65.484827999999993
 31
0.0
  0
ARC
  5
34
  8
0
 10
227.0
 20
60.000000000000462
 30
0.0
 40
12.5
 50
208.3576370000003
 51
331.64236299999959
  0
LINE
  5
35
  8
0
 10
238.0
 20
65.937171000000433
 30
0.0
 11
238.0
 21
54.062829000000463
 31
0.0
  0
LINE
  5
36
  8
0
 10
216.0
 20
65.937171000000433
 30
0.0
 11
216.0
 21
54.062829000000463
 31
0.0
  0
ARC
  5
37
  8
0
 10
227.0
 20
60.000000000000462
 30
0.0
 40
12.5
 50
28.35763700000031
 51
151.64236299999959
  0
CIRCLE
  5
38
  8
3
 10
227.0
 20
60.000000000000462
 30
0.0
 40
8.6470000000000002
  0
CIRCLE
  5
39
  8
0
 10
227.0
 20
60.000000000000462
 30
0.0
 40
10.0
  0
LINE
  5
3A
  8
0
 10
128.5
 20
109.2500000000001
 30
0.0
 11
125.5
 21
109.2500000000001
 31
0.0
  0
LINE
  5
3B
  8
0
 10
125.5
 20
130.75000000000011
 30
0.0
 11
128.5
 21
130.75000000000011
 31
0.0
  0
LINE
  5
3C
  8
0
 10
128.5
 20
130.75000000000011
 30
0.0
 11
128.5
 21
109.2500000000001
 31
0.0
  0
LINE
  5
3D
  8
0
 10
128.5
 20
120.40192400000009
 30
0.0
 11
125.5
 21
119.5980770000001
 31
0.0
  0
LINE
  5
44
  8
0
 10
140.0
 20
131.0
 30
0.0
 11
139.5
 21
130.5
 31
0.0
  0
LINE
  5
45
  8
0
 10
154.0
 20
131.0
 30
0.0
 11
154.5
 21
130.5
 31
0.0
  0
LINE
  5
49
  8
0
 10
154.0
 20
131.0
 30
0.0
 11
140.0
 21
131.0
 31
0.0
  0
LINE
  5
4A
  8
0
 10
139.5
 20
130.5
 30
0.0
 11
139.5
 21
109.4999999999999
 31
0.0
  0
LINE
  5
4B
  8
0
 10
154.5
 20
130.5
 30
0.0
 11
154.5
 21
109.4999999999999
 31
0.0
  0
LINE
  5
4C
  8
0
 10
154.0
 20
108.9999999999999
 30
0.0
 11
140.0
 21
108.9999999999999
 31
0.0
  0
LINE
  5
4D
  8
0
 10
125.5
 20
109.2500000000001
 30
0.0
 11
125.5
 21
130.75000000000011
 31
0.0
  0
LINE
  5
4E
  8
0
 10
116.637181
 20
120.0000000000001
 30
0.0
 11
125.5
 21
120.0000000000001
 31
0.0
  0
LINE
  5
4F
  8
0
 10
115.5
 20
111.0000000000001
 30
0.0
 11
115.5
 21
129.0000000000002
 31
0.0
  0
LINE
  5
50
  8
0
 10
115.788675
 20
110.5000000000001
 30
0.0
 11
115.5
 21
111.0000000000001
 31
0.0
  0
ARC
  5
51
  8
0
 10
129.50835900000001
 20
115.2500000000001
 30
0.0
 40
13.719684000000001
 50
159.74384199999969
 51
200.2561580000002
  0
LINE
  5
52
  8
0
 10
125.5
 20
110.5000000000001
 30
0.0
 11
115.788675
 21
110.5000000000001
 31
0.0
  0
LINE
  5
53
  8
0
 10
125.5
 20
129.50000000000011
 30
0.0
 11
115.788675
 21
129.50000000000011
 31
0.0
  0
ARC
  5
54
  8
0
 10
129.50835900000001
 20
124.7500000000002
 30
0.0
 40
13.719684000000001
 50
159.74384199999969
 51
200.2561580000002
  0
LINE
  5
55
  8
0
 10
115.788675
 20
129.50000000000011
 30
0.0
 11
115.5
 21
129.0000000000002
 31
0.0
  0
ARC
  5
56
  8
0
 10
60.0
 20
60.0
 30
0.0
 40
10.75
 50
92.094527000000113
 51
147.9054730000002
  0
ARC
  5
57
  8
0
 10
60.0
 20
60.0
 30
0.0
 40
10.75
 50
32.094526999999722
 51
87.905473000000285
  0
ARC
  5
58
  8
0
 10
60.0
 20
60.0
 30
0.0
 40
10.75
 50
332.09452700000031
 51
27.90547299999972
  0
ARC
  5
59
  8
0
 10
60.0
 20
60.0
 30
0.0
 40
10.75
 50
272.09452699999969
 51
327.90547300000009
  0
ARC
  5
5A
  8
0
 10
60.0
 20
60.0
 30
0.0
 40
10.75
 50
212.09452699999969
 51
267.9054729999998
  0
ARC
  5
5B
  8
0
 10
60.0
 20
60.0
 30
0.0
 40
10.75
 50
152.09452700000031
 51
207.90547299999969
  0
LINE
  5
69
  8
0
 10
128.5
 20
49.250000000000142
 30
0.0
 11
125.5
 21
49.250000000000142
 31
0.0
  0
LINE
  5
6A
  8
0
 10
125.5
 20
70.750000000000142
 30
0.0
 11
128.5
 21
70.750000000000142
 31
0.0
  0
LINE
  5
6B
  8
0
 10
128.5
 20
70.750000000000142
 30
0.0
 11
128.5
 21
49.250000000000142
 31
0.0
  0
LINE
  5
6C
  8
0
 10
128.5
 20
60.401924000000122
 30
0.0
 11
125.5
 21
59.598077000000131
 31
0.0
  0
LINE
  5
6D
  8
0
 10
116.637181
 20
49.030345000000132
 30
0.0
 11
115.5
 21
51.000000000000128
 31
0.0
  0
ARC
  5
6E
  8
0
 10
120.644738
 20
51.772759000000143
 30
0.0
 40
4.8560629999999989
 50
145.61575299999959
 51
205.6157529999999
  0
ARC
  5
6F
  8
0
 10
133.940169
 20
60.000000000000142
 30
0.0
 40
18.151494
 50
162.41204600000009
 51
197.5879539999998
  0
ARC
  5
70
  8
0
 10
120.644738
 20
68.22724200000016
 30
0.0
 40
4.8560629999999989
 50
154.3842469999999
 51
214.38424700000041
  0
LINE
  5
71
  8
0
 10
116.637181
 20
70.969655000000131
 30
0.0
 11
115.5
 21
69.000000000000142
 31
0.0
  0
LINE
  5
72
  8
0
 10
115.5
 20
51.000000000000128
 30
0.0
 11
115.5
 21
69.000000000000142
 31
0.0
  0
LINE
  5
73
  8
0
 10
116.637181
 20
49.030345000000132
 30
0.0
 11
125.5
 21
49.030345000000132
 31
0.0
  0
LINE
  5
74
  8
0
 10
116.637181
 20
54.515173000000139
 30
0.0
 11
125.5
 21
54.515173000000139
 31
0.0
  0
LINE
  5
75
  8
0
 10
116.637181
 20
70.969655000000131
 30
0.0
 11
125.5
 21
70.969655000000131
 31
0.0
  0
LINE
  5
76
  8
0
 10
116.637181
 20
65.484828000000135
 30
0.0
 11
125.5
 21
65.484828000000135
 31
0.0
  0
LINE
  5
77
  8
0
 10
125.5
 20
49.030345000000132
 30
0.0
 11
125.5
 21
70.969655000000131
 31
0.0
  0
LINE
  5
A0
  8
0
 10
154.0
 20
108.9999999999999
 30
0.0
 11
154.5
 21
109.4999999999999
 31
0.0
  0
LINE
  5
A1
  8
0
 10
140.0
 20
108.9999999999999
 30
0.0
 11
139.5
 21
109.4999999999999
 31
0.0
  0
LINE
  5
BA
  8
1
 10
77.5
 20
60.0
 30
0.0
 11
42.5
 21
60.0
 31
0.0
  0
LINE
  5
BB
  8
1
 10
60.0
 20
77.5
 30
0.0
 11
60.0
 21
42.499999999999993
 31
0.0
  0
LINE
  5
BC
  8
1
 10
244.5
 20
60.000000000000462
 30
0.0
 11
209.5
 21
60.000000000000462
 31
0.0
  0
LINE
  5
BD
  8
1
 10
227.0
 20
77.500000000000455
 30
0.0
 11
227.0
 21
42.500000000000462
 31
0.0
  0
ARC
  5
2CC
  8
0
 10
139.09999999999999
 20
52.100000000000151
 30
0.0
 40
0.4
 50
0.0
 51
90.0
  0
ARC
  5
2CD
  8
0
 10
139.09999999999999
 20
67.900000000000119
 30
0.0
 40
0.4
 50
270.0
 51
0.0
  0
LINE
  5
2CE
  8
3
 10
139.5
 20
54.062828956481233
 30
0.0
 11
154.5
 21
65.937171043519044
 31
0.0
  0
LINE
  5
2CF
  8
3
 10
139.5
 20
65.937171043519044
 30
0.0
 11
154.5
 21
54.062828956481233
 31
0.0
  0
LINE
  5
2D0
  8
0
 10
115.5
 20
54.000000000000128
 30
0.0
 11
112.2516660498394
 21
54.000000000000128
 31
0.0
  0
LINE
  5
2D1
  8
3
 10
115.5
 20
54.947000000000088
 30
0.0
 11
110.61141393507179
 21
54.947000000000138
 31
0.0
  0
LINE
  5
2D2
  8
3
 10
115.5
 20
65.053000000000139
 30
0.0
 11
110.61141393507179
 21
65.053000000000139
 31
0.0
  0
LINE
  5
2D3
  8
0
 10
115.5
 20
66.000000000000142
 30
0.0
 11
112.2516660498394
 21
66.000000000000142
 31
0.0
  0
LINE
  5
2D4
  8
0
 10
109.9999999999999
 20
55.30000000000009
 30
0.0
 11
110.0
 21
64.700000000000188
 31
0.0
  0
LINE
  5
2D5
  8
0
 10
162.5310889132455
 20
70.000000000000142
 30
0.0
 11
173.53589838486221
 21
70.000000000000142
 31
0.0
  0
LINE
  5
2D6
  8
3
 10
160.18762417060481
 20
68.647000000000077
 30
0.0
 11
175.8793631275029
 21
68.647000000000077
 31
0.0
  0
LINE
  5
2D7
  8
3
 10
160.18762417060489
 20
51.3530000000002
 30
0.0
 11
175.87936312750281
 21
51.35300000000008
 31
0.0
  0
LINE
  5
2D8
  8
0
 10
162.53108891324561
 20
50.000000000000142
 30
0.0
 11
173.53589838486221
 21
50.000000000000142
 31
0.0
  0
LINE
  5
2D9
  8
0
 10
177.00000000000011
 20
68.000000000000028
 30
0.0
 11
176.99999999999989
 21
52.000000000000128
 31
0.0
  0
LINE
  5
2DA
  8
0
 10
128.5
 20
55.30000000000009
 30
0.0
 11
128.59999999999999
 21
55.30000000000009
 31
0.0
  0
LINE
  5
2DB
  8
0
 10
128.49999999999989
 20
64.700000000000074
 30
0.0
 11
128.59999999999999
 21
64.700000000000074
 31
0.0
  0
LINE
  5
2DD
  8
0
 10
129.49999999999989
 20
52.500000000000142
 30
0.0
 11
129.0
 21
53.000000000000142
 31
0.0
  0
LINE
  5
2DE
  8
0
 10
129.5
 20
67.500000000000142
 30
0.0
 11
129.0
 21
67.000000000000142
 31
0.0
  0
LINE
  5
2DF
  8
0
 10
129.49999999999989
 20
52.500000000000142
 30
0.0
 11
139.09999999999999
 21
52.500000000000142
 31
0.0
  0
LINE
  5
2E0
  8
0
 10
129.5
 20
67.500000000000142
 30
0.0
 11
139.09999999999999
 21
67.500000000000142
 31
0.0
  0
LINE
  5
2E1
  8
0
 10
129.0
 20
67.000000000000142
 30
0.0
 11
129.0
 21
53.000000000000142
 31
0.0
  0
LINE
  5
2E2
  8
0
 10
140.0
 20
47.500000000000128
 30
0.0
 11
139.5
 21
48.000000000000142
 31
0.0
  0
LINE
  5
2E3
  8
0
 10
154.5
 20
48.000000000000142
 30
0.0
 11
154.0
 21
47.500000000000128
 31
0.0
  0
LINE
  5
2E4
  8
0
 10
154.0
 20
72.500000000000142
 30
0.0
 11
154.5
 21
72.000000000000142
 31
0.0
  0
LINE
  5
2E5
  8
0
 10
140.0
 20
72.500000000000142
 30
0.0
 11
139.5
 21
72.000000000000142
 31
0.0
  0
LINE
  5
2E6
  8
0
 10
154.90000000000001
 20
51.750000000000142
 30
0.0
 11
159.39282032302759
 21
51.750000000000021
 31
0.0
  0
LINE
  5
2E7
  8
0
 10
154.90000000000001
 20
68.250000000000142
 30
0.0
 11
159.39282032302759
 21
68.250000000000256
 31
0.0
  0
LINE
  5
2E8
  8
0
 10
139.5
 20
54.062828956481233
 30
0.0
 11
154.5
 21
54.062828956481233
 31
0.0
  0
LINE
  5
2E9
  8
0
 10
139.5
 20
65.937171043519044
 30
0.0
 11
154.5
 21
65.937171043519044
 31
0.0
  0
LINE
  5
2EA
  8
0
 10
162.5310889132455
 20
70.000000000000142
 30
0.0
 11
162.5310889132455
 21
50.000000000000142
 31
0.0
  0
LINE
  5
2EB
  8
0
 10
139.5
 20
72.000000000000142
 30
0.0
 11
139.5
 21
48.000000000000142
 31
0.0
  0
LINE
  5
2EC
  8
0
 10
154.49999999999989
 20
72.000000000000142
 30
0.0
 11
154.5
 21
48.000000000000142
 31
0.0
  0
LINE
  5
2ED
  8
1
 10
105.0
 20
60.000000000000142
 30
0.0
 11
182.0
 21
60.000000000000142
 31
0.0
  0
LINE
  5
2EE
  8
0
 10
154.0
 20
47.500000000000128
 30
0.0
 11
140.0
 21
47.500000000000128
 31
0.0
  0
LINE
  5
2EF
  8
0
 10
140.0
 20
72.500000000000142
 30
0.0
 11
154.0
 21
72.500000000000142
 31
0.0
  0
LINE
  5
2F2
  8
0
 10
162.5310889132455
 20
50.000000000000142
 30
0.0
 11
159.59282032302761
 21
51.696410161513903
 31
0.0
  0
LINE
  5
2F3
  8
0
 10
162.5310889132455
 20
70.000000000000142
 30
0.0
 11
159.59282032302761
 21
68.303589838486374
 31
0.0
  0
LINE
  5
2F4
  8
0
 10
159.5
 20
68.250000000000142
 30
0.0
 11
159.4999999999998
 21
51.750000000000142
 31
0.0
  0
ARC
  5
2F5
  8
0
 10
154.90000000000001
 20
68.650000000000119
 30
0.0
 40
0.4
 50
180.0
 51
270.0
  0
ARC
  5
2F6
  8
0
 10
154.90000000000001
 20
51.350000000000151
 30
0.0
 40
0.4
 50
89.999999999998366
 51
180.0
  0
ARC
  5
2F7
  8
0
 10
159.39282032302759
 20
68.650000000000119
 30
0.0
 40
0.4
 50
270.00000000000171
 51
300.0
  0
ARC
  5
2F8
  8
0
 10
159.39282032302759
 20
51.350000000000151
 30
0.0
 40
0.4
 50
59.999999999999559
 51
89.999999999998366
  0
ARC
  5
2FC
  8
0
 10
128.59999999999999
 20
65.100000000000165
 30
0.0
 40
0.4
 50
270.0
 51
0.0
  0
ARC
  5
2FD
  8
0
 10
128.59999999999999
 20
54.900000000000112
 30
0.0
 40
0.4
 50
0.0
 51
90.0
  0
LINE
  5
302
  8
0
 10
176.99999999999989
 20
52.000000000000128
 30
0.0
 11
173.53589838486209
 21
50.000000000000142
 31
0.0
  0
LINE
  5
303
  8
0
 10
109.9999999999999
 20
55.30000000000009
 30
0.0
 11
112.2516660498394
 21
54.000000000000128
 31
0.0
  0
LINE
  5
304
  8
0
 10
176.99999999999989
 20
68.000000000000142
 30
0.0
 11
173.53589838486209
 21
70.000000000000142
 31
0.0
  0
LINE
  5
305
  8
0
 10
173.53589838486221
 20
50.000000000000142
 30
0.0
 11
173.53589838486229
 21
70.000000000000142
 31
0.0
  0
LINE
  5
306
  8
0
 10
109.9999999999999
 20
64.700000000000188
 30
0.0
 11
112.2516660498394
 21
66.000000000000142
 31
0.0
  0
LINE
  5
307
  8
0
 10
112.2516660498394
 20
66.000000000000142
 30
0.0
 11
112.2516660498394
 21
54.000000000000128
 31
0.0
  0
ARC
  5
30B
  8
0
 10
139.09999999999999
 20
112.10000000000009
 30
0.0
 40
0.4
 50
0.0
 51
90.0
  0
ARC
  5
30C
  8
0
 10
139.09999999999999
 20
127.90000000000011
 30
0.0
 40
0.4
 50
270.0
 51
0.0
  0
LINE
  5
30F
  8
0
 10
115.5
 20
114.0000000000001
 30
0.0
 11
112.2516660498394
 21
114.0000000000001
 31
0.0
  0
LINE
  5
310
  8
3
 10
115.5
 20
114.9470000000001
 30
0.0
 11
110.61141393507179
 21
114.9470000000001
 31
0.0
  0
LINE
  5
311
  8
3
 10
115.5
 20
125.0530000000001
 30
0.0
 11
110.6114139350717
 21
125.0530000000001
 31
0.0
  0
LINE
  5
312
  8
0
 10
115.5
 20
126.0000000000001
 30
0.0
 11
112.2516660498394
 21
126.0000000000001
 31
0.0
  0
LINE
  5
313
  8
0
 10
109.9999999999999
 20
115.3000000000001
 30
0.0
 11
110.0
 21
124.7000000000002
 31
0.0
  0
LINE
  5
314
  8
0
 10
162.5310889132455
 20
130.00000000000011
 30
0.0
 11
173.53589838486221
 21
130.00000000000011
 31
0.0
  0
LINE
  5
315
  8
3
 10
160.18762417060481
 20
128.64700000000011
 30
0.0
 11
175.87936312750281
 21
128.64700000000011
 31
0.0
  0
LINE
  5
316
  8
3
 10
160.18762417060481
 20
111.35300000000019
 30
0.0
 11
175.87936312750281
 21
111.35300000000009
 31
0.0
  0
LINE
  5
317
  8
0
 10
162.53108891324561
 20
110.0000000000001
 30
0.0
 11
173.53589838486221
 21
110.0000000000001
 31
0.0
  0
LINE
  5
318
  8
0
 10
177.0
 20
128.0
 30
0.0
 11
176.99999999999989
 21
112.0000000000001
 31
0.0
  0
LINE
  5
319
  8
0
 10
128.5
 20
115.3000000000001
 30
0.0
 11
128.59999999999991
 21
115.3000000000001
 31
0.0
  0
LINE
  5
31A
  8
0
 10
128.5
 20
124.7
 30
0.0
 11
128.59999999999991
 21
124.7
 31
0.0
  0
LINE
  5
31C
  8
0
 10
129.49999999999989
 20
112.5000000000001
 30
0.0
 11
128.99999999999989
 21
113.0000000000001
 31
0.0
  0
LINE
  5
31D
  8
0
 10
129.49999999999989
 20
127.5000000000001
 30
0.0
 11
129.0
 21
127.0000000000001
 31
0.0
  0
LINE
  5
31E
  8
0
 10
129.49999999999989
 20
112.5000000000001
 30
0.0
 11
139.09999999999999
 21
112.5000000000001
 31
0.0
  0
LINE
  5
31F
  8
0
 10
129.49999999999989
 20
127.5000000000001
 30
0.0
 11
139.09999999999999
 21
127.5000000000001
 31
0.0
  0
LINE
  5
320
  8
0
 10
129.0
 20
127.0000000000001
 30
0.0
 11
129.0
 21
113.0000000000001
 31
0.0
  0
LINE
  5
325
  8
0
 10
154.89999999999989
 20
111.7500000000001
 30
0.0
 11
159.39282032302759
 21
111.75
 31
0.0
  0
LINE
  5
326
  8
0
 10
154.89999999999989
 20
128.25000000000011
 30
0.0
 11
159.39282032302759
 21
128.2500000000002
 31
0.0
  0
LINE
  5
329
  8
0
 10
162.5310889132455
 20
130.00000000000011
 30
0.0
 11
162.5310889132455
 21
110.0000000000001
 31
0.0
  0
LINE
  5
32C
  8
1
 10
105.0
 20
120.0000000000001
 30
0.0
 11
182.0
 21
120.0000000000001
 31
0.0
  0
LINE
  5
32F
  8
0
 10
162.5310889132455
 20
110.0000000000001
 30
0.0
 11
159.59282032302761
 21
111.6964101615139
 31
0.0
  0
LINE
  5
330
  8
0
 10
162.5310889132455
 20
130.00000000000011
 30
0.0
 11
159.5928203230275
 21
128.30358983848629
 31
0.0
  0
LINE
  5
331
  8
0
 10
159.5
 20
128.25000000000011
 30
0.0
 11
159.49999999999969
 21
111.7500000000001
 31
0.0
  0
ARC
  5
332
  8
0
 10
154.89999999999989
 20
128.65000000000009
 30
0.0
 40
0.4
 50
180.0
 51
270.0
  0
ARC
  5
333
  8
0
 10
154.89999999999989
 20
111.35000000000009
 30
0.0
 40
0.4
 50
89.999999999998366
 51
180.0
  0
ARC
  5
334
  8
0
 10
159.39282032302751
 20
128.65000000000009
 30
0.0
 40
0.4
 50
270.00000000000171
 51
299.9999999999996
  0
ARC
  5
335
  8
0
 10
159.39282032302759
 20
111.35000000000009
 30
0.0
 40
0.4
 50
60.000000000000021
 51
89.999999999998366
  0
ARC
  5
339
  8
0
 10
128.59999999999991
 20
125.10000000000009
 30
0.0
 40
0.4
 50
270.0
 51
0.0
  0
ARC
  5
33A
  8
0
 10
128.59999999999991
 20
114.90000000000011
 30
0.0
 40
0.4
 50
0.0
 51
90.0
  0
LINE
  5
33D
  8
0
 10
176.9999999999998
 20
112.0000000000001
 30
0.0
 11
173.53589838486209
 21
110.0000000000001
 31
0.0
  0
LINE
  5
33E
  8
0
 10
109.9999999999999
 20
115.3000000000001
 30
0.0
 11
112.2516660498394
 21
114.0000000000001
 31
0.0
  0
LINE
  5
33F
  8
0
 10
176.9999999999998
 20
128.00000000000011
 30
0.0
 11
173.53589838486209
 21
130.00000000000011
 31
0.0
  0
LINE
  5
340
  8
0
 10
173.53589838486221
 20
110.0000000000001
 30
0.0
 11
173.53589838486221
 21
130.00000000000011
 31
0.0
  0
LINE
  5
341
  8
0
 10
109.9999999999999
 20
124.7000000000002
 30
0.0
 11
112.2516660498394
 21
126.0000000000001
 31
0.0
  0
LINE
  5
342
  8
0
 10
112.2516660498394
 20
126.0000000000001
 30
0.0
 11
112.2516660498394
 21
114.0000000000001
 31
0.0
  0
TEXT
  5
442
  8
0
 62
     3
 10
0.0
 20
0.0
 30
0.0
 40
10.0
  1
PID1511-SUS
  7
STANDARD1
  0
ENDSEC
  0
EOF
