  0
SECTION
  2
HEADER
  9
$ACADVER
  1
AC1009
  9
$INSBASE
 10
0.0
 20
0.0
 30
0.0
  9
$EXTMIN
 10
0.0
 20
-2.960436562073669
 30
0.0
  9
$EXTMAX
 10
276.34219497971992
 20
237.01172235787271
 30
0.0
  9
$LIMMIN
 10
0.0
 20
0.0
  9
$LIMMAX
 10
375.0
 20
270.0
  9
$ORTHOMODE
 70
     1
  9
$REGENMODE
 70
     1
  9
$FILLMODE
 70
     1
  9
$QTEXTMODE
 70
     0
  9
$MIRRTEXT
 70
     0
  9
$DRAGMODE
 70
     2
  9
$LTSCALE
 40
5.0
  9
$OSMODE
 70
  3071
  9
$ATTMODE
 70
     1
  9
$TEXTSIZE
 40
0.2
  9
$TRACEWID
 40
0.05
  9
$TEXTSTYLE
  7
STANDARD
  9
$CLAYER
  8
0
  9
$CELTYPE
  6
BYLAYER
  9
$CECOLOR
 62
   256
  9
$DIMSCALE
 40
1.0
  9
$DIMASZ
 40
3.0
  9
$DIMEXO
 40
2.0
  9
$DIMDLI
 40
0.38
  9
$DIMRND
 40
0.0
  9
$DIMDLE
 40
0.0
  9
$DIMEXE
 40
2.0
  9
$DIMTP
 40
0.0
  9
$DIMTM
 40
0.0
  9
$DIMTXT
 40
3.2000000000000002
  9
$DIMCEN
 40
0.0
  9
$DIMTSZ
 40
0.0
  9
$DIMTOL
 70
     0
  9
$DIMLIM
 70
     0
  9
$DIMTIH
 70
     0
  9
$DIMTOH
 70
     0
  9
$DIMSE1
 70
     0
  9
$DIMSE2
 70
     0
  9
$DIMTAD
 70
     1
  9
$DIMZIN
 70
     0
  9
$DIMBLK
  1

  9
$DIMASO
 70
     1
  9
$DIMSHO
 70
     0
  9
$DIMPOST
  1

  9
$DIMAPOST
  1

  9
$DIMALT
 70
     0
  9
$DIMALTD
 70
     2
  9
$DIMALTF
 40
25.399999999999999
  9
$DIMLFAC
 40
1.0
  9
$DIMTOFL
 70
     0
  9
$DIMTVP
 40
1.6000000000000001
  9
$DIMTIX
 70
     1
  9
$DIMSOXD
 70
     0
  9
$DIMSAH
 70
     0
  9
$DIMBLK1
  1

  9
$DIMBLK2
  1

  9
$DIMSTYLE
  2
STANDARD
  9
$DIMCLRD
 70
     0
  9
$DIMCLRE
 70
     0
  9
$DIMCLRT
 70
     0
  9
$DIMTFAC
 40
1.0
  9
$DIMGAP
 40
0.09
  9
$LUNITS
 70
     2
  9
$LUPREC
 70
     4
  9
$SKETCHINC
 40
0.1
  9
$FILLETRAD
 40
2.0
  9
$AUNITS
 70
     0
  9
$AUPREC
 70
     0
  9
$MENU
  1
E:\r13\win\SUPPORT\ACAD
  9
$ELEVATION
 40
0.0
  9
$PELEVATION
 40
0.0
  9
$THICKNESS
 40
0.0
  9
$LIMCHECK
 70
     0
  9
$BLIPMODE
 70
     0
  9
$CHAMFERA
 40
0.0
  9
$CHAMFERB
 40
0.0
  9
$SKPOLY
 70
     0
  9
$TDCREATE
 40
2449840.607731482
  9
$TDUPDATE
 40
2456597.5022514351
  9
$TDINDWG
 40
0.0266856366
  9
$TDUSRTIMER
 40
0.0266856366
  9
$USRTIMER
 70
     1
  9
$ANGBASE
 50
0.0
  9
$ANGDIR
 70
     0
  9
$PDMODE
 70
     0
  9
$PDSIZE
 40
0.0
  9
$PLINEWID
 40
0.0
  9
$COORDS
 70
     1
  9
$SPLFRAME
 70
     0
  9
$SPLINETYPE
 70
     6
  9
$SPLINESEGS
 70
     8
  9
$ATTDIA
 70
     0
  9
$ATTREQ
 70
     1
  9
$HANDLING
 70
     1
  9
$HANDSEED
  5
776
  9
$SURFTAB1
 70
     6
  9
$SURFTAB2
 70
     6
  9
$SURFTYPE
 70
     6
  9
$SURFU
 70
     6
  9
$SURFV
 70
     6
  9
$UCSNAME
  2

  9
$UCSORG
 10
0.0
 20
0.0
 30
0.0
  9
$UCSXDIR
 10
1.0
 20
0.0
 30
0.0
  9
$UCSYDIR
 10
0.0
 20
1.0
 30
0.0
  9
$PUCSNAME
  2

  9
$PUCSORG
 10
0.0
 20
0.0
 30
0.0
  9
$PUCSXDIR
 10
1.0
 20
0.0
 30
0.0
  9
$PUCSYDIR
 10
0.0
 20
1.0
 30
0.0
  9
$USERI1
 70
     0
  9
$USERI2
 70
     1
  9
$USERI3
 70
     1
  9
$USERI4
 70
     0
  9
$USERI5
 70
     0
  9
$USERR1
 40
0.0
  9
$USERR2
 40
0.0
  9
$USERR3
 40
0.0
  9
$USERR4
 40
0.0
  9
$USERR5
 40
0.0
  9
$WORLDVIEW
 70
     1
  9
$SHADEDGE
 70
     3
  9
$SHADEDIF
 70
    70
  9
$TILEMODE
 70
     1
  9
$MAXACTVP
 70
    16
  9
$PLIMCHECK
 70
     0
  9
$PEXTMIN
 10
1.0000000000000000E+020
 20
1.0000000000000000E+020
 30
1.0000000000000000E+020
  9
$PEXTMAX
 10
-1.0000000000000000E+020
 20
-1.0000000000000000E+020
 30
-1.0000000000000000E+020
  9
$PLIMMIN
 10
0.0
 20
0.0
  9
$PLIMMAX
 10
12.0
 20
9.0
  9
$UNITMODE
 70
     0
  9
$VISRETAIN
 70
     0
  9
$PLINEGEN
 70
     0
  9
$PSLTSCALE
 70
     0
  0
ENDSEC
  0
SECTION
  2
TABLES
  0
TABLE
  2
VPORT
 70
     1
  0
VPORT
  2
*ACTIVE
 70
     0
 10
0.0
 20
0.0
 11
1.0
 21
1.0
 12
187.49427839065231
 22
162.8616388594717
 13
0.0
 23
0.0
 14
10.0
 24
10.0
 15
10.0
 25
10.0
 16
0.0
 26
0.0
 36
1.0
 17
0.0
 27
0.0
 37
0.0
 40
334.81001162774987
 41
1.9089595375722539
 42
50.0
 43
0.0
 44
0.0
 50
0.0
 51
0.0
 71
     0
 72
   500
 73
     1
 74
     0
 75
     0
 76
     0
 77
     0
 78
     1
  0
ENDTAB
  0
TABLE
  2
LTYPE
 70
     4
  0
LTYPE
  2
CONTINUOUS
 70
     0
  3
Solid Line
 72
    65
 73
     0
 40
0.0
  0
LTYPE
  2
CENTER
 70
     0
  3
____ _ ____ _ ____ _ ____ _ ____ _ ____ _ ____
 72
    65
 73
     4
 40
2.0
 49
1.25
 49
-0.25
 49
0.25
 49
-0.25
  0
LTYPE
  2
HIDDEN
 70
     0
  3
_ _ _ _ _ _ _ _ _ _ _ _ _ _ _ _ _ _ _ _ _ _ _
 72
    65
 73
     2
 40
0.375
 49
0.25
 49
-0.125
  0
LTYPE
  2
PHANTOM2
 70
     0
  3
___ _ _ ___ _ _ ___ _ _ ___ _ _
 72
    65
 73
     6
 40
1.25
 49
0.625
 49
-0.125
 49
0.125
 49
-0.125
 49
0.125
 49
-0.125
  0
ENDTAB
  0
TABLE
  2
LAYER
 70
     5
  0
LAYER
  2
0
 70
     0
 62
     7
  6
CONTINUOUS
  0
LAYER
  2
1
 70
     0
 62
     1
  6
CENTER
  0
LAYER
  2
2
 70
     0
 62
     2
  6
HIDDEN
  0
LAYER
  2
3
 70
     0
 62
     3
  6
CONTINUOUS
  0
LAYER
  2
DEFPOINTS
 70
     0
 62
     7
  6
CONTINUOUS
  0
ENDTAB
  0
TABLE
  2
STYLE
 70
     2
  0
STYLE
  2
STANDARD
 70
     0
 40
0.0
 41
1.0
 50
0.0
 71
     0
 42
0.2
  3
simplex.shx
  4
bigfont.shx
  0
STYLE
  2
STANDARD1
 70
     0
 40
0.0
 41
1.0
 50
0.0
 71
     0
 42
3.0
  3
txt
  4

  0
ENDTAB
  0
TABLE
  2
VIEW
 70
     1
  0
VIEW
  2
ALL
 70
     0
 40
270.0
 10
213.25689075630251
 20
135.0
 41
0.0
 11
0.0
 21
0.0
 31
1.0
 12
0.0
 22
0.0
 32
0.0
 42
0.0
 43
0.0
 44
0.0
 50
0.0
 71
     0
  0
ENDTAB
  0
TABLE
  2
UCS
 70
     0
  0
ENDTAB
  0
TABLE
  2
APPID
 70
    28
  0
APPID
  2
ACAD
 70
     0
  0
APPID
  2
DCO15
 70
     0
  0
APPID
  2
GENIUS_GENOREF_13
 70
     0
  0
APPID
  2
GENIUS_GENOENT_13
 70
     0
  0
APPID
  2
GENIUS_GENBH_13
 70
     0
  0
APPID
  2
GENIUS_GENOBJ_13
 70
     0
  0
APPID
  2
GENIUS_GENODEF_13
 70
     0
  0
APPID
  2
GENIUS_GENOLIS_13
 70
     0
  0
APPID
  2
GENIUS_GENOBJ-NBEHI-BHF_13
 70
     0
  0
APPID
  2
GENIUS_GENOBJ-NBEHI-BHB_13
 70
     0
  0
APPID
  2
GENIUS_GENOBJ-F-PART_13
 70
     0
  0
APPID
  2
GENIUS_GEFSTDP_13
 70
     0
  0
APPID
  2
GENIUS_GENOBJ-N-RSSYM_13
 70
     0
  0
APPID
  2
GENIUS_GENSYMENT_13
 70
     0
  0
APPID
  2
GENIUS_GENOBJ-N-TIT_13
 70
     0
  0
APPID
  2
GENIUS_GENTITLE_13
 70
     0
  0
APPID
  2
GENIUS_GENZVEED_13
 70
     0
  0
APPID
  2
GENIUS_GENOBJ-N-LEADER_13
 70
     0
  0
APPID
  2
GENIUS_GENOBJ-N-FIL_13
 70
     0
  0
APPID
  2
GENIUS_GENOBJ-N-SEC_13
 70
     0
  0
APPID
  2
GENIUS_GENOBJ-N-CRS_13
 70
     0
  0
APPID
  2
GENIUS_GENOBJ-N-ZOO_13
 70
     0
  0
APPID
  2
GENIUS_GENZOO_13
 70
     0
  0
APPID
  2
GENIUS_GENOBJ-F-TOL_13
 70
     0
  0
APPID
  2
GENIUS_GENFIL_13
 70
     0
  0
APPID
  2
GENIUS_GENOBJ-N-CHA_13
 70
     0
  0
APPID
  2
ACAD_MLEADERVER
 70
     0
  0
APPID
  2
ACAD_NAV_VCDISPLAY
 70
     0
  0
ENDTAB
  0
TABLE
  2
DIMSTYLE
 70
     1
  0
DIMSTYLE
  2
STANDARD
 70
     0
  3

  4

  5

  6

  7

 40
1.0
 41
0.18
 42
0.0625
 43
0.38
 44
0.18
 45
0.0
 46
0.0
 47
0.0
 48
0.0
140
0.18
141
0.09
142
0.0
143
25.399999999999999
144
1.0
145
0.0
146
1.0
147
0.09
 71
     0
 72
     0
 73
     1
 74
     1
 75
     0
 76
     0
 77
     0
 78
     0
170
     0
171
     2
172
     0
173
     0
174
     0
175
     0
176
     0
177
     0
178
     0
  0
ENDTAB
  0
ENDSEC
  0
SECTION
  2
BLOCKS
  0
BLOCK
  8
0
  2
$MODEL_SPACE
 70
     0
 10
0.0
 20
0.0
 30
0.0
  3
$MODEL_SPACE
  1

  0
ENDBLK
  5
175
  8
0
  0
BLOCK
 67
     1
  8
0
  2
$PAPER_SPACE
 70
     0
 10
0.0
 20
0.0
 30
0.0
  3
$PAPER_SPACE
  1

  0
ENDBLK
  5
173
 67
     1
  8
0
  0
ENDSEC
  0
SECTION
  2
ENTITIES
  0
CIRCLE
  5
301
  8
0
 10
191.84223539622661
 20
54.0117223578726
 30
0.0
 40
3.3235000000000001
  0
CIRCLE
  5
302
  8
3
 10
191.84223539622661
 20
54.0117223578726
 30
0.0
 40
4.0
  0
CIRCLE
  5
303
  8
0
 10
111.8422353962266
 20
54.011722357872742
 30
0.0
 40
13.0
  0
ARC
  5
304
  8
0
 10
191.84223539622661
 20
54.01172235787282
 30
0.0
 40
8.0
 50
241.02895785522699
 51
118.97104214477289
  0
ARC
  5
305
  8
0
 10
111.8422353962266
 20
54.011722357872848
 30
0.0
 40
14.5
 50
52.148328620649799
 51
307.85167137935031
  0
LINE
  5
306
  8
0
 10
183.6755264269768
 20
48.003024498607722
 30
0.0
 11
127.4779180830155
 21
45.070975367620122
 31
0.0
  0
ARC
  5
307
  8
0
 10
128.10315463428341
 20
33.087274801644782
 30
0.0
 40
12.0
 50
92.9866369904734
 51
127.8516858611497
  0
ARC
  5
308
  8
0
 10
184.09235079448879
 20
40.013890787957422
 30
0.0
 40
8.0
 50
61.028940124339087
 51
92.9866369904734
  0
ARC
  5
309
  8
0
 10
184.09235079448879
 20
68.009553927788289
 30
0.0
 40
8.0
 50
267.01336300952659
 51
298.97105987566079
  0
ARC
  5
30A
  8
0
 10
128.10315463428341
 20
74.936169914101043
 30
0.0
 40
12.0
 50
232.14831413885031
 51
267.01336300952659
  0
LINE
  5
30B
  8
0
 10
183.6755264269768
 20
60.020420217137989
 30
0.0
 11
127.4779180830155
 21
62.952469348125639
 31
0.0
  0
ARC
  5
30D
  8
2
 10
191.84223539622661
 20
54.01172235787282
 30
0.0
 40
8.0
 50
118.97104214477289
 51
241.02895785522699
  0
LINE
  5
30E
  8
1
 10
191.84223539622661
 20
67.01172235787277
 30
0.0
 11
191.84223539622661
 21
41.011722357872827
 31
0.0
  0
LINE
  5
30F
  8
1
 10
111.8422353962266
 20
73.511722357872827
 30
0.0
 11
111.8422353962266
 21
34.511722357872827
 31
0.0
  0
LINE
  5
310
  8
1
 10
204.8422353962267
 20
54.01172235787277
 30
0.0
 11
92.342235396226656
 21
54.01172235787282
 31
0.0
  0
LINE
  5
318
  8
2
 10
187.8422353962265
 20
158.9882223578727
 30
0.0
 11
187.84223539622661
 21
146.5117223578728
 31
0.0
  0
LINE
  5
319
  8
2
 10
195.84223539622641
 20
158.98822235787259
 30
0.0
 11
195.8422353962265
 21
146.5117223578728
 31
0.0
  0
LINE
  5
31A
  8
2
 10
195.16573539622661
 20
158.31172235787261
 30
0.0
 11
195.16573539622661
 21
146.5117223578728
 31
0.0
  0
LINE
  5
31B
  8
2
 10
188.51873539622659
 20
158.31172235787281
 30
0.0
 11
188.51873539622659
 21
146.5117223578728
 31
0.0
  0
LINE
  5
31C
  8
2
 10
188.51873539622659
 20
158.31172235787281
 30
0.0
 11
187.31873539622649
 21
159.5117223578728
 31
0.0
  0
LINE
  5
31D
  8
2
 10
195.16573539622661
 20
158.31172235787281
 30
0.0
 11
196.3657353962268
 21
159.5117223578728
 31
0.0
  0
ARC
  5
31E
  8
0
 10
181.8422353962267
 20
154.51172235787271
 30
0.0
 40
2.0
 50
270.0
 51
0.0
  0
ARC
  5
31F
  8
0
 10
198.34223539622661
 20
148.0117223578728
 30
0.0
 40
1.5
 50
270.0
 51
0.0
  0
LINE
  5
320
  8
0
 10
199.8422353962267
 20
159.51172235787271
 30
0.0
 11
199.8422353962267
 21
148.01172235787271
 31
0.0
  0
LINE
  5
321
  8
0
 10
183.8422353962265
 20
159.51172235787271
 30
0.0
 11
183.8422353962267
 21
154.5117223578726
 31
0.0
  0
LINE
  5
322
  8
0
 10
198.34223539622661
 20
146.5117223578728
 30
0.0
 11
150.691858509425
 21
146.5117223578726
 31
0.0
  0
LINE
  5
323
  8
0
 10
185.9672910002808
 20
152.5117223578726
 30
0.0
 11
150.691858509425
 21
152.51172235787271
 31
0.0
  0
LINE
  5
324
  8
1
 10
111.8422353962266
 20
146.5117223578726
 30
0.0
 11
111.8422353962266
 21
113.5117223578728
 31
0.0
  0
LINE
  5
325
  8
1
 10
191.84223539622661
 20
164.51172235787271
 30
0.0
 11
191.84223539622661
 21
141.51172235787271
 31
0.0
  0
LINE
  5
3C9
  8
0
 10
120.8422353962265
 20
141.5117223578726
 30
0.0
 11
99.92802183385345
 21
141.5117223578726
 31
0.0
  0
ARC
  5
3CA
  8
0
 10
120.8422353962266
 20
156.51172235787271
 30
0.0
 40
15.0
 50
270.0
 51
310.45908308078992
  0
ARC
  5
3CB
  8
0
 10
120.8422353962266
 20
156.51172235787271
 30
0.0
 40
21.0
 50
286.05713272245441
 51
310.45908168088278
  0
ARC
  5
3CC
  8
0
 10
150.691858509425
 20
121.5117223578726
 30
0.0
 40
25.0
 50
89.999999999999986
 51
130.4590842567099
  0
ARC
  5
3CD
  8
0
 10
150.691858509425
 20
121.5117223578726
 30
0.0
 40
31.0
 50
89.999999999999986
 51
130.4590830807899
  0
ARC
  5
3CE
  8
0
 10
127.3422353962266
 20
133.92854277660021
 30
0.0
 40
2.5
 50
106.0571327224544
 51
180.0
  0
CIRCLE
  5
3EF
  8
0
 10
111.8422353962266
 20
54.011722357872848
 30
0.0
 40
8.4852813742385802
  0
CIRCLE
  5
3F0
  8
0
 10
111.8422353962265
 20
54.011722357872848
 30
0.0
 40
12.0
  0
ARC
  5
416
  8
2
 10
107.59959470911031
 20
116.13304270144531
 30
0.0
 40
4.8639610306722121
 50
29.27761319025895
 51
150.72238680974101
  0
ARC
  5
417
  8
2
 10
116.0848760833441
 20
116.13304270144531
 30
0.0
 40
4.8639610306722121
 50
29.277613190259
 51
150.72238680974101
  0
LINE
  5
418
  8
2
 10
103.3569540219915
 20
118.5117223578729
 30
0.0
 11
103.3569540219915
 21
141.51172235787271
 31
0.0
  0
LINE
  5
419
  8
2
 10
111.8422353962266
 20
118.5117223578729
 30
0.0
 11
111.8422353962265
 21
141.51172235787271
 31
0.0
  0
LINE
  5
41A
  8
2
 10
120.3275167704616
 20
118.5117223578729
 30
0.0
 11
120.3275167704616
 21
141.51172235787271
 31
0.0
  0
LINE
  5
428
  8
0
 10
123.8422353962266
 20
119.5117223578728
 30
0.0
 11
123.8422353962265
 21
132.5117223578728
 31
0.0
  0
LINE
  5
429
  8
0
 10
123.8422353962265
 20
132.5117223578728
 30
0.0
 11
124.84345417658299
 21
133.08977629022931
 31
0.0
  0
LINE
  5
434
  8
0
 10
99.842235396226684
 20
132.5117223578728
 30
0.0
 11
98.842235396226556
 21
133.08907262706251
 31
0.0
  0
LINE
  5
435
  8
0
 10
99.842235396226556
 20
119.5117223578728
 30
0.0
 11
99.842235396226684
 21
132.5117223578728
 31
0.0
  0
LINE
  5
44D
  8
0
 10
98.842235396226556
 20
134.35841042641391
 30
0.0
 11
98.842235396226556
 21
133.08907262706251
 31
0.0
  0
ARC
  5
44E
  8
0
 10
101.3422353962266
 20
138.51172235787291
 30
0.0
 40
4.0
 50
160.5287793655138
 51
219.71513723182571
  0
ARC
  5
44F
  8
0
 10
99.928021833853563
 20
139.0117223578728
 30
0.0
 40
2.5
 50
89.999999999999986
 51
160.5287793655138
  0
ARC
  5
450
  8
0
 10
96.342235396226656
 20
134.35841042641391
 30
0.0
 40
2.5
 50
0.0
 51
39.715137231825587
  0
LINE
  5
453
  8
0
 10
124.8422353962218
 20
133.92854277660021
 30
0.0
 11
124.8422353962218
 21
133.08907262706251
 31
0.0
  0
LINE
  5
45F
  8
0
 10
120.0887804278577
 20
53.772986015265467
 30
0.0
 11
117.554995126145
 21
51.239200713553032
 31
0.0
  0
LINE
  5
460
  8
0
 10
117.554995126145
 20
56.784244002193077
 30
0.0
 11
120.0887804278576
 21
54.250458700480522
 31
0.0
  0
LINE
  5
465
  8
0
 10
103.5956903645956
 20
53.772986015265467
 30
0.0
 11
106.129475666308
 21
51.239200713552918
 31
0.0
  0
LINE
  5
466
  8
0
 10
112.08097173883419
 20
62.258267389503878
 30
0.0
 11
114.61475704054691
 21
59.72448208779133
 31
0.0
  0
LINE
  5
467
  8
0
 10
111.6034990536191
 20
62.258267389503878
 30
0.0
 11
109.06971375190641
 21
59.724482087791209
 31
0.0
  0
ARC
  5
468
  8
0
 10
111.8422353962266
 20
54.011722357872848
 30
0.0
 40
6.3499999999999988
 50
205.88826786279759
 51
244.1117321372036
  0
ARC
  5
469
  8
0
 10
111.8422353962266
 20
54.011722357872848
 30
0.0
 40
6.3499999999999988
 50
115.8882678628005
 51
154.11173213719869
  0
ARC
  5
46A
  8
0
 10
111.8422353962266
 20
54.011722357872848
 30
0.0
 40
6.3499999999999988
 50
25.888267862797921
 51
64.111732137202111
  0
ARC
  5
46B
  8
0
 10
111.8422353962266
 20
54.011722357872848
 30
0.0
 40
6.3499999999999988
 50
295.88826786279628
 51
334.11173213720241
  0
LINE
  5
46C
  8
0
 10
114.61475704054649
 20
48.298962627954431
 30
0.0
 11
112.08097173883399
 21
45.765177326241769
 31
0.0
  0
LINE
  5
46D
  8
0
 10
106.12947566630839
 20
56.784244002193311
 30
0.0
 11
103.5956903645956
 21
54.250458700480522
 31
0.0
  0
LINE
  5
46E
  8
0
 10
109.0697137519066
 20
48.298962627954431
 30
0.0
 11
111.6034990536192
 21
45.765177326241769
 31
0.0
  0
ARC
  5
46F
  8
0
 10
111.8422353962266
 20
54.011722357872848
 30
0.0
 40
8.25
 50
358.34175822722381
 51
1.658241772779437
  0
ARC
  5
470
  8
0
 10
111.8422353962266
 20
54.011722357872848
 30
0.0
 40
8.25
 50
268.34175822722381
 51
271.65824177277608
  0
ARC
  5
471
  8
0
 10
111.8422353962266
 20
54.011722357872848
 30
0.0
 40
8.25
 50
178.34175822722051
 51
181.65824177277619
  0
ARC
  5
472
  8
0
 10
111.8422353962266
 20
54.011722357872848
 30
0.0
 40
8.25
 50
88.341758227222172
 51
91.658241772777771
  0
LINE
  5
479
  8
0
 10
122.8422353962266
 20
118.5117223578728
 30
0.0
 11
100.8422353962265
 21
118.5117223578728
 31
0.0
  0
ARC
  5
47C
  8
0
 10
100.8422353962266
 20
119.5117223578728
 30
0.0
 40
1.0
 50
180.0
 51
270.0
  0
ARC
  5
47D
  8
0
 10
122.8422353962266
 20
119.5117223578728
 30
0.0
 40
1.0
 50
270.0
 51
0.0
  0
LINE
  5
489
  8
2
 10
195.16573539622661
 20
158.31172235787281
 30
0.0
 11
188.51873539622659
 21
158.31172235787281
 31
0.0
  0
LINE
  5
48A
  8
0
 10
199.8422353962267
 20
159.51172235787271
 30
0.0
 11
183.8422353962267
 21
159.51172235787271
 31
0.0
  0
LINE
  5
4D9
  8
0
 10
123.8422353962265
 20
132.5117223578728
 30
0.0
 11
99.842235396226684
 21
132.5117223578728
 31
0.0
  0
LINE
  5
4DA
  8
0
 10
124.84345417658299
 20
133.08977629022931
 30
0.0
 11
98.842235396226556
 21
133.08907262706251
 31
0.0
  0
TEXT
  5
4DB
  8
0
 10
165.7860099215128
 20
51.514714888786052
 30
0.0
 40
5.0
  1
5
 72
     1
 11
167.4526765881794
 21
51.514714888786052
 31
0.0
  0
LINE
  5
4DC
  8
0
 10
164.79187568399649
 20
54.01172235787277
 30
0.0
 11
160.79187568399649
 21
54.01172235787277
 31
0.0
  0
TEXT
  5
4DD
  8
0
 10
150.67445229886289
 20
51.3454943809528
 30
0.0
 40
5.0
  1
OC
 72
     1
 11
155.07921420362479
 21
51.3454943809528
 31
0.0
  0
ARC
  5
539
  8
0
 10
185.9672910002808
 20
154.51172235787271
 30
0.0
 40
2.0
 50
270.00000000000011
 51
0.0
  0
ARC
  5
53D
  8
0
 10
111.8422353962265
 20
217.51172235787271
 30
0.0
 40
8.25
 50
88.341758227222172
 51
91.658241772777771
  0
ARC
  5
53E
  8
0
 10
111.8422353962265
 20
217.51172235787271
 30
0.0
 40
8.25
 50
178.34175822722051
 51
181.65824177277619
  0
ARC
  5
53F
  8
0
 10
111.8422353962265
 20
217.51172235787271
 30
0.0
 40
8.25
 50
268.34175822722381
 51
271.65824177277608
  0
ARC
  5
540
  8
0
 10
111.8422353962265
 20
217.51172235787271
 30
0.0
 40
8.25
 50
358.34175822722381
 51
1.658241772779437
  0
LINE
  5
541
  8
0
 10
109.06971375190651
 20
211.7989626279543
 30
0.0
 11
111.6034990536191
 21
209.26517732624171
 31
0.0
  0
LINE
  5
542
  8
0
 10
106.12947566630829
 20
220.28424400219319
 30
0.0
 11
103.5956903645956
 21
217.75045870048041
 31
0.0
  0
LINE
  5
543
  8
0
 10
114.61475704054639
 20
211.7989626279543
 30
0.0
 11
112.08097173883399
 21
209.26517732624171
 31
0.0
  0
ARC
  5
544
  8
0
 10
111.8422353962265
 20
217.51172235787271
 30
0.0
 40
6.3499999999999988
 50
295.88826786279628
 51
334.11173213720241
  0
ARC
  5
545
  8
0
 10
111.8422353962265
 20
217.51172235787271
 30
0.0
 40
6.3499999999999988
 50
25.888267862797921
 51
64.111732137202111
  0
ARC
  5
546
  8
0
 10
111.8422353962265
 20
217.51172235787271
 30
0.0
 40
6.3499999999999988
 50
115.8882678628005
 51
154.11173213719869
  0
ARC
  5
547
  8
0
 10
111.8422353962265
 20
217.51172235787271
 30
0.0
 40
6.3499999999999988
 50
205.88826786279759
 51
244.1117321372036
  0
LINE
  5
548
  8
0
 10
111.6034990536189
 20
225.7582673895038
 30
0.0
 11
109.06971375190631
 21
223.2244820877911
 31
0.0
  0
LINE
  5
549
  8
0
 10
112.08097173883419
 20
225.7582673895038
 30
0.0
 11
114.61475704054681
 21
223.22448208779119
 31
0.0
  0
LINE
  5
54A
  8
0
 10
103.5956903645955
 20
217.2729860152653
 30
0.0
 11
106.129475666308
 21
214.7392007135528
 31
0.0
  0
LINE
  5
54B
  8
0
 10
117.5549951261449
 20
220.28424400219291
 30
0.0
 11
120.0887804278575
 21
217.75045870048041
 31
0.0
  0
LINE
  5
54C
  8
0
 10
120.0887804278576
 20
217.2729860152653
 30
0.0
 11
117.554995126145
 21
214.73920071355289
 31
0.0
  0
CIRCLE
  5
54D
  8
2
 10
111.8422353962264
 20
217.51172235787271
 30
0.0
 40
12.0
  0
CIRCLE
  5
54E
  8
2
 10
111.8422353962266
 20
217.51172235787271
 30
0.0
 40
8.4852813742385802
  0
LINE
  5
54F
  8
1
 10
204.8422353962267
 20
217.51172235787271
 30
0.0
 11
92.342235396226556
 21
217.51172235787271
 31
0.0
  0
LINE
  5
550
  8
1
 10
111.8422353962265
 20
237.01172235787271
 30
0.0
 11
111.8422353962265
 21
198.01172235787271
 31
0.0
  0
LINE
  5
551
  8
1
 10
191.84223539622661
 20
230.51172235787271
 30
0.0
 11
191.84223539622661
 21
204.51172235787271
 31
0.0
  0
LINE
  5
553
  8
0
 10
183.6755264269768
 20
223.52042021713791
 30
0.0
 11
127.4779180830155
 21
226.4524693481255
 31
0.0
  0
ARC
  5
554
  8
0
 10
128.1031546342833
 20
238.4361699141009
 30
0.0
 40
12.0
 50
232.14831413885031
 51
267.01336300952659
  0
ARC
  5
555
  8
0
 10
184.09235079448879
 20
231.50955392778809
 30
0.0
 40
8.0
 50
267.01336300952659
 51
298.97105987566079
  0
ARC
  5
556
  8
0
 10
184.09235079448879
 20
203.51389078795731
 30
0.0
 40
8.0
 50
61.028940124339087
 51
92.9866369904734
  0
ARC
  5
557
  8
0
 10
128.1031546342833
 20
196.58727480164461
 30
0.0
 40
12.0
 50
92.9866369904734
 51
127.8516858611497
  0
LINE
  5
558
  8
0
 10
183.6755264269768
 20
211.5030244986076
 30
0.0
 11
127.4779180830155
 21
208.57097536762001
 31
0.0
  0
ARC
  5
559
  8
0
 10
111.8422353962265
 20
217.51172235787271
 30
0.0
 40
14.5
 50
52.148328620649799
 51
307.85167137935031
  0
CIRCLE
  5
55B
  8
2
 10
111.8422353962265
 20
217.5117223578726
 30
0.0
 40
13.0
  0
CIRCLE
  5
55C
  8
3
 10
191.84223539622661
 20
217.51172235787249
 30
0.0
 40
4.0
  0
CIRCLE
  5
55D
  8
0
 10
191.84223539622661
 20
217.51172235787249
 30
0.0
 40
3.3235000000000001
  0
CIRCLE
  5
57B
  8
0
 10
191.84223539622661
 20
217.51172235787271
 30
0.0
 40
8.0000000000000568
  0
LINE
  5
57D
  8
0
 10
54.843454176583009
 20
133.08977629022939
 30
0.0
 11
28.84223539622656
 21
133.08907262706251
 31
0.0
  0
LINE
  5
57E
  8
0
 10
53.842235396226563
 20
132.5117223578728
 30
0.0
 11
29.84223539622667
 21
132.5117223578728
 31
0.0
  0
LINE
  5
57F
  8
0
 10
49.842235396226549
 20
159.51172235787229
 30
0.0
 11
33.842235396226563
 21
159.51172235787229
 31
0.0
  0
ARC
  5
581
  8
0
 10
52.84223539622667
 20
119.5117223578729
 30
0.0
 40
1.0
 50
270.0
 51
0.0
  0
ARC
  5
582
  8
0
 10
30.84223539622667
 20
119.5117223578729
 30
0.0
 40
1.0
 50
180.0
 51
270.0
  0
LINE
  5
583
  8
0
 10
52.84223539622667
 20
118.5117223578728
 30
0.0
 11
30.84223539622656
 21
118.5117223578728
 31
0.0
  0
LINE
  5
584
  8
0
 10
54.842235396221781
 20
133.92854277660021
 30
0.0
 11
54.842235396221781
 21
133.08907262706251
 31
0.0
  0
ARC
  5
585
  8
0
 10
26.34223539622667
 20
134.35841042641391
 30
0.0
 40
2.5
 50
0.0
 51
39.715137231825587
  0
ARC
  5
586
  8
0
 10
29.92802183385356
 20
139.01172235787291
 30
0.0
 40
2.5
 50
89.999999999999986
 51
160.5287793655138
  0
ARC
  5
587
  8
0
 10
31.34223539622667
 20
138.511722357873
 30
0.0
 40
4.0
 50
160.5287793655138
 51
219.71513723182571
  0
LINE
  5
588
  8
0
 10
28.84223539622656
 20
134.35841042641391
 30
0.0
 11
28.84223539622656
 21
133.08907262706251
 31
0.0
  0
LINE
  5
589
  8
0
 10
29.84223539622656
 20
119.5117223578728
 30
0.0
 11
29.84223539622667
 21
132.5117223578728
 31
0.0
  0
LINE
  5
58A
  8
0
 10
29.84223539622667
 20
132.5117223578728
 30
0.0
 11
28.84223539622656
 21
133.08907262706251
 31
0.0
  0
LINE
  5
58B
  8
0
 10
53.842235396226563
 20
132.5117223578728
 30
0.0
 11
54.843454176583009
 21
133.08977629022939
 31
0.0
  0
LINE
  5
58C
  8
0
 10
53.842235396226663
 20
119.5117223578728
 30
0.0
 11
53.842235396226563
 21
132.5117223578728
 31
0.0
  0
LINE
  5
58D
  8
2
 10
50.327516770461671
 20
118.5117223578729
 30
0.0
 11
50.327516770461671
 21
141.5117223578728
 31
0.0
  0
LINE
  5
58E
  8
2
 10
41.842235396226663
 20
118.5117223578729
 30
0.0
 11
41.842235396226563
 21
141.5117223578728
 31
0.0
  0
LINE
  5
58F
  8
2
 10
33.356954021991562
 20
118.5117223578729
 30
0.0
 11
33.356954021991562
 21
141.5117223578728
 31
0.0
  0
ARC
  5
590
  8
2
 10
46.084876083344163
 20
116.1330427014454
 30
0.0
 40
4.8639610306722121
 50
29.277613190259
 51
150.72238680974101
  0
ARC
  5
591
  8
2
 10
37.599594709110313
 20
116.1330427014454
 30
0.0
 40
4.8639610306722121
 50
29.27761319025895
 51
150.72238680974101
  0
LINE
  5
597
  8
0
 10
53.75644895859989
 20
141.51172235787271
 30
0.0
 11
29.92802183385345
 21
141.51172235787271
 31
0.0
  0
LINE
  5
599
  8
1
 10
41.842235396226727
 20
164.51172235787229
 30
0.0
 11
41.842235396226663
 21
113.5117223578728
 31
0.0
  0
LINE
  5
59D
  8
0
 10
49.842235396226549
 20
159.51172235787229
 30
0.0
 11
49.842235396226549
 21
148.0117223578724
 31
0.0
  0
ARC
  5
59E
  8
0
 10
48.342235396226549
 20
148.01172235787249
 30
0.0
 40
1.5
 50
300.47349279419279
 51
0.0
  0
LINE
  5
5A6
  8
2
 10
48.342235396226549
 20
146.5117223578728
 30
0.0
 11
35.342235396226897
 21
146.5117223578728
 31
0.0
  0
ARC
  5
5A9
  8
2
 10
35.342235396226897
 20
148.01172235787249
 30
0.0
 40
1.5
 50
239.52650720580721
 51
270.0
  0
LINE
  5
5AA
  8
0
 10
33.842235396226897
 20
159.51172235787229
 30
0.0
 11
33.842235396226897
 21
148.0117223578724
 31
0.0
  0
ARC
  5
5AB
  8
0
 10
52.342235396226791
 20
138.511722357873
 30
0.0
 40
4.0
 50
320.28486276817432
 51
19.471220634486212
  0
ARC
  5
5AC
  8
0
 10
53.75644895859989
 20
139.01172235787291
 30
0.0
 40
2.5
 50
19.471220634486212
 51
90.000000000000028
  0
LINE
  5
5AD
  8
0
 10
54.84223539622689
 20
134.35841042641391
 30
0.0
 11
54.84223539622689
 21
133.08907262706251
 31
0.0
  0
ARC
  5
5AE
  8
0
 10
57.342235396226791
 20
134.35841042641391
 30
0.0
 40
2.5
 50
140.28486276817441
 51
180.0
  0
LINE
  5
5D5
  8
0
 10
50.782982386479432
 20
141.51172235787271
 30
0.0
 11
48.067552862203691
 21
149.92807992128041
 31
0.0
  0
ARC
  5
5D8
  8
0
 10
41.842235396226727
 20
142.1152437009309
 30
0.0
 40
10.396478656941831
 50
59.020493447055088
 51
120.9795065529454
  0
ARC
  5
5D9
  8
0
 10
46.164167046810689
 20
149.31397696756599
 30
0.0
 40
2.0
 50
17.88162832494012
 51
59.020493447054768
  0
ARC
  5
5DA
  8
0
 10
37.52030374564265
 20
149.31397696756599
 30
0.0
 40
2.0
 50
120.9795065529452
 51
162.11837167505979
  0
LINE
  5
5DB
  8
0
 10
32.901488405973907
 20
141.51172235787271
 30
0.0
 11
35.616917930249663
 21
149.92807992128041
 31
0.0
  0
LINE
  5
5DC
  8
0
 10
252.43543392097769
 20
140.06720643334179
 30
0.0
 11
254.5815258668465
 21
146.7189265457236
 31
0.0
  0
LINE
  5
5E0
  8
0
 10
271.24903687147582
 20
140.06720643334179
 30
0.0
 11
269.10294492560701
 21
146.71892654572349
 31
0.0
  0
ARC
  5
601
  8
0
 10
277.3422353962269
 20
134.35841042641391
 30
0.0
 40
2.5
 50
140.28486276817441
 51
180.0
  0
LINE
  5
602
  8
0
 10
274.84223539622701
 20
134.35841042641391
 30
0.0
 11
274.84223539622701
 21
133.08907262706251
 31
0.0
  0
ARC
  5
603
  8
0
 10
273.7564489586
 20
139.0117223578728
 30
0.0
 40
2.5
 50
19.471220634486212
 51
90.000000000000028
  0
ARC
  5
604
  8
0
 10
272.3422353962269
 20
138.51172235787291
 30
0.0
 40
4.0
 50
320.28486276817432
 51
19.471220634486212
  0
LINE
  5
605
  8
0
 10
253.84223539622701
 20
159.51172235787229
 30
0.0
 11
253.84223539622701
 21
148.01172235787229
 31
0.0
  0
ARC
  5
606
  8
0
 10
255.34223539622701
 20
148.0117223578724
 30
0.0
 40
1.5
 50
180.0
 51
270.0
  0
ARC
  5
608
  8
0
 10
268.34223539622673
 20
148.0117223578724
 30
0.0
 40
1.5
 50
270.0
 51
0.0
  0
LINE
  5
609
  8
0
 10
269.84223539622673
 20
159.51172235787229
 30
0.0
 11
269.84223539622673
 21
148.01172235787229
 31
0.0
  0
LINE
  5
60A
  8
1
 10
261.84223539622678
 20
164.51172235787229
 30
0.0
 11
261.84223539622678
 21
113.5117223578728
 31
0.0
  0
LINE
  5
60B
  8
0
 10
273.7564489586
 20
141.5117223578726
 30
0.0
 11
270.78298238647972
 21
141.5117223578726
 31
0.0
  0
ARC
  5
60C
  8
2
 10
257.59959470911042
 20
116.13304270144531
 30
0.0
 40
4.8639610306722121
 50
29.27761319025895
 51
150.72238680974101
  0
ARC
  5
60D
  8
2
 10
266.08487608334428
 20
116.13304270144531
 30
0.0
 40
4.8639610306722121
 50
29.277613190259
 51
150.72238680974101
  0
LINE
  5
60E
  8
2
 10
253.3569540219917
 20
118.5117223578729
 30
0.0
 11
253.3569540219917
 21
141.51172235787271
 31
0.0
  0
LINE
  5
60F
  8
2
 10
261.84223539622678
 20
118.5117223578729
 30
0.0
 11
261.84223539622673
 21
141.51172235787271
 31
0.0
  0
LINE
  5
610
  8
2
 10
270.32751677046178
 20
118.5117223578729
 30
0.0
 11
270.32751677046178
 21
141.51172235787271
 31
0.0
  0
LINE
  5
611
  8
0
 10
273.84223539622678
 20
119.5117223578728
 30
0.0
 11
273.84223539622673
 21
132.5117223578728
 31
0.0
  0
LINE
  5
612
  8
0
 10
273.84223539622673
 20
132.5117223578728
 30
0.0
 11
274.84345417658312
 21
133.08977629022931
 31
0.0
  0
LINE
  5
613
  8
0
 10
249.84223539622681
 20
132.5117223578728
 30
0.0
 11
248.8422353962267
 21
133.08907262706251
 31
0.0
  0
LINE
  5
614
  8
0
 10
249.8422353962267
 20
119.5117223578728
 30
0.0
 11
249.84223539622681
 21
132.5117223578728
 31
0.0
  0
LINE
  5
615
  8
0
 10
248.8422353962267
 20
134.35841042641391
 30
0.0
 11
248.8422353962267
 21
133.08907262706251
 31
0.0
  0
ARC
  5
616
  8
0
 10
251.34223539622681
 20
138.51172235787291
 30
0.0
 40
4.0
 50
160.5287793655138
 51
219.71513723182571
  0
ARC
  5
617
  8
0
 10
249.92802183385371
 20
139.0117223578728
 30
0.0
 40
2.5
 50
89.999999999999986
 51
160.5287793655138
  0
ARC
  5
618
  8
0
 10
246.34223539622681
 20
134.35841042641391
 30
0.0
 40
2.5
 50
0.0
 51
39.715137231825587
  0
LINE
  5
619
  8
0
 10
274.84223539622189
 20
133.92854277660021
 30
0.0
 11
274.84223539622189
 21
133.08907262706251
 31
0.0
  0
LINE
  5
61A
  8
0
 10
272.84223539622678
 20
118.5117223578728
 30
0.0
 11
250.84223539622661
 21
118.5117223578728
 31
0.0
  0
ARC
  5
61B
  8
0
 10
250.84223539622681
 20
119.5117223578728
 30
0.0
 40
1.0
 50
180.0
 51
270.0
  0
ARC
  5
61C
  8
0
 10
272.84223539622678
 20
119.5117223578728
 30
0.0
 40
1.0
 50
270.0
 51
0.0
  0
LINE
  5
61D
  8
0
 10
269.84223539622673
 20
159.51172235787229
 30
0.0
 11
253.8422353962267
 21
159.51172235787229
 31
0.0
  0
LINE
  5
61E
  8
0
 10
273.84223539622673
 20
132.5117223578728
 30
0.0
 11
249.84223539622681
 21
132.5117223578728
 31
0.0
  0
LINE
  5
61F
  8
0
 10
274.84345417658312
 20
133.08977629022931
 30
0.0
 11
248.8422353962267
 21
133.08907262706251
 31
0.0
  0
ARC
  5
620
  8
2
 10
48.342235396226442
 20
148.01172235787249
 30
0.0
 40
1.5
 50
270.0
 51
300.47349279419279
  0
ARC
  5
621
  8
0
 10
35.342235396226783
 20
148.01172235787249
 30
0.0
 40
1.5
 50
180.0
 51
239.52650720580721
  0
ARC
  5
62C
  8
0
 10
266.79790605731608
 20
141.36284652299031
 30
0.0
 40
5.1840419391729053
 50
283.91825872874352
 51
323.14544397122978
  0
ARC
  5
62D
  8
0
 10
269.34565105608272
 20
139.45310347962729
 30
0.0
 40
2.0
 50
323.14544397122933
 51
17.881628324939889
  0
ARC
  5
62E
  8
0
 10
254.33881973637091
 20
139.45310347962729
 30
0.0
 40
2.0
 50
162.1183716750601
 51
216.85455602877079
  0
ARC
  5
62F
  8
0
 10
256.88656473513743
 20
141.36284652299031
 30
0.0
 40
5.1840419391729053
 50
216.85455602877019
 51
256.08174127125648
  0
LINE
  5
630
  8
0
 10
252.90148840597379
 20
141.5117223578726
 30
0.0
 11
249.92802183385359
 21
141.5117223578726
 31
0.0
  0
LINE
  5
631
  8
2
 10
270.78298238647949
 20
141.5117223578726
 30
0.0
 11
252.90148840597379
 21
141.51172235787271
 31
0.0
  0
LINE
  5
632
  8
0
 10
268.3422353962265
 20
146.5117223578728
 30
0.0
 11
255.34223539622701
 21
146.5117223578728
 31
0.0
  0
TEXT
  5
6E8
  8
0
 62
     3
 10
0.0
 20
0.0
 30
0.0
 40
10.0
  1
OC5S
  7
STANDARD1
  0
ENDSEC
  0
EOF
