  0
SECTION
  2
HEADER
  9
$ACADVER
  1
AC1009
  9
$INSBASE
 10
0.0
 20
0.0
 30
0.0
  9
$EXTMIN
 10
-0.1020657846867294
 20
-1.4802182810368341
 30
0.0
  9
$EXTMAX
 10
148.9261120072137
 20
110.7814081504746
 30
0.0
  9
$LIMMIN
 10
0.0
 20
0.0
  9
$LIMMAX
 10
385.0
 20
270.0
  9
$ORTHOMODE
 70
     1
  9
$REGENMODE
 70
     1
  9
$FILLMODE
 70
     1
  9
$QTEXTMODE
 70
     0
  9
$MIRRTEXT
 70
     0
  9
$DRAGMODE
 70
     2
  9
$LTSCALE
 40
10.0
  9
$OSMODE
 70
  3071
  9
$ATTMODE
 70
     1
  9
$TEXTSIZE
 40
4.000000000000048
  9
$TRACEWID
 40
0.05
  9
$TEXTSTYLE
  7
STANDARD
  9
$CLAYER
  8
0
  9
$CELTYPE
  6
BYLAYER
  9
$CECOLOR
 62
   256
  9
$DIMSCALE
 40
1.0
  9
$DIMASZ
 40
3.0
  9
$DIMEXO
 40
2.0
  9
$DIMDLI
 40
0.38
  9
$DIMRND
 40
0.0
  9
$DIMDLE
 40
0.0
  9
$DIMEXE
 40
2.0
  9
$DIMTP
 40
0.0
  9
$DIMTM
 40
0.0
  9
$DIMTXT
 40
3.0
  9
$DIMCEN
 40
0.0
  9
$DIMTSZ
 40
0.0
  9
$DIMTOL
 70
     0
  9
$DIMLIM
 70
     0
  9
$DIMTIH
 70
     0
  9
$DIMTOH
 70
     0
  9
$DIMSE1
 70
     0
  9
$DIMSE2
 70
     0
  9
$DIMTAD
 70
     1
  9
$DIMZIN
 70
     0
  9
$DIMBLK
  1

  9
$DIMASO
 70
     1
  9
$DIMSHO
 70
     0
  9
$DIMPOST
  1

  9
$DIMAPOST
  1

  9
$DIMALT
 70
     0
  9
$DIMALTD
 70
     2
  9
$DIMALTF
 40
25.399999999999999
  9
$DIMLFAC
 40
1.0
  9
$DIMTOFL
 70
     1
  9
$DIMTVP
 40
1.6000000000000001
  9
$DIMTIX
 70
     1
  9
$DIMSOXD
 70
     0
  9
$DIMSAH
 70
     0
  9
$DIMBLK1
  1

  9
$DIMBLK2
  1

  9
$DIMSTYLE
  2
STANDARD
  9
$DIMCLRD
 70
     0
  9
$DIMCLRE
 70
     0
  9
$DIMCLRT
 70
     0
  9
$DIMTFAC
 40
1.0
  9
$DIMGAP
 40
1.0
  9
$LUNITS
 70
     2
  9
$LUPREC
 70
     4
  9
$SKETCHINC
 40
0.1
  9
$FILLETRAD
 40
0.2
  9
$AUNITS
 70
     0
  9
$AUPREC
 70
     4
  9
$MENU
  1
E:\r13\win\SUPPORT\ACAD
  9
$ELEVATION
 40
0.0
  9
$PELEVATION
 40
0.0
  9
$THICKNESS
 40
0.0
  9
$LIMCHECK
 70
     0
  9
$BLIPMODE
 70
     0
  9
$CHAMFERA
 40
0.0
  9
$CHAMFERB
 40
0.0
  9
$SKPOLY
 70
     0
  9
$TDCREATE
 40
2450280.598206134
  9
$TDUPDATE
 40
2456597.6885340051
  9
$TDINDWG
 40
0.1171978472
  9
$TDUSRTIMER
 40
0.1171978472
  9
$USRTIMER
 70
     1
  9
$ANGBASE
 50
0.0
  9
$ANGDIR
 70
     0
  9
$PDMODE
 70
     0
  9
$PDSIZE
 40
0.0
  9
$PLINEWID
 40
0.0
  9
$COORDS
 70
     1
  9
$SPLFRAME
 70
     0
  9
$SPLINETYPE
 70
     6
  9
$SPLINESEGS
 70
     8
  9
$ATTDIA
 70
     0
  9
$ATTREQ
 70
     1
  9
$HANDLING
 70
     1
  9
$HANDSEED
  5
1303
  9
$SURFTAB1
 70
     6
  9
$SURFTAB2
 70
     6
  9
$SURFTYPE
 70
     6
  9
$SURFU
 70
     6
  9
$SURFV
 70
     6
  9
$UCSNAME
  2

  9
$UCSORG
 10
0.0
 20
0.0
 30
0.0
  9
$UCSXDIR
 10
1.0
 20
0.0
 30
0.0
  9
$UCSYDIR
 10
0.0
 20
1.0
 30
0.0
  9
$PUCSNAME
  2

  9
$PUCSORG
 10
0.0
 20
0.0
 30
0.0
  9
$PUCSXDIR
 10
1.0
 20
0.0
 30
0.0
  9
$PUCSYDIR
 10
0.0
 20
1.0
 30
0.0
  9
$USERI1
 70
     3
  9
$USERI2
 70
     1
  9
$USERI3
 70
     1
  9
$USERI4
 70
     0
  9
$USERI5
 70
     0
  9
$USERR1
 40
1.0
  9
$USERR2
 40
3.0
  9
$USERR3
 40
3.0
  9
$USERR4
 40
3.0
  9
$USERR5
 40
10.0
  9
$WORLDVIEW
 70
     1
  9
$SHADEDGE
 70
     3
  9
$SHADEDIF
 70
    70
  9
$TILEMODE
 70
     1
  9
$MAXACTVP
 70
    16
  9
$PLIMCHECK
 70
     0
  9
$PEXTMIN
 10
1.0000000000000000E+020
 20
1.0000000000000000E+020
 30
1.0000000000000000E+020
  9
$PEXTMAX
 10
-1.0000000000000000E+020
 20
-1.0000000000000000E+020
 30
-1.0000000000000000E+020
  9
$PLIMMIN
 10
0.0
 20
0.0
  9
$PLIMMAX
 10
12.0
 20
9.0
  9
$UNITMODE
 70
     0
  9
$VISRETAIN
 70
     0
  9
$PLINEGEN
 70
     0
  9
$PSLTSCALE
 70
     0
  0
ENDSEC
  0
SECTION
  2
TABLES
  0
TABLE
  2
VPORT
 70
     1
  0
VPORT
  2
*ACTIVE
 70
     0
 10
0.0
 20
0.0
 11
1.0
 21
1.0
 12
192.44309136477821
 22
134.84202934784381
 13
0.0
 23
0.0
 14
5.0
 24
5.0
 15
10.0
 25
10.0
 16
0.0
 26
0.0
 36
1.0
 17
0.0
 27
0.0
 37
0.0
 40
275.78743625673241
 41
2.304913294797688
 42
50.0
 43
0.0
 44
0.0
 50
0.0
 51
0.0
 71
     0
 72
   500
 73
     1
 74
     0
 75
     0
 76
     0
 77
     0
 78
     2
  0
ENDTAB
  0
TABLE
  2
LTYPE
 70
     4
  0
LTYPE
  2
CONTINUOUS
 70
     0
  3
Solid Line
 72
    65
 73
     0
 40
0.0
  0
LTYPE
  2
CENTER
 70
     0
  3
____ _ ____ _ ____ _ ____ _ ____ _ ____ _ ____
 72
    65
 73
     4
 40
2.0
 49
1.25
 49
-0.25
 49
0.25
 49
-0.25
  0
LTYPE
  2
HIDDEN
 70
     0
  3
_ _ _ _ _ _ _ _ _ _ _ _ _ _ _ _ _ _ _ _ _ _ _
 72
    65
 73
     2
 40
0.375
 49
0.25
 49
-0.125
  0
LTYPE
  2
PHANTOM2
 70
     0
  3
___ _ _ ___ _ _ ___ _ _ ___ _ _
 72
    65
 73
     6
 40
1.25
 49
0.625
 49
-0.125
 49
0.125
 49
-0.125
 49
0.125
 49
-0.125
  0
ENDTAB
  0
TABLE
  2
LAYER
 70
     5
  0
LAYER
  2
0
 70
     0
 62
     7
  6
CONTINUOUS
  0
LAYER
  2
1
 70
     0
 62
     1
  6
CENTER
  0
LAYER
  2
3
 70
     0
 62
     3
  6
CONTINUOUS
  0
LAYER
  2
2
 70
     0
 62
     2
  6
HIDDEN
  0
LAYER
  2
DEFPOINTS
 70
     0
 62
     7
  6
CONTINUOUS
  0
ENDTAB
  0
TABLE
  2
STYLE
 70
     2
  0
STYLE
  2
STANDARD
 70
     0
 40
0.0
 41
1.0
 50
0.0
 71
     0
 42
4.000000000000048
  3
SIMPLEX
  4
BIGFONT
  0
STYLE
  2
STANDARD1
 70
     0
 40
0.0
 41
1.0
 50
0.0
 71
     0
 42
3.0
  3
txt
  4

  0
ENDTAB
  0
TABLE
  2
VIEW
 70
     0
  0
ENDTAB
  0
TABLE
  2
UCS
 70
     0
  0
ENDTAB
  0
TABLE
  2
APPID
 70
     3
  0
APPID
  2
ACAD
 70
     0
  0
APPID
  2
ACAD_MLEADERVER
 70
     0
  0
APPID
  2
ACAD_NAV_VCDISPLAY
 70
     0
  0
ENDTAB
  0
TABLE
  2
DIMSTYLE
 70
     1
  0
DIMSTYLE
  2
STANDARD
 70
     0
  3

  4

  5

  6

  7

 40
1.0
 41
0.18
 42
0.0625
 43
0.38
 44
0.18
 45
0.0
 46
0.0
 47
0.0
 48
0.0
140
0.18
141
0.09
142
0.0
143
25.399999999999999
144
1.0
145
0.0
146
1.0
147
0.09
 71
     0
 72
     0
 73
     1
 74
     1
 75
     0
 76
     0
 77
     0
 78
     0
170
     0
171
     2
172
     0
173
     0
174
     0
175
     0
176
     0
177
     0
178
     0
  0
ENDTAB
  0
ENDSEC
  0
SECTION
  2
BLOCKS
  0
BLOCK
  8
0
  2
$MODEL_SPACE
 70
     0
 10
0.0
 20
0.0
 30
0.0
  3
$MODEL_SPACE
  1

  0
ENDBLK
  5
5A1
  8
0
  0
BLOCK
 67
     1
  8
0
  2
$PAPER_SPACE
 70
     0
 10
0.0
 20
0.0
 30
0.0
  3
$PAPER_SPACE
  1

  0
ENDBLK
  5
59F
 67
     1
  8
0
  0
ENDSEC
  0
SECTION
  2
ENTITIES
  0
CIRCLE
  5
73C
  8
0
 10
9.3979342153132706
 20
61.242474553900308
 30
0.0
 40
6.500000000000008
  0
LINE
  5
73D
  8
1
 10
18.897934215313249
 20
61.24247455390033
 30
0.0
 11
-0.1020657846867294
 21
61.24247455390033
 31
0.0
  0
LINE
  5
73E
  8
1
 10
9.3979342153132421
 20
50.7369210544352
 30
0.0
 11
9.3979342153132563
 21
71.748028053365445
 31
0.0
  0
CIRCLE
  5
753
  8
0
 10
9.3979342153132706
 20
61.242474553900308
 30
0.0
 40
1.5381197846483721
  0
CIRCLE
  5
75B
  8
0
 10
9.3979342153132706
 20
61.242474553900308
 30
0.0
 40
4.0
  0
LINE
  5
7B4
  8
1
 10
92.816859610114236
 20
104.2814081504746
 30
0.0
 11
54.222586377101791
 21
104.2814081504746
 31
0.0
  0
LINE
  5
7B6
  8
3
 10
89.81685961011425
 20
105.4749081504746
 30
0.0
 11
83.416859610114258
 21
105.4749081504746
 31
0.0
  0
LINE
  5
7B9
  8
3
 10
89.81685961011425
 20
103.0879081504747
 30
0.0
 11
83.416859610114258
 21
103.0879081504747
 31
0.0
  0
LINE
  5
7BA
  8
0
 10
74.81685961011425
 20
108.2814081504746
 30
0.0
 11
74.81685961011425
 21
107.51440815047459
 31
0.0
  0
LINE
  5
7BB
  8
3
 10
61.816859610114243
 20
107.51440815047459
 30
0.0
 11
67.816859610114236
 21
107.51440815047459
 31
0.0
  0
LINE
  5
7BC
  8
0
 10
74.81685961011425
 20
100.2814081504746
 30
0.0
 11
74.81685961011425
 21
108.2814081504746
 31
0.0
  0
LINE
  5
7BD
  8
0
 10
74.81685961011425
 20
100.2814081504746
 30
0.0
 11
74.81685961011425
 21
101.0484081504746
 31
0.0
  0
LINE
  5
7BE
  8
3
 10
61.816859610114243
 20
101.0484081504746
 30
0.0
 11
67.816859610114236
 21
101.0484081504746
 31
0.0
  0
POLYLINE
  5
7BF
  8
0
 66
     1
 10
0.0
 20
0.0
 30
0.0
  0
VERTEX
  5
FFB
  8
0
 10
71.547422361986293
 20
104.2814081504746
 30
0.0
  0
VERTEX
  5
FFC
  8
0
 10
71.631700294942988
 20
104.8676477781207
 30
0.0
  0
VERTEX
  5
FFD
  8
0
 10
71.750752458781932
 20
105.96580124792951
 30
0.0
  0
VERTEX
  5
FFE
  8
0
 10
71.809452891820712
 20
107.011711125191
 30
0.0
  0
VERTEX
  5
FFF
  8
0
 10
71.816859610114221
 20
107.5314081504746
 30
0.0
  0
SEQEND
  5
1000
  8
0
  0
POLYLINE
  5
7C0
  8
0
 66
     1
 10
0.0
 20
0.0
 30
0.0
  0
VERTEX
  5
1001
  8
0
 10
67.81685961011425
 20
107.5314081504746
 30
0.0
  0
VERTEX
  5
1002
  8
0
 10
67.824266328407816
 20
107.011711125191
 30
0.0
  0
VERTEX
  5
1003
  8
0
 10
67.882966761446525
 20
105.96580124792951
 30
0.0
  0
VERTEX
  5
1004
  8
0
 10
68.00201892528554
 20
104.8676477781208
 30
0.0
  0
VERTEX
  5
1005
  8
0
 10
68.086296858242235
 20
104.2814081504746
 30
0.0
  0
SEQEND
  5
1006
  8
0
  0
POLYLINE
  5
7C1
  8
0
 66
     1
 10
0.0
 20
0.0
 30
0.0
  0
VERTEX
  5
1007
  8
0
 10
68.086296858242235
 20
110.7814081504746
 30
0.0
  0
VERTEX
  5
1008
  8
0
 10
68.00201892528554
 20
110.1951685228285
 30
0.0
  0
VERTEX
  5
1009
  8
0
 10
67.882966761446596
 20
109.0970150530198
 30
0.0
  0
VERTEX
  5
100A
  8
0
 10
67.824266328407816
 20
108.0511051757582
 30
0.0
  0
VERTEX
  5
100B
  8
0
 10
67.81685961011425
 20
107.5314081504746
 30
0.0
  0
SEQEND
  5
100C
  8
0
  0
POLYLINE
  5
7C2
  8
0
 66
     1
 10
0.0
 20
0.0
 30
0.0
  0
VERTEX
  5
100D
  8
0
 10
71.816859610114221
 20
107.5314081504746
 30
0.0
  0
VERTEX
  5
100E
  8
0
 10
71.809452891820712
 20
108.0511051757582
 30
0.0
  0
VERTEX
  5
100F
  8
0
 10
71.750752458781932
 20
109.0970150530198
 30
0.0
  0
VERTEX
  5
1010
  8
0
 10
71.631700294942988
 20
110.1951685228285
 30
0.0
  0
VERTEX
  5
1011
  8
0
 10
71.547422361986293
 20
110.7814081504746
 30
0.0
  0
SEQEND
  5
1012
  8
0
  0
POLYLINE
  5
7C3
  8
0
 66
     1
 10
0.0
 20
0.0
 30
0.0
  0
VERTEX
  5
1013
  8
0
 10
71.547422361986293
 20
110.7814081504746
 30
0.0
  0
VERTEX
  5
1014
  8
0
 10
71.631700294942988
 20
110.1951685228285
 30
0.0
  0
VERTEX
  5
1015
  8
0
 10
71.750752458781932
 20
109.0970150530198
 30
0.0
  0
VERTEX
  5
1016
  8
0
 10
71.809452891820712
 20
108.0511051757582
 30
0.0
  0
VERTEX
  5
1017
  8
0
 10
71.816859610114221
 20
107.5314081504746
 30
0.0
  0
SEQEND
  5
1018
  8
0
  0
POLYLINE
  5
7C5
  8
0
 66
     1
 10
0.0
 20
0.0
 30
0.0
  0
VERTEX
  5
1019
  8
0
 10
67.81685961011425
 20
107.5314081504746
 30
0.0
  0
VERTEX
  5
101A
  8
0
 10
67.824266328407816
 20
108.0511051757582
 30
0.0
  0
VERTEX
  5
101B
  8
0
 10
67.882966761446596
 20
109.0970150530198
 30
0.0
  0
VERTEX
  5
101C
  8
0
 10
68.00201892528554
 20
110.1951685228285
 30
0.0
  0
VERTEX
  5
101D
  8
0
 10
68.086296858242235
 20
110.7814081504746
 30
0.0
  0
SEQEND
  5
101E
  8
0
  0
POLYLINE
  5
7C6
  8
0
 66
     1
 10
0.0
 20
0.0
 30
0.0
  0
VERTEX
  5
101F
  8
0
 10
68.086296858242235
 20
104.2814081504746
 30
0.0
  0
VERTEX
  5
1020
  8
0
 10
68.00201892528554
 20
104.8676477781208
 30
0.0
  0
VERTEX
  5
1021
  8
0
 10
67.882966761446596
 20
105.96580124792951
 30
0.0
  0
VERTEX
  5
1022
  8
0
 10
67.824266328407816
 20
107.011711125191
 30
0.0
  0
VERTEX
  5
1023
  8
0
 10
67.81685961011425
 20
107.5314081504746
 30
0.0
  0
SEQEND
  5
1024
  8
0
  0
LINE
  5
7C7
  8
0
 10
68.086296858242235
 20
104.2814081504746
 30
0.0
 11
71.547422361986293
 21
104.2814081504746
 31
0.0
  0
POLYLINE
  5
7C8
  8
0
 66
     1
 10
0.0
 20
0.0
 30
0.0
  0
VERTEX
  5
1025
  8
0
 10
71.816859610114221
 20
107.5314081504746
 30
0.0
  0
VERTEX
  5
1026
  8
0
 10
71.809452891820712
 20
107.011711125191
 30
0.0
  0
VERTEX
  5
1027
  8
0
 10
71.750752458781932
 20
105.96580124792951
 30
0.0
  0
VERTEX
  5
1028
  8
0
 10
71.631700294942931
 20
104.8676477781207
 30
0.0
  0
VERTEX
  5
1029
  8
0
 10
71.547422361986293
 20
104.2814081504746
 30
0.0
  0
SEQEND
  5
102A
  8
0
  0
POLYLINE
  5
7CB
  8
0
 66
     1
 10
0.0
 20
0.0
 30
0.0
  0
VERTEX
  5
102B
  8
0
 10
71.816859610114221
 20
101.0314081504746
 30
0.0
  0
VERTEX
  5
102C
  8
0
 10
71.809452891820712
 20
100.511711125191
 30
0.0
  0
VERTEX
  5
102D
  8
0
 10
71.750752458781932
 20
99.465801247929505
 30
0.0
  0
VERTEX
  5
102E
  8
0
 10
71.631700294942988
 20
98.367647778120784
 30
0.0
  0
VERTEX
  5
102F
  8
0
 10
71.547422361986293
 20
97.781408150474647
 30
0.0
  0
SEQEND
  5
1030
  8
0
  0
POLYLINE
  5
7CC
  8
0
 66
     1
 10
0.0
 20
0.0
 30
0.0
  0
VERTEX
  5
1031
  8
0
 10
71.547422361986293
 20
104.2814081504746
 30
0.0
  0
VERTEX
  5
1032
  8
0
 10
71.631700294942988
 20
103.6951685228285
 30
0.0
  0
VERTEX
  5
1033
  8
0
 10
71.750752458781932
 20
102.5970150530198
 30
0.0
  0
VERTEX
  5
1034
  8
0
 10
71.809452891820712
 20
101.5511051757582
 30
0.0
  0
VERTEX
  5
1035
  8
0
 10
71.816859610114221
 20
101.0314081504746
 30
0.0
  0
SEQEND
  5
1036
  8
0
  0
POLYLINE
  5
7CD
  8
0
 66
     1
 10
0.0
 20
0.0
 30
0.0
  0
VERTEX
  5
1037
  8
0
 10
67.81685961011425
 20
101.0314081504746
 30
0.0
  0
VERTEX
  5
1038
  8
0
 10
67.824266328407816
 20
101.5511051757582
 30
0.0
  0
VERTEX
  5
1039
  8
0
 10
67.882966761446525
 20
102.5970150530198
 30
0.0
  0
VERTEX
  5
103A
  8
0
 10
68.00201892528554
 20
103.6951685228285
 30
0.0
  0
VERTEX
  5
103B
  8
0
 10
68.086296858242235
 20
104.2814081504746
 30
0.0
  0
SEQEND
  5
103C
  8
0
  0
POLYLINE
  5
7CE
  8
0
 66
     1
 10
0.0
 20
0.0
 30
0.0
  0
VERTEX
  5
103D
  8
0
 10
68.086296858242235
 20
97.781408150474647
 30
0.0
  0
VERTEX
  5
103E
  8
0
 10
68.00201892528554
 20
98.367647778120784
 30
0.0
  0
VERTEX
  5
103F
  8
0
 10
67.882966761446596
 20
99.465801247929505
 30
0.0
  0
VERTEX
  5
1040
  8
0
 10
67.824266328407816
 20
100.511711125191
 30
0.0
  0
VERTEX
  5
1041
  8
0
 10
67.81685961011425
 20
101.0314081504746
 30
0.0
  0
SEQEND
  5
1042
  8
0
  0
POLYLINE
  5
7D2
  8
0
 66
     1
 10
0.0
 20
0.0
 30
0.0
  0
VERTEX
  5
1043
  8
0
 10
71.816859610114221
 20
101.0314081504746
 30
0.0
  0
VERTEX
  5
1044
  8
0
 10
71.809452891820712
 20
101.5511051757582
 30
0.0
  0
VERTEX
  5
1045
  8
0
 10
71.750752458781932
 20
102.5970150530198
 30
0.0
  0
VERTEX
  5
1046
  8
0
 10
71.631700294942931
 20
103.6951685228285
 30
0.0
  0
VERTEX
  5
1047
  8
0
 10
71.547422361986293
 20
104.2814081504746
 30
0.0
  0
SEQEND
  5
1048
  8
0
  0
POLYLINE
  5
7D3
  8
0
 66
     1
 10
0.0
 20
0.0
 30
0.0
  0
VERTEX
  5
1049
  8
0
 10
71.547422361986293
 20
97.781408150474647
 30
0.0
  0
VERTEX
  5
104A
  8
0
 10
71.631700294942988
 20
98.367647778120784
 30
0.0
  0
VERTEX
  5
104B
  8
0
 10
71.750752458781932
 20
99.465801247929505
 30
0.0
  0
VERTEX
  5
104C
  8
0
 10
71.809452891820712
 20
100.511711125191
 30
0.0
  0
VERTEX
  5
104D
  8
0
 10
71.816859610114221
 20
101.0314081504746
 30
0.0
  0
SEQEND
  5
104E
  8
0
  0
POLYLINE
  5
7D4
  8
0
 66
     1
 10
0.0
 20
0.0
 30
0.0
  0
VERTEX
  5
104F
  8
0
 10
67.81685961011425
 20
101.0314081504746
 30
0.0
  0
VERTEX
  5
1050
  8
0
 10
67.824266328407816
 20
100.511711125191
 30
0.0
  0
VERTEX
  5
1051
  8
0
 10
67.882966761446596
 20
99.465801247929505
 30
0.0
  0
VERTEX
  5
1052
  8
0
 10
68.00201892528554
 20
98.367647778120784
 30
0.0
  0
VERTEX
  5
1053
  8
0
 10
68.086296858242235
 20
97.781408150474647
 30
0.0
  0
SEQEND
  5
1054
  8
0
  0
POLYLINE
  5
7D5
  8
0
 66
     1
 10
0.0
 20
0.0
 30
0.0
  0
VERTEX
  5
1055
  8
0
 10
68.086296858242235
 20
104.2814081504746
 30
0.0
  0
VERTEX
  5
1056
  8
0
 10
68.00201892528554
 20
103.6951685228285
 30
0.0
  0
VERTEX
  5
1057
  8
0
 10
67.882966761446596
 20
102.5970150530198
 30
0.0
  0
VERTEX
  5
1058
  8
0
 10
67.824266328407816
 20
101.5511051757582
 30
0.0
  0
VERTEX
  5
1059
  8
0
 10
67.81685961011425
 20
101.0314081504746
 30
0.0
  0
SEQEND
  5
105A
  8
0
  0
LINE
  5
7D6
  8
0
 10
71.816859610114221
 20
110.7814081504746
 30
0.0
 11
71.816859610114221
 21
97.781408150474647
 31
0.0
  0
LINE
  5
7D7
  8
0
 10
67.81685961011425
 20
110.7814081504746
 30
0.0
 11
67.81685961011425
 21
97.781408150474647
 31
0.0
  0
LINE
  5
7DF
  8
0
 10
89.510359610114264
 20
105.7814081504746
 30
0.0
 11
89.510359610114264
 21
102.7814081504746
 31
0.0
  0
LINE
  5
7E0
  8
0
 10
89.81685961011425
 20
105.4749081504746
 30
0.0
 11
89.81685961011425
 21
103.0879081504747
 31
0.0
  0
LINE
  5
7E1
  8
0
 10
82.341650996046269
 20
101.39465680452651
 30
0.0
 11
76.816859610114236
 21
101.39465680452651
 31
0.0
  0
POLYLINE
  5
7E2
  8
0
 66
     1
 10
0.0
 20
0.0
 30
0.0
  0
VERTEX
  5
105B
  8
0
 10
82.341650996046269
 20
107.1681594964228
 30
0.0
  0
VERTEX
  5
105C
  8
0
 10
82.365572058568944
 20
106.98519230704311
 30
0.0
  0
VERTEX
  5
105D
  8
0
 10
82.408303481219718
 20
106.6314905344535
 30
0.0
  0
VERTEX
  5
105E
  8
0
 10
82.444660540918107
 20
106.2918883401408
 30
0.0
  0
VERTEX
  5
105F
  8
0
 10
82.460590438172289
 20
106.12661608635599
 30
0.0
  0
VERTEX
  5
1060
  8
0
 10
82.475085764626485
 20
105.9639905033106
 30
0.0
  0
VERTEX
  5
1061
  8
0
 10
82.499936662153971
 20
105.6456409903948
 30
0.0
  0
VERTEX
  5
1062
  8
0
 10
82.519496704601636
 20
105.33487145390519
 30
0.0
  0
VERTEX
  5
1063
  8
0
 10
82.533983677218941
 20
105.0298577795789
 30
0.0
  0
VERTEX
  5
1064
  8
0
 10
82.543555881486725
 20
104.7288825605592
 30
0.0
  0
VERTEX
  5
1065
  8
0
 10
82.548316524151346
 20
104.43030180702139
 30
0.0
  0
VERTEX
  5
1066
  8
0
 10
82.548910417683146
 20
104.2814081504746
 30
0.0
  0
VERTEX
  5
1067
  8
0
 10
82.548316524151346
 20
104.1325144939278
 30
0.0
  0
VERTEX
  5
1068
  8
0
 10
82.543555881486725
 20
103.83393374038999
 30
0.0
  0
VERTEX
  5
1069
  8
0
 10
82.533983677218941
 20
103.5329585213703
 30
0.0
  0
VERTEX
  5
106A
  8
0
 10
82.519496704601636
 20
103.2279448470441
 30
0.0
  0
VERTEX
  5
106B
  8
0
 10
82.499936662153971
 20
102.9171753105544
 30
0.0
  0
VERTEX
  5
106C
  8
0
 10
82.475085764626485
 20
102.5988257976387
 30
0.0
  0
VERTEX
  5
106D
  8
0
 10
82.460590438172289
 20
102.4362002145932
 30
0.0
  0
VERTEX
  5
106E
  8
0
 10
82.444660540918107
 20
102.27092796080839
 30
0.0
  0
VERTEX
  5
106F
  8
0
 10
82.408303481219718
 20
101.9313257664957
 30
0.0
  0
VERTEX
  5
1070
  8
0
 10
82.365572058568944
 20
101.5776239939061
 30
0.0
  0
VERTEX
  5
1071
  8
0
 10
82.341650996046269
 20
101.39465680452651
 30
0.0
  0
SEQEND
  5
1072
  8
0
  0
LINE
  5
7E3
  8
0
 10
82.341650996046269
 20
107.1681594964228
 30
0.0
 11
76.816859610114236
 21
107.1681594964228
 31
0.0
  0
LINE
  5
7E4
  8
0
 10
76.816859610114236
 20
98.507905458578364
 30
0.0
 11
76.816859610114236
 21
110.0549108423709
 31
0.0
  0
POLYLINE
  5
7E5
  8
0
 66
     1
 10
0.0
 20
0.0
 30
0.0
  0
VERTEX
  5
1073
  8
0
 10
82.341650996046269
 20
110.0549108423709
 30
0.0
  0
VERTEX
  5
1074
  8
0
 10
82.365572058568944
 20
109.963427247681
 30
0.0
  0
VERTEX
  5
1075
  8
0
 10
82.408303481219718
 20
109.7865763613862
 30
0.0
  0
VERTEX
  5
1076
  8
0
 10
82.444660540918107
 20
109.6167752642299
 30
0.0
  0
VERTEX
  5
1077
  8
0
 10
82.460590438172289
 20
109.5341391373375
 30
0.0
  0
VERTEX
  5
1078
  8
0
 10
82.475085764626485
 20
109.4528263458148
 30
0.0
  0
VERTEX
  5
1079
  8
0
 10
82.499936662153971
 20
109.2936515893569
 30
0.0
  0
VERTEX
  5
107A
  8
0
 10
82.519496704601636
 20
109.1382668211121
 30
0.0
  0
VERTEX
  5
107B
  8
0
 10
82.533983677218941
 20
108.98575998394899
 30
0.0
  0
VERTEX
  5
107C
  8
0
 10
82.543555881486725
 20
108.8352723744391
 30
0.0
  0
VERTEX
  5
107D
  8
0
 10
82.548316524151346
 20
108.6859819976702
 30
0.0
  0
VERTEX
  5
107E
  8
0
 10
82.548910417683146
 20
108.6115351693968
 30
0.0
  0
VERTEX
  5
107F
  8
0
 10
82.548316524151346
 20
108.53708834112339
 30
0.0
  0
VERTEX
  5
1080
  8
0
 10
82.543555881486725
 20
108.3877979643545
 30
0.0
  0
VERTEX
  5
1081
  8
0
 10
82.533983677218941
 20
108.2373103548446
 30
0.0
  0
VERTEX
  5
1082
  8
0
 10
82.519496704601636
 20
108.08480351768149
 30
0.0
  0
VERTEX
  5
1083
  8
0
 10
82.499936662153971
 20
107.92941874943671
 30
0.0
  0
VERTEX
  5
1084
  8
0
 10
82.475085764626485
 20
107.77024399297881
 30
0.0
  0
VERTEX
  5
1085
  8
0
 10
82.460590438172289
 20
107.6889312014561
 30
0.0
  0
VERTEX
  5
1086
  8
0
 10
82.444660540918107
 20
107.6062950745638
 30
0.0
  0
VERTEX
  5
1087
  8
0
 10
82.408303481219718
 20
107.43649397740739
 30
0.0
  0
VERTEX
  5
1088
  8
0
 10
82.365572058568944
 20
107.25964309111259
 30
0.0
  0
VERTEX
  5
1089
  8
0
 10
82.341650996046269
 20
107.1681594964228
 30
0.0
  0
SEQEND
  5
108A
  8
0
  0
LINE
  5
7E6
  8
0
 10
82.341650996046269
 20
110.0549108423709
 30
0.0
 11
76.816859610114236
 21
110.0549108423709
 31
0.0
  0
POLYLINE
  5
7E7
  8
0
 66
     1
 10
0.0
 20
0.0
 30
0.0
  0
VERTEX
  5
108B
  8
0
 10
82.341650996046269
 20
107.1681594964228
 30
0.0
  0
VERTEX
  5
108C
  8
0
 10
82.365572058568944
 20
107.25964309111259
 30
0.0
  0
VERTEX
  5
108D
  8
0
 10
82.408303481219718
 20
107.43649397740739
 30
0.0
  0
VERTEX
  5
108E
  8
0
 10
82.444660540918107
 20
107.6062950745638
 30
0.0
  0
VERTEX
  5
108F
  8
0
 10
82.460590438172289
 20
107.6889312014561
 30
0.0
  0
VERTEX
  5
1090
  8
0
 10
82.475085764626485
 20
107.77024399297881
 30
0.0
  0
VERTEX
  5
1091
  8
0
 10
82.499936662153971
 20
107.92941874943671
 30
0.0
  0
VERTEX
  5
1092
  8
0
 10
82.519496704601636
 20
108.08480351768149
 30
0.0
  0
VERTEX
  5
1093
  8
0
 10
82.533983677218941
 20
108.2373103548446
 30
0.0
  0
VERTEX
  5
1094
  8
0
 10
82.543555881486725
 20
108.3877979643545
 30
0.0
  0
VERTEX
  5
1095
  8
0
 10
82.548316524151346
 20
108.53708834112339
 30
0.0
  0
VERTEX
  5
1096
  8
0
 10
82.548910417683146
 20
108.6115351693968
 30
0.0
  0
VERTEX
  5
1097
  8
0
 10
82.548316524151346
 20
108.6859819976702
 30
0.0
  0
VERTEX
  5
1098
  8
0
 10
82.543555881486725
 20
108.8352723744391
 30
0.0
  0
VERTEX
  5
1099
  8
0
 10
82.533983677218941
 20
108.98575998394899
 30
0.0
  0
VERTEX
  5
109A
  8
0
 10
82.519496704601636
 20
109.1382668211121
 30
0.0
  0
VERTEX
  5
109B
  8
0
 10
82.499936662153971
 20
109.2936515893569
 30
0.0
  0
VERTEX
  5
109C
  8
0
 10
82.475085764626485
 20
109.4528263458148
 30
0.0
  0
VERTEX
  5
109D
  8
0
 10
82.460590438172289
 20
109.5341391373375
 30
0.0
  0
VERTEX
  5
109E
  8
0
 10
82.444660540918107
 20
109.6167752642299
 30
0.0
  0
VERTEX
  5
109F
  8
0
 10
82.408303481219718
 20
109.7865763613862
 30
0.0
  0
VERTEX
  5
10A0
  8
0
 10
82.365572058568944
 20
109.963427247681
 30
0.0
  0
VERTEX
  5
10A1
  8
0
 10
82.341650996046269
 20
110.0549108423709
 30
0.0
  0
SEQEND
  5
10A2
  8
0
  0
POLYLINE
  5
7E8
  8
0
 66
     1
 10
0.0
 20
0.0
 30
0.0
  0
VERTEX
  5
10A3
  8
0
 10
82.341650996046269
 20
101.39465680452651
 30
0.0
  0
VERTEX
  5
10A4
  8
0
 10
82.365572058568944
 20
101.5776239939061
 30
0.0
  0
VERTEX
  5
10A5
  8
0
 10
82.408303481219718
 20
101.9313257664957
 30
0.0
  0
VERTEX
  5
10A6
  8
0
 10
82.444660540918107
 20
102.27092796080839
 30
0.0
  0
VERTEX
  5
10A7
  8
0
 10
82.460590438172289
 20
102.4362002145932
 30
0.0
  0
VERTEX
  5
10A8
  8
0
 10
82.475085764626485
 20
102.5988257976387
 30
0.0
  0
VERTEX
  5
10A9
  8
0
 10
82.499936662153971
 20
102.9171753105544
 30
0.0
  0
VERTEX
  5
10AA
  8
0
 10
82.519496704601636
 20
103.2279448470441
 30
0.0
  0
VERTEX
  5
10AB
  8
0
 10
82.533983677218941
 20
103.5329585213703
 30
0.0
  0
VERTEX
  5
10AC
  8
0
 10
82.543555881486725
 20
103.83393374038999
 30
0.0
  0
VERTEX
  5
10AD
  8
0
 10
82.548316524151346
 20
104.1325144939278
 30
0.0
  0
VERTEX
  5
10AE
  8
0
 10
82.548910417683146
 20
104.2814081504746
 30
0.0
  0
VERTEX
  5
10AF
  8
0
 10
82.548316524151346
 20
104.43030180702139
 30
0.0
  0
VERTEX
  5
10B0
  8
0
 10
82.543555881486725
 20
104.7288825605592
 30
0.0
  0
VERTEX
  5
10B1
  8
0
 10
82.533983677218941
 20
105.0298577795789
 30
0.0
  0
VERTEX
  5
10B2
  8
0
 10
82.519496704601636
 20
105.33487145390519
 30
0.0
  0
VERTEX
  5
10B3
  8
0
 10
82.499936662153971
 20
105.6456409903948
 30
0.0
  0
VERTEX
  5
10B4
  8
0
 10
82.475085764626485
 20
105.9639905033106
 30
0.0
  0
VERTEX
  5
10B5
  8
0
 10
82.460590438172289
 20
106.12661608635599
 30
0.0
  0
VERTEX
  5
10B6
  8
0
 10
82.444660540918107
 20
106.2918883401408
 30
0.0
  0
VERTEX
  5
10B7
  8
0
 10
82.408303481219718
 20
106.6314905344535
 30
0.0
  0
VERTEX
  5
10B8
  8
0
 10
82.365572058568944
 20
106.98519230704311
 30
0.0
  0
VERTEX
  5
10B9
  8
0
 10
82.341650996046269
 20
107.1681594964228
 30
0.0
  0
SEQEND
  5
10BA
  8
0
  0
POLYLINE
  5
7E9
  8
0
 66
     1
 10
0.0
 20
0.0
 30
0.0
  0
VERTEX
  5
10BB
  8
0
 10
82.341650996046269
 20
98.507905458578364
 30
0.0
  0
VERTEX
  5
10BC
  8
0
 10
82.365572058568944
 20
98.599389053268226
 30
0.0
  0
VERTEX
  5
10BD
  8
0
 10
82.408303481219718
 20
98.776239939563027
 30
0.0
  0
VERTEX
  5
10BE
  8
0
 10
82.444660540918107
 20
98.946041036719365
 30
0.0
  0
VERTEX
  5
10BF
  8
0
 10
82.460590438172289
 20
99.028677163611746
 30
0.0
  0
VERTEX
  5
10C0
  8
0
 10
82.475085764626485
 20
99.109989955134495
 30
0.0
  0
VERTEX
  5
10C1
  8
0
 10
82.499936662153971
 20
99.269164711592339
 30
0.0
  0
VERTEX
  5
10C2
  8
0
 10
82.519496704601636
 20
99.424549479837196
 30
0.0
  0
VERTEX
  5
10C3
  8
0
 10
82.533983677218941
 20
99.577056317000313
 30
0.0
  0
VERTEX
  5
10C4
  8
0
 10
82.543555881486725
 20
99.727543926510123
 30
0.0
  0
VERTEX
  5
10C5
  8
0
 10
82.548316524151346
 20
99.876834303279054
 30
0.0
  0
VERTEX
  5
10C6
  8
0
 10
82.548910417683146
 20
99.951281131552435
 30
0.0
  0
VERTEX
  5
10C7
  8
0
 10
82.548316524151346
 20
100.0257279598258
 30
0.0
  0
VERTEX
  5
10C8
  8
0
 10
82.543555881486725
 20
100.1750183365947
 30
0.0
  0
VERTEX
  5
10C9
  8
0
 10
82.533983677218941
 20
100.3255059461046
 30
0.0
  0
VERTEX
  5
10CA
  8
0
 10
82.519496704601636
 20
100.4780127832677
 30
0.0
  0
VERTEX
  5
10CB
  8
0
 10
82.499936662153971
 20
100.6333975515125
 30
0.0
  0
VERTEX
  5
10CC
  8
0
 10
82.475085764626485
 20
100.7925723079704
 30
0.0
  0
VERTEX
  5
10CD
  8
0
 10
82.460590438172289
 20
100.87388509949309
 30
0.0
  0
VERTEX
  5
10CE
  8
0
 10
82.444660540918107
 20
100.9565212263855
 30
0.0
  0
VERTEX
  5
10CF
  8
0
 10
82.408303481219718
 20
101.1263223235419
 30
0.0
  0
VERTEX
  5
10D0
  8
0
 10
82.365572058568944
 20
101.3031732098367
 30
0.0
  0
VERTEX
  5
10D1
  8
0
 10
82.341650996046269
 20
101.39465680452651
 30
0.0
  0
SEQEND
  5
10D2
  8
0
  0
LINE
  5
7EA
  8
0
 10
82.341650996046269
 20
98.507905458578364
 30
0.0
 11
76.816859610114236
 21
98.507905458578364
 31
0.0
  0
POLYLINE
  5
7EB
  8
0
 66
     1
 10
0.0
 20
0.0
 30
0.0
  0
VERTEX
  5
10D3
  8
0
 10
82.341650996046269
 20
101.39465680452651
 30
0.0
  0
VERTEX
  5
10D4
  8
0
 10
82.365572058568944
 20
101.3031732098367
 30
0.0
  0
VERTEX
  5
10D5
  8
0
 10
82.408303481219718
 20
101.1263223235419
 30
0.0
  0
VERTEX
  5
10D6
  8
0
 10
82.444660540918107
 20
100.9565212263855
 30
0.0
  0
VERTEX
  5
10D7
  8
0
 10
82.460590438172289
 20
100.87388509949309
 30
0.0
  0
VERTEX
  5
10D8
  8
0
 10
82.475085764626485
 20
100.7925723079704
 30
0.0
  0
VERTEX
  5
10D9
  8
0
 10
82.499936662153971
 20
100.6333975515125
 30
0.0
  0
VERTEX
  5
10DA
  8
0
 10
82.519496704601636
 20
100.4780127832677
 30
0.0
  0
VERTEX
  5
10DB
  8
0
 10
82.533983677218941
 20
100.3255059461046
 30
0.0
  0
VERTEX
  5
10DC
  8
0
 10
82.543555881486725
 20
100.1750183365947
 30
0.0
  0
VERTEX
  5
10DD
  8
0
 10
82.548316524151346
 20
100.0257279598258
 30
0.0
  0
VERTEX
  5
10DE
  8
0
 10
82.548910417683146
 20
99.951281131552435
 30
0.0
  0
VERTEX
  5
10DF
  8
0
 10
82.548316524151346
 20
99.876834303279054
 30
0.0
  0
VERTEX
  5
10E0
  8
0
 10
82.543555881486725
 20
99.727543926510123
 30
0.0
  0
VERTEX
  5
10E1
  8
0
 10
82.533983677218941
 20
99.577056317000313
 30
0.0
  0
VERTEX
  5
10E2
  8
0
 10
82.519496704601636
 20
99.424549479837196
 30
0.0
  0
VERTEX
  5
10E3
  8
0
 10
82.499936662153971
 20
99.269164711592339
 30
0.0
  0
VERTEX
  5
10E4
  8
0
 10
82.475085764626485
 20
99.109989955134495
 30
0.0
  0
VERTEX
  5
10E5
  8
0
 10
82.460590438172289
 20
99.028677163611746
 30
0.0
  0
VERTEX
  5
10E6
  8
0
 10
82.444660540918107
 20
98.946041036719365
 30
0.0
  0
VERTEX
  5
10E7
  8
0
 10
82.408303481219718
 20
98.776239939563027
 30
0.0
  0
VERTEX
  5
10E8
  8
0
 10
82.365572058568944
 20
98.599389053268226
 30
0.0
  0
VERTEX
  5
10E9
  8
0
 10
82.341650996046269
 20
98.507905458578364
 30
0.0
  0
SEQEND
  5
10EA
  8
0
  0
LINE
  5
7EC
  8
0
 10
62.583859610114239
 20
108.2814081504746
 30
0.0
 11
62.583859610114239
 21
100.2814081504746
 31
0.0
  0
LINE
  5
7ED
  8
0
 10
61.816859610114243
 20
107.51440815047459
 30
0.0
 11
61.816859610114243
 21
101.0484081504746
 31
0.0
  0
LINE
  5
7EE
  8
0
 10
82.816859610114236
 20
108.2814081504746
 30
0.0
 11
82.816859610114236
 21
100.2814081504746
 31
0.0
  0
LINE
  5
7EF
  8
0
 10
76.816859610114236
 20
108.2814081504746
 30
0.0
 11
71.816859610114221
 21
108.2814081504746
 31
0.0
  0
LINE
  5
7F0
  8
0
 10
71.816859610114221
 20
100.2814081504746
 30
0.0
 11
76.816859610114236
 21
100.2814081504746
 31
0.0
  0
LINE
  5
7FA
  8
0
 10
89.510359610114264
 20
105.7814081504746
 30
0.0
 11
83.416859610114258
 21
105.7814081504746
 31
0.0
  0
LINE
  5
7FB
  8
0
 10
83.416859610114258
 20
102.7814081504746
 30
0.0
 11
89.510359610114264
 21
102.7814081504746
 31
0.0
  0
LINE
  5
7FD
  8
0
 10
89.81685961011425
 20
105.4749081504746
 30
0.0
 11
89.510359610114264
 21
105.7814081504746
 31
0.0
  0
LINE
  5
7FE
  8
0
 10
89.510359610114264
 20
102.7814081504746
 30
0.0
 11
89.81685961011425
 21
103.0879081504747
 31
0.0
  0
LINE
  5
7FF
  8
0
 10
62.583859610114239
 20
108.2814081504746
 30
0.0
 11
61.816859610114243
 21
107.51440815047459
 31
0.0
  0
LINE
  5
800
  8
0
 10
61.816859610114243
 20
101.0484081504746
 30
0.0
 11
62.583859610114239
 21
100.2814081504746
 31
0.0
  0
LINE
  5
801
  8
0
 10
67.81685961011425
 20
108.2814081504746
 30
0.0
 11
62.583859610114239
 21
108.2814081504746
 31
0.0
  0
LINE
  5
802
  8
0
 10
62.583859610114239
 20
100.2814081504746
 30
0.0
 11
67.81685961011425
 21
100.2814081504746
 31
0.0
  0
LINE
  5
803
  8
0
 10
82.816859610114236
 20
108.2814081504746
 30
0.0
 11
82.341650996046269
 21
110.0549108423709
 31
0.0
  0
LINE
  5
804
  8
0
 10
82.341650996046269
 20
98.507905458578364
 30
0.0
 11
82.816859610114236
 21
100.2814081504746
 31
0.0
  0
CIRCLE
  5
8CC
  8
0
 10
139.4261120072137
 20
61.242474553900351
 30
0.0
 40
4.0
  0
CIRCLE
  5
8D3
  8
0
 10
139.4261120072137
 20
61.242474553900351
 30
0.0
 40
1.5
  0
LINE
  5
8E9
  8
1
 10
139.4261120072137
 20
50.736921054435243
 30
0.0
 11
139.4261120072137
 21
71.748028053365502
 31
0.0
  0
LINE
  5
8EA
  8
1
 10
148.9261120072137
 20
61.242474553900379
 30
0.0
 11
129.92611200721379
 21
61.242474553900401
 31
0.0
  0
CIRCLE
  5
8EB
  8
0
 10
139.4261120072137
 20
61.242474553900351
 30
0.0
 40
6.500000000000008
  0
LINE
  5
8F4
  8
0
 10
82.548910417683146
 20
56.242474553900372
 30
0.0
 11
82.816859610114236
 21
57.242474553900358
 31
0.0
  0
LINE
  5
8F5
  8
0
 10
82.816859610114236
 20
65.242474553900365
 30
0.0
 11
82.548910417683146
 21
66.242474553900365
 31
0.0
  0
LINE
  5
8F6
  8
0
 10
62.583859610114239
 20
57.242474553900358
 30
0.0
 11
67.81685961011425
 21
57.242474553900358
 31
0.0
  0
LINE
  5
8F7
  8
0
 10
67.81685961011425
 20
65.242474553900365
 30
0.0
 11
62.583859610114239
 21
65.242474553900365
 31
0.0
  0
LINE
  5
8F8
  8
0
 10
61.816859610114243
 20
58.009474553900361
 30
0.0
 11
62.583859610114239
 21
57.242474553900358
 31
0.0
  0
LINE
  5
8F9
  8
0
 10
62.583859610114239
 20
65.242474553900365
 30
0.0
 11
61.816859610114243
 21
64.475474553900355
 31
0.0
  0
LINE
  5
8FA
  8
0
 10
89.510359610114264
 20
59.742474553900358
 30
0.0
 11
89.81685961011425
 21
60.048974553900401
 31
0.0
  0
LINE
  5
8FB
  8
0
 10
89.81685961011425
 20
62.435974553900337
 30
0.0
 11
89.510359610114264
 21
62.742474553900358
 31
0.0
  0
LINE
  5
8FD
  8
0
 10
83.416859610114287
 20
59.742474553900372
 30
0.0
 11
89.510359610114264
 21
59.742474553900358
 31
0.0
  0
LINE
  5
8FE
  8
0
 10
89.510359610114264
 20
62.742474553900358
 30
0.0
 11
83.416859610114287
 21
62.742474553900379
 31
0.0
  0
LINE
  5
908
  8
0
 10
71.816859610114221
 20
57.242474553900358
 30
0.0
 11
76.816859610114236
 21
57.242474553900358
 31
0.0
  0
LINE
  5
909
  8
0
 10
76.816859610114236
 20
65.242474553900365
 30
0.0
 11
71.816859610114221
 21
65.242474553900365
 31
0.0
  0
LINE
  5
90A
  8
0
 10
68.086296858242235
 20
68.748028053365488
 30
0.0
 11
67.81685961011425
 21
67.742474553900365
 31
0.0
  0
LINE
  5
90B
  8
0
 10
67.81685961011425
 20
54.742474553900358
 30
0.0
 11
68.086296858242235
 21
53.736921054435243
 31
0.0
  0
LINE
  5
90C
  8
0
 10
71.816859610114221
 20
67.742474553900365
 30
0.0
 11
71.547422361986293
 21
68.748028053365488
 31
0.0
  0
LINE
  5
90D
  8
0
 10
71.547422361986293
 20
53.736921054435243
 30
0.0
 11
71.816859610114221
 21
54.742474553900358
 31
0.0
  0
LINE
  5
90E
  8
0
 10
82.816859610114236
 20
65.242474553900365
 30
0.0
 11
82.816859610114236
 21
57.242474553900358
 31
0.0
  0
LINE
  5
90F
  8
0
 10
61.816859610114243
 20
64.475474553900355
 30
0.0
 11
61.816859610114243
 21
58.009474553900361
 31
0.0
  0
LINE
  5
910
  8
0
 10
62.583859610114239
 20
65.242474553900365
 30
0.0
 11
62.583859610114239
 21
57.242474553900358
 31
0.0
  0
POLYLINE
  5
911
  8
0
 66
     1
 10
0.0
 20
0.0
 30
0.0
  0
VERTEX
  5
10EB
  8
0
 10
82.341650996046269
 20
66.242474553900365
 30
0.0
  0
VERTEX
  5
10EC
  8
0
 10
82.365572058568944
 20
66.084020319838544
 30
0.0
  0
VERTEX
  5
10ED
  8
0
 10
82.408303481219718
 20
65.777705599412343
 30
0.0
  0
VERTEX
  5
10EE
  8
0
 10
82.444660540918107
 20
65.483601471956604
 30
0.0
  0
VERTEX
  5
10EF
  8
0
 10
82.460590438172289
 20
65.340471501638262
 30
0.0
  0
VERTEX
  5
10F0
  8
0
 10
82.475085764626485
 20
65.199633615415664
 30
0.0
  0
VERTEX
  5
10F1
  8
0
 10
82.499936662153971
 20
64.923934849948239
 30
0.0
  0
VERTEX
  5
10F2
  8
0
 10
82.519496704601636
 20
64.654800536625885
 30
0.0
  0
VERTEX
  5
10F3
  8
0
 10
82.533983677218941
 20
64.390650946157734
 30
0.0
  0
VERTEX
  5
10F4
  8
0
 10
82.543555881486725
 20
64.129998760577095
 30
0.0
  0
VERTEX
  5
10F5
  8
0
 10
82.548316524151346
 20
63.871420242932288
 30
0.0
  0
VERTEX
  5
10F6
  8
0
 10
82.548910417683146
 20
63.742474553900372
 30
0.0
  0
VERTEX
  5
10F7
  8
0
 10
82.548316524151346
 20
63.613528864868442
 30
0.0
  0
VERTEX
  5
10F8
  8
0
 10
82.543555881486725
 20
63.354950347223621
 30
0.0
  0
VERTEX
  5
10F9
  8
0
 10
82.533983677218941
 20
63.094298161643003
 30
0.0
  0
VERTEX
  5
10FA
  8
0
 10
82.519496704601636
 20
62.830148571174853
 30
0.0
  0
VERTEX
  5
10FB
  8
0
 10
82.499936662153971
 20
62.561014257852491
 30
0.0
  0
VERTEX
  5
10FC
  8
0
 10
82.475085764626485
 20
62.285315492385052
 30
0.0
  0
VERTEX
  5
10FD
  8
0
 10
82.460590438172289
 20
62.144477606162468
 30
0.0
  0
VERTEX
  5
10FE
  8
0
 10
82.444660540918107
 20
62.00134763584407
 30
0.0
  0
VERTEX
  5
10FF
  8
0
 10
82.408303481219718
 20
61.70724350838838
 30
0.0
  0
VERTEX
  5
1100
  8
0
 10
82.365572058568944
 20
61.400928787962187
 30
0.0
  0
VERTEX
  5
1101
  8
0
 10
82.341650996046269
 20
61.242474553900372
 30
0.0
  0
SEQEND
  5
1102
  8
0
  0
LINE
  5
912
  8
0
 10
76.816859610114236
 20
56.242474553900372
 30
0.0
 11
76.816859610114236
 21
66.242474553900365
 31
0.0
  0
LINE
  5
913
  8
0
 10
82.341650996046269
 20
61.242474553900372
 30
0.0
 11
76.816859610114236
 21
61.242474553900372
 31
0.0
  0
POLYLINE
  5
914
  8
0
 66
     1
 10
0.0
 20
0.0
 30
0.0
  0
VERTEX
  5
1103
  8
0
 10
82.341650996046269
 20
61.242474553900372
 30
0.0
  0
VERTEX
  5
1104
  8
0
 10
82.365572058568944
 20
61.084020319838537
 30
0.0
  0
VERTEX
  5
1105
  8
0
 10
82.408303481219718
 20
60.777705599412343
 30
0.0
  0
VERTEX
  5
1106
  8
0
 10
82.444660540918107
 20
60.483601471956661
 30
0.0
  0
VERTEX
  5
1107
  8
0
 10
82.460590438172289
 20
60.340471501638262
 30
0.0
  0
VERTEX
  5
1108
  8
0
 10
82.475085764626485
 20
60.199633615415671
 30
0.0
  0
VERTEX
  5
1109
  8
0
 10
82.499936662153971
 20
59.923934849948239
 30
0.0
  0
VERTEX
  5
110A
  8
0
 10
82.519496704601636
 20
59.654800536625878
 30
0.0
  0
VERTEX
  5
110B
  8
0
 10
82.533983677218941
 20
59.390650946157741
 30
0.0
  0
VERTEX
  5
110C
  8
0
 10
82.543555881486725
 20
59.129998760577102
 30
0.0
  0
VERTEX
  5
110D
  8
0
 10
82.548316524151346
 20
58.871420242932288
 30
0.0
  0
VERTEX
  5
110E
  8
0
 10
82.548910417683146
 20
58.742474553900372
 30
0.0
  0
VERTEX
  5
110F
  8
0
 10
82.548316524151346
 20
58.613528864868442
 30
0.0
  0
VERTEX
  5
1110
  8
0
 10
82.543555881486725
 20
58.354950347223621
 30
0.0
  0
VERTEX
  5
1111
  8
0
 10
82.533983677218941
 20
58.094298161643003
 30
0.0
  0
VERTEX
  5
1112
  8
0
 10
82.519496704601636
 20
57.830148571174853
 30
0.0
  0
VERTEX
  5
1113
  8
0
 10
82.499936662153971
 20
57.561014257852491
 30
0.0
  0
VERTEX
  5
1114
  8
0
 10
82.475085764626485
 20
57.285315492385052
 30
0.0
  0
VERTEX
  5
1115
  8
0
 10
82.460590438172289
 20
57.144477606162468
 30
0.0
  0
VERTEX
  5
1116
  8
0
 10
82.444660540918107
 20
57.00134763584407
 30
0.0
  0
VERTEX
  5
1117
  8
0
 10
82.408303481219718
 20
56.70724350838838
 30
0.0
  0
VERTEX
  5
1118
  8
0
 10
82.365572058568944
 20
56.400928787962187
 30
0.0
  0
VERTEX
  5
1119
  8
0
 10
82.341650996046269
 20
56.242474553900372
 30
0.0
  0
SEQEND
  5
111A
  8
0
  0
LINE
  5
915
  8
0
 10
82.548910417683146
 20
56.242474553900372
 30
0.0
 11
76.816859610114236
 21
56.242474553900372
 31
0.0
  0
POLYLINE
  5
917
  8
0
 66
     1
 10
0.0
 20
0.0
 30
0.0
  0
VERTEX
  5
111B
  8
0
 10
82.341650996046269
 20
56.242474553900372
 30
0.0
  0
VERTEX
  5
111C
  8
0
 10
82.365572058568944
 20
56.400928787962187
 30
0.0
  0
VERTEX
  5
111D
  8
0
 10
82.408303481219718
 20
56.70724350838838
 30
0.0
  0
VERTEX
  5
111E
  8
0
 10
82.444660540918107
 20
57.00134763584407
 30
0.0
  0
VERTEX
  5
111F
  8
0
 10
82.460590438172289
 20
57.144477606162468
 30
0.0
  0
VERTEX
  5
1120
  8
0
 10
82.475085764626485
 20
57.285315492385052
 30
0.0
  0
VERTEX
  5
1121
  8
0
 10
82.499936662153971
 20
57.561014257852491
 30
0.0
  0
VERTEX
  5
1122
  8
0
 10
82.519496704601636
 20
57.830148571174853
 30
0.0
  0
VERTEX
  5
1123
  8
0
 10
82.533983677218941
 20
58.094298161643003
 30
0.0
  0
VERTEX
  5
1124
  8
0
 10
82.543555881486725
 20
58.354950347223621
 30
0.0
  0
VERTEX
  5
1125
  8
0
 10
82.548316524151346
 20
58.613528864868442
 30
0.0
  0
VERTEX
  5
1126
  8
0
 10
82.548910417683146
 20
58.742474553900372
 30
0.0
  0
VERTEX
  5
1127
  8
0
 10
82.548316524151346
 20
58.871420242932288
 30
0.0
  0
VERTEX
  5
1128
  8
0
 10
82.543555881486725
 20
59.129998760577102
 30
0.0
  0
VERTEX
  5
1129
  8
0
 10
82.533983677218941
 20
59.390650946157741
 30
0.0
  0
VERTEX
  5
112A
  8
0
 10
82.519496704601636
 20
59.654800536625878
 30
0.0
  0
VERTEX
  5
112B
  8
0
 10
82.499936662153971
 20
59.923934849948239
 30
0.0
  0
VERTEX
  5
112C
  8
0
 10
82.475085764626485
 20
60.199633615415671
 30
0.0
  0
VERTEX
  5
112D
  8
0
 10
82.460590438172289
 20
60.340471501638262
 30
0.0
  0
VERTEX
  5
112E
  8
0
 10
82.444660540918107
 20
60.483601471956661
 30
0.0
  0
VERTEX
  5
112F
  8
0
 10
82.408303481219718
 20
60.777705599412343
 30
0.0
  0
VERTEX
  5
1130
  8
0
 10
82.365572058568944
 20
61.084020319838537
 30
0.0
  0
VERTEX
  5
1131
  8
0
 10
82.341650996046269
 20
61.242474553900372
 30
0.0
  0
SEQEND
  5
1132
  8
0
  0
POLYLINE
  5
918
  8
0
 66
     1
 10
0.0
 20
0.0
 30
0.0
  0
VERTEX
  5
1133
  8
0
 10
82.341650996046269
 20
61.242474553900372
 30
0.0
  0
VERTEX
  5
1134
  8
0
 10
82.365572058568944
 20
61.400928787962187
 30
0.0
  0
VERTEX
  5
1135
  8
0
 10
82.408303481219718
 20
61.70724350838838
 30
0.0
  0
VERTEX
  5
1136
  8
0
 10
82.444660540918107
 20
62.00134763584407
 30
0.0
  0
VERTEX
  5
1137
  8
0
 10
82.460590438172289
 20
62.144477606162468
 30
0.0
  0
VERTEX
  5
1138
  8
0
 10
82.475085764626485
 20
62.285315492385052
 30
0.0
  0
VERTEX
  5
1139
  8
0
 10
82.499936662153971
 20
62.561014257852491
 30
0.0
  0
VERTEX
  5
113A
  8
0
 10
82.519496704601636
 20
62.830148571174853
 30
0.0
  0
VERTEX
  5
113B
  8
0
 10
82.533983677218941
 20
63.094298161643003
 30
0.0
  0
VERTEX
  5
113C
  8
0
 10
82.543555881486725
 20
63.354950347223621
 30
0.0
  0
VERTEX
  5
113D
  8
0
 10
82.548316524151346
 20
63.613528864868442
 30
0.0
  0
VERTEX
  5
113E
  8
0
 10
82.548910417683146
 20
63.742474553900372
 30
0.0
  0
VERTEX
  5
113F
  8
0
 10
82.548316524151346
 20
63.871420242932288
 30
0.0
  0
VERTEX
  5
1140
  8
0
 10
82.543555881486725
 20
64.129998760577095
 30
0.0
  0
VERTEX
  5
1141
  8
0
 10
82.533983677218941
 20
64.390650946157734
 30
0.0
  0
VERTEX
  5
1142
  8
0
 10
82.519496704601636
 20
64.654800536625885
 30
0.0
  0
VERTEX
  5
1143
  8
0
 10
82.499936662153971
 20
64.923934849948239
 30
0.0
  0
VERTEX
  5
1144
  8
0
 10
82.475085764626485
 20
65.199633615415664
 30
0.0
  0
VERTEX
  5
1145
  8
0
 10
82.460590438172289
 20
65.340471501638262
 30
0.0
  0
VERTEX
  5
1146
  8
0
 10
82.444660540918107
 20
65.483601471956661
 30
0.0
  0
VERTEX
  5
1147
  8
0
 10
82.408303481219718
 20
65.777705599412343
 30
0.0
  0
VERTEX
  5
1148
  8
0
 10
82.365572058568944
 20
66.084020319838544
 30
0.0
  0
VERTEX
  5
1149
  8
0
 10
82.341650996046269
 20
66.242474553900365
 30
0.0
  0
SEQEND
  5
114A
  8
0
  0
LINE
  5
91A
  8
0
 10
82.548910417683146
 20
66.242474553900365
 30
0.0
 11
76.816859610114236
 21
66.242474553900365
 31
0.0
  0
LINE
  5
91B
  8
0
 10
89.81685961011425
 20
62.435974553900337
 30
0.0
 11
89.81685961011425
 21
60.048974553900401
 31
0.0
  0
LINE
  5
91C
  8
0
 10
89.510359610114264
 20
62.742474553900358
 30
0.0
 11
89.510359610114264
 21
59.742474553900358
 31
0.0
  0
LINE
  5
925
  8
0
 10
67.81685961011425
 20
67.742474553900365
 30
0.0
 11
67.81685961011425
 21
54.742474553900358
 31
0.0
  0
LINE
  5
926
  8
0
 10
71.816859610114221
 20
67.742474553900365
 30
0.0
 11
71.816859610114221
 21
54.742474553900358
 31
0.0
  0
POLYLINE
  5
927
  8
0
 66
     1
 10
0.0
 20
0.0
 30
0.0
  0
VERTEX
  5
114B
  8
0
 10
68.086296858242235
 20
53.736921054435243
 30
0.0
  0
VERTEX
  5
114C
  8
0
 10
68.00201892528554
 20
54.07538666126635
 30
0.0
  0
VERTEX
  5
114D
  8
0
 10
67.882966761446596
 20
54.709405862671929
 30
0.0
  0
VERTEX
  5
114E
  8
0
 10
67.824266328407816
 20
55.313262211856973
 30
0.0
  0
VERTEX
  5
114F
  8
0
 10
67.81685961011425
 20
55.613309429301523
 30
0.0
  0
SEQEND
  5
1150
  8
0
  0
POLYLINE
  5
928
  8
0
 66
     1
 10
0.0
 20
0.0
 30
0.0
  0
VERTEX
  5
1151
  8
0
 10
67.81685961011425
 20
55.613309429301523
 30
0.0
  0
VERTEX
  5
1152
  8
0
 10
67.824266328407816
 20
55.913356646746081
 30
0.0
  0
VERTEX
  5
1153
  8
0
 10
67.882966761446596
 20
56.517212995931061
 30
0.0
  0
VERTEX
  5
1154
  8
0
 10
68.00201892528554
 20
57.151232197336689
 30
0.0
  0
VERTEX
  5
1155
  8
0
 10
68.086296858242235
 20
57.489697804167797
 30
0.0
  0
SEQEND
  5
1156
  8
0
  0
POLYLINE
  5
929
  8
0
 66
     1
 10
0.0
 20
0.0
 30
0.0
  0
VERTEX
  5
1157
  8
0
 10
71.547422361986293
 20
57.489697804167797
 30
0.0
  0
VERTEX
  5
1158
  8
0
 10
71.631700294942988
 20
57.151232197336689
 30
0.0
  0
VERTEX
  5
1159
  8
0
 10
71.750752458781932
 20
56.517212995931118
 30
0.0
  0
VERTEX
  5
115A
  8
0
 10
71.809452891820712
 20
55.913356646746081
 30
0.0
  0
VERTEX
  5
115B
  8
0
 10
71.816859610114221
 20
55.613309429301523
 30
0.0
  0
SEQEND
  5
115C
  8
0
  0
POLYLINE
  5
92A
  8
0
 66
     1
 10
0.0
 20
0.0
 30
0.0
  0
VERTEX
  5
115D
  8
0
 10
71.816859610114221
 20
55.613309429301523
 30
0.0
  0
VERTEX
  5
115E
  8
0
 10
71.809452891820712
 20
55.313262211856973
 30
0.0
  0
VERTEX
  5
115F
  8
0
 10
71.750752458781932
 20
54.709405862671929
 30
0.0
  0
VERTEX
  5
1160
  8
0
 10
71.631700294942931
 20
54.07538666126635
 30
0.0
  0
VERTEX
  5
1161
  8
0
 10
71.547422361986293
 20
53.736921054435243
 30
0.0
  0
SEQEND
  5
1162
  8
0
  0
LINE
  5
92B
  8
0
 10
68.086296858242235
 20
57.489697804167797
 30
0.0
 11
71.547422361986293
 21
57.489697804167797
 31
0.0
  0
POLYLINE
  5
92C
  8
0
 66
     1
 10
0.0
 20
0.0
 30
0.0
  0
VERTEX
  5
1163
  8
0
 10
68.086296858242235
 20
57.489697804167797
 30
0.0
  0
VERTEX
  5
1164
  8
0
 10
68.00201892528554
 20
58.166629017830019
 30
0.0
  0
VERTEX
  5
1165
  8
0
 10
67.882966761446596
 20
59.434667420641233
 30
0.0
  0
VERTEX
  5
1166
  8
0
 10
67.824266328407816
 20
60.642380119011243
 30
0.0
  0
VERTEX
  5
1167
  8
0
 10
67.81685961011425
 20
61.242474553900372
 30
0.0
  0
SEQEND
  5
1168
  8
0
  0
POLYLINE
  5
92D
  8
0
 66
     1
 10
0.0
 20
0.0
 30
0.0
  0
VERTEX
  5
1169
  8
0
 10
67.81685961011425
 20
61.242474553900372
 30
0.0
  0
VERTEX
  5
116A
  8
0
 10
67.824266328407816
 20
61.84256898878948
 30
0.0
  0
VERTEX
  5
116B
  8
0
 10
67.882966761446596
 20
63.05028168715949
 30
0.0
  0
VERTEX
  5
116C
  8
0
 10
68.00201892528554
 20
64.318320089970712
 30
0.0
  0
VERTEX
  5
116D
  8
0
 10
68.086296858242235
 20
64.995251303632926
 30
0.0
  0
SEQEND
  5
116E
  8
0
  0
POLYLINE
  5
92E
  8
0
 66
     1
 10
0.0
 20
0.0
 30
0.0
  0
VERTEX
  5
116F
  8
0
 10
71.547422361986293
 20
64.995251303632926
 30
0.0
  0
VERTEX
  5
1170
  8
0
 10
71.631700294942988
 20
64.318320089970712
 30
0.0
  0
VERTEX
  5
1171
  8
0
 10
71.750752458781932
 20
63.050281687159547
 30
0.0
  0
VERTEX
  5
1172
  8
0
 10
71.809452891820712
 20
61.842568988789417
 30
0.0
  0
VERTEX
  5
1173
  8
0
 10
71.816859610114221
 20
61.242474553900372
 30
0.0
  0
SEQEND
  5
1174
  8
0
  0
POLYLINE
  5
92F
  8
0
 66
     1
 10
0.0
 20
0.0
 30
0.0
  0
VERTEX
  5
1175
  8
0
 10
71.816859610114221
 20
61.242474553900372
 30
0.0
  0
VERTEX
  5
1176
  8
0
 10
71.809452891820712
 20
60.642380119011307
 30
0.0
  0
VERTEX
  5
1177
  8
0
 10
71.750752458781932
 20
59.434667420641169
 30
0.0
  0
VERTEX
  5
1178
  8
0
 10
71.631700294942931
 20
58.166629017830019
 30
0.0
  0
VERTEX
  5
1179
  8
0
 10
71.547422361986293
 20
57.489697804167797
 30
0.0
  0
SEQEND
  5
117A
  8
0
  0
LINE
  5
930
  8
0
 10
68.086296858242235
 20
64.995251303632926
 30
0.0
 11
71.547422361986293
 21
64.995251303632926
 31
0.0
  0
POLYLINE
  5
931
  8
0
 66
     1
 10
0.0
 20
0.0
 30
0.0
  0
VERTEX
  5
117B
  8
0
 10
68.086296858242235
 20
64.995251303632926
 30
0.0
  0
VERTEX
  5
117C
  8
0
 10
68.00201892528554
 20
65.333716910464034
 30
0.0
  0
VERTEX
  5
117D
  8
0
 10
67.882966761446596
 20
65.967736111869613
 30
0.0
  0
VERTEX
  5
117E
  8
0
 10
67.824266328407816
 20
66.571592461054635
 30
0.0
  0
VERTEX
  5
117F
  8
0
 10
67.81685961011425
 20
66.871639678499207
 30
0.0
  0
SEQEND
  5
1180
  8
0
  0
POLYLINE
  5
932
  8
0
 66
     1
 10
0.0
 20
0.0
 30
0.0
  0
VERTEX
  5
1181
  8
0
 10
67.81685961011425
 20
66.871639678499207
 30
0.0
  0
VERTEX
  5
1182
  8
0
 10
67.824266328407816
 20
67.171686895943765
 30
0.0
  0
VERTEX
  5
1183
  8
0
 10
67.882966761446525
 20
67.775543245128802
 30
0.0
  0
VERTEX
  5
1184
  8
0
 10
68.00201892528554
 20
68.40956244653438
 30
0.0
  0
VERTEX
  5
1185
  8
0
 10
68.086296858242235
 20
68.748028053365488
 30
0.0
  0
SEQEND
  5
1186
  8
0
  0
POLYLINE
  5
933
  8
0
 66
     1
 10
0.0
 20
0.0
 30
0.0
  0
VERTEX
  5
1187
  8
0
 10
71.547422361986293
 20
68.748028053365488
 30
0.0
  0
VERTEX
  5
1188
  8
0
 10
71.631700294942988
 20
68.40956244653438
 30
0.0
  0
VERTEX
  5
1189
  8
0
 10
71.750752458781932
 20
67.775543245128802
 30
0.0
  0
VERTEX
  5
118A
  8
0
 10
71.809452891820712
 20
67.171686895943765
 30
0.0
  0
VERTEX
  5
118B
  8
0
 10
71.816859610114221
 20
66.871639678499207
 30
0.0
  0
SEQEND
  5
118C
  8
0
  0
POLYLINE
  5
934
  8
0
 66
     1
 10
0.0
 20
0.0
 30
0.0
  0
VERTEX
  5
118D
  8
0
 10
71.816859610114221
 20
66.871639678499207
 30
0.0
  0
VERTEX
  5
118E
  8
0
 10
71.809452891820712
 20
66.571592461054706
 30
0.0
  0
VERTEX
  5
118F
  8
0
 10
71.750752458781932
 20
65.967736111869613
 30
0.0
  0
VERTEX
  5
1190
  8
0
 10
71.631700294942988
 20
65.333716910464034
 30
0.0
  0
VERTEX
  5
1191
  8
0
 10
71.547422361986293
 20
64.995251303632926
 30
0.0
  0
SEQEND
  5
1192
  8
0
  0
POLYLINE
  5
935
  8
0
 66
     1
 10
0.0
 20
0.0
 30
0.0
  0
VERTEX
  5
1193
  8
0
 10
71.816859610114221
 20
61.242474553900372
 30
0.0
  0
VERTEX
  5
1194
  8
0
 10
71.809452891820712
 20
61.842568988789417
 30
0.0
  0
VERTEX
  5
1195
  8
0
 10
71.750752458781932
 20
63.050281687159547
 30
0.0
  0
VERTEX
  5
1196
  8
0
 10
71.631700294942988
 20
64.318320089970712
 30
0.0
  0
VERTEX
  5
1197
  8
0
 10
71.547422361986293
 20
64.995251303632926
 30
0.0
  0
SEQEND
  5
1198
  8
0
  0
POLYLINE
  5
936
  8
0
 66
     1
 10
0.0
 20
0.0
 30
0.0
  0
VERTEX
  5
1199
  8
0
 10
68.086296858242235
 20
64.995251303632926
 30
0.0
  0
VERTEX
  5
119A
  8
0
 10
68.00201892528554
 20
64.318320089970712
 30
0.0
  0
VERTEX
  5
119B
  8
0
 10
67.882966761446596
 20
63.05028168715949
 30
0.0
  0
VERTEX
  5
119C
  8
0
 10
67.824266328407816
 20
61.84256898878948
 30
0.0
  0
VERTEX
  5
119D
  8
0
 10
67.81685961011425
 20
61.242474553900372
 30
0.0
  0
SEQEND
  5
119E
  8
0
  0
POLYLINE
  5
937
  8
0
 66
     1
 10
0.0
 20
0.0
 30
0.0
  0
VERTEX
  5
119F
  8
0
 10
67.81685961011425
 20
61.242474553900372
 30
0.0
  0
VERTEX
  5
11A0
  8
0
 10
67.824266328407816
 20
60.642380119011243
 30
0.0
  0
VERTEX
  5
11A1
  8
0
 10
67.882966761446596
 20
59.434667420641233
 30
0.0
  0
VERTEX
  5
11A2
  8
0
 10
68.00201892528554
 20
58.166629017830019
 30
0.0
  0
VERTEX
  5
11A3
  8
0
 10
68.086296858242235
 20
57.489697804167797
 30
0.0
  0
SEQEND
  5
11A4
  8
0
  0
POLYLINE
  5
938
  8
0
 66
     1
 10
0.0
 20
0.0
 30
0.0
  0
VERTEX
  5
11A5
  8
0
 10
71.547422361986293
 20
57.489697804167797
 30
0.0
  0
VERTEX
  5
11A6
  8
0
 10
71.631700294942988
 20
58.166629017830019
 30
0.0
  0
VERTEX
  5
11A7
  8
0
 10
71.750752458781932
 20
59.434667420641233
 30
0.0
  0
VERTEX
  5
11A8
  8
0
 10
71.809452891820712
 20
60.642380119011307
 30
0.0
  0
VERTEX
  5
11A9
  8
0
 10
71.816859610114221
 20
61.242474553900372
 30
0.0
  0
SEQEND
  5
11AA
  8
0
  0
POLYLINE
  5
939
  8
0
 66
     1
 10
0.0
 20
0.0
 30
0.0
  0
VERTEX
  5
11AB
  8
0
 10
71.816859610114221
 20
66.871639678499207
 30
0.0
  0
VERTEX
  5
11AC
  8
0
 10
71.809452891820712
 20
67.171686895943765
 30
0.0
  0
VERTEX
  5
11AD
  8
0
 10
71.750752458781932
 20
67.775543245128802
 30
0.0
  0
VERTEX
  5
11AE
  8
0
 10
71.631700294942931
 20
68.40956244653438
 30
0.0
  0
VERTEX
  5
11AF
  8
0
 10
71.547422361986293
 20
68.748028053365488
 30
0.0
  0
SEQEND
  5
11B0
  8
0
  0
LINE
  5
93A
  8
0
 10
68.086296858242235
 20
68.748028053365488
 30
0.0
 11
71.547422361986293
 21
68.748028053365488
 31
0.0
  0
POLYLINE
  5
93B
  8
0
 66
     1
 10
0.0
 20
0.0
 30
0.0
  0
VERTEX
  5
11B1
  8
0
 10
68.086296858242235
 20
68.748028053365488
 30
0.0
  0
VERTEX
  5
11B2
  8
0
 10
68.00201892528554
 20
68.40956244653438
 30
0.0
  0
VERTEX
  5
11B3
  8
0
 10
67.882966761446596
 20
67.775543245128802
 30
0.0
  0
VERTEX
  5
11B4
  8
0
 10
67.824266328407816
 20
67.171686895943765
 30
0.0
  0
VERTEX
  5
11B5
  8
0
 10
67.81685961011425
 20
66.871639678499207
 30
0.0
  0
SEQEND
  5
11B6
  8
0
  0
POLYLINE
  5
93C
  8
0
 66
     1
 10
0.0
 20
0.0
 30
0.0
  0
VERTEX
  5
11B7
  8
0
 10
67.81685961011425
 20
66.871639678499207
 30
0.0
  0
VERTEX
  5
11B8
  8
0
 10
67.824266328407816
 20
66.571592461054635
 30
0.0
  0
VERTEX
  5
11B9
  8
0
 10
67.882966761446596
 20
65.967736111869613
 30
0.0
  0
VERTEX
  5
11BA
  8
0
 10
68.00201892528554
 20
65.333716910464034
 30
0.0
  0
VERTEX
  5
11BB
  8
0
 10
68.086296858242235
 20
64.995251303632926
 30
0.0
  0
SEQEND
  5
11BC
  8
0
  0
POLYLINE
  5
93D
  8
0
 66
     1
 10
0.0
 20
0.0
 30
0.0
  0
VERTEX
  5
11BD
  8
0
 10
71.547422361986293
 20
64.995251303632926
 30
0.0
  0
VERTEX
  5
11BE
  8
0
 10
71.631700294942988
 20
65.333716910464034
 30
0.0
  0
VERTEX
  5
11BF
  8
0
 10
71.750752458781932
 20
65.967736111869613
 30
0.0
  0
VERTEX
  5
11C0
  8
0
 10
71.809452891820712
 20
66.571592461054706
 30
0.0
  0
VERTEX
  5
11C1
  8
0
 10
71.816859610114221
 20
66.871639678499207
 30
0.0
  0
SEQEND
  5
11C2
  8
0
  0
POLYLINE
  5
93E
  8
0
 66
     1
 10
0.0
 20
0.0
 30
0.0
  0
VERTEX
  5
11C3
  8
0
 10
71.816859610114221
 20
55.613309429301523
 30
0.0
  0
VERTEX
  5
11C4
  8
0
 10
71.809452891820712
 20
55.913356646746081
 30
0.0
  0
VERTEX
  5
11C5
  8
0
 10
71.750752458781932
 20
56.517212995931118
 30
0.0
  0
VERTEX
  5
11C6
  8
0
 10
71.631700294942988
 20
57.151232197336689
 30
0.0
  0
VERTEX
  5
11C7
  8
0
 10
71.547422361986293
 20
57.489697804167797
 30
0.0
  0
SEQEND
  5
11C8
  8
0
  0
POLYLINE
  5
93F
  8
0
 66
     1
 10
0.0
 20
0.0
 30
0.0
  0
VERTEX
  5
11C9
  8
0
 10
68.086296858242235
 20
57.489697804167797
 30
0.0
  0
VERTEX
  5
11CA
  8
0
 10
68.00201892528554
 20
57.151232197336689
 30
0.0
  0
VERTEX
  5
11CB
  8
0
 10
67.882966761446596
 20
56.517212995931061
 30
0.0
  0
VERTEX
  5
11CC
  8
0
 10
67.824266328407816
 20
55.913356646746081
 30
0.0
  0
VERTEX
  5
11CD
  8
0
 10
67.81685961011425
 20
55.613309429301523
 30
0.0
  0
SEQEND
  5
11CE
  8
0
  0
POLYLINE
  5
940
  8
0
 66
     1
 10
0.0
 20
0.0
 30
0.0
  0
VERTEX
  5
11CF
  8
0
 10
67.81685961011425
 20
55.613309429301523
 30
0.0
  0
VERTEX
  5
11D0
  8
0
 10
67.824266328407816
 20
55.313262211856973
 30
0.0
  0
VERTEX
  5
11D1
  8
0
 10
67.882966761446525
 20
54.709405862671929
 30
0.0
  0
VERTEX
  5
11D2
  8
0
 10
68.00201892528554
 20
54.07538666126635
 30
0.0
  0
VERTEX
  5
11D3
  8
0
 10
68.086296858242235
 20
53.736921054435243
 30
0.0
  0
SEQEND
  5
11D4
  8
0
  0
LINE
  5
941
  8
0
 10
68.086296858242235
 20
53.736921054435243
 30
0.0
 11
71.547422361986293
 21
53.736921054435243
 31
0.0
  0
POLYLINE
  5
942
  8
0
 66
     1
 10
0.0
 20
0.0
 30
0.0
  0
VERTEX
  5
11D5
  8
0
 10
71.547422361986293
 20
53.736921054435243
 30
0.0
  0
VERTEX
  5
11D6
  8
0
 10
71.631700294942988
 20
54.07538666126635
 30
0.0
  0
VERTEX
  5
11D7
  8
0
 10
71.750752458781932
 20
54.709405862671929
 30
0.0
  0
VERTEX
  5
11D8
  8
0
 10
71.809452891820712
 20
55.313262211856973
 30
0.0
  0
VERTEX
  5
11D9
  8
0
 10
71.816859610114221
 20
55.613309429301523
 30
0.0
  0
SEQEND
  5
11DA
  8
0
  0
LINE
  5
943
  8
3
 10
61.816859610114243
 20
58.009474553900361
 30
0.0
 11
67.816859610114236
 21
58.009474553900361
 31
0.0
  0
LINE
  5
944
  8
0
 10
74.81685961011425
 20
57.242474553900358
 30
0.0
 11
74.81685961011425
 21
58.009474553900361
 31
0.0
  0
LINE
  5
945
  8
0
 10
74.81685961011425
 20
57.242474553900358
 30
0.0
 11
74.81685961011425
 21
65.242474553900365
 31
0.0
  0
LINE
  5
946
  8
3
 10
61.816859610114243
 20
64.475474553900355
 30
0.0
 11
67.816859610114236
 21
64.475474553900355
 31
0.0
  0
LINE
  5
947
  8
0
 10
74.81685961011425
 20
65.242474553900365
 30
0.0
 11
74.81685961011425
 21
64.475474553900355
 31
0.0
  0
LINE
  5
948
  8
3
 10
89.81685961011425
 20
60.048974553900401
 30
0.0
 11
82.816859610114236
 21
60.048974553900401
 31
0.0
  0
LINE
  5
94B
  8
3
 10
89.81685961011425
 20
62.435974553900337
 30
0.0
 11
82.816859610114236
 21
62.435974553900337
 31
0.0
  0
LINE
  5
94D
  8
1
 10
92.816859610114236
 20
61.242474553900372
 30
0.0
 11
54.222586377101791
 21
61.242474553900372
 31
0.0
  0
LINE
  5
954
  8
3
 10
71.816859610114207
 20
64.475474553900355
 30
0.0
 11
74.81685961011425
 21
64.475474553900355
 31
0.0
  0
LINE
  5
955
  8
3
 10
71.816859610114207
 20
58.009474553900361
 30
0.0
 11
74.81685961011425
 21
58.009474553900361
 31
0.0
  0
LINE
  5
958
  8
3
 10
71.816859610114207
 20
107.51440815047459
 30
0.0
 11
74.81685961011425
 21
107.51440815047459
 31
0.0
  0
LINE
  5
959
  8
3
 10
71.816859610114207
 20
101.0484081504746
 30
0.0
 11
74.81685961011425
 21
101.0484081504746
 31
0.0
  0
LINE
  5
95C
  8
3
 10
74.81685961011425
 20
107.51440815047459
 30
0.0
 11
76.14534257951955
 21
108.2814081504746
 31
0.0
  0
LINE
  5
95D
  8
3
 10
74.81685961011425
 20
101.0484081504746
 30
0.0
 11
76.14534257951955
 21
100.2814081504746
 31
0.0
  0
LINE
  5
9AA
  8
0
 10
71.816859610114221
 20
97.781408150474647
 30
0.0
 11
67.81685961011425
 21
97.781408150474647
 31
0.0
  0
LINE
  5
9FA
  8
3
 10
74.816859610114236
 20
14.97054095725508
 30
0.0
 11
76.145342579519536
 21
14.203540957255081
 31
0.0
  0
LINE
  5
9FB
  8
3
 10
74.816859610114236
 20
21.43654095725509
 30
0.0
 11
76.145342579519536
 21
22.20354095725509
 31
0.0
  0
LINE
  5
9FC
  8
3
 10
71.816859610114193
 20
14.97054095725508
 30
0.0
 11
74.816859610114236
 21
14.97054095725508
 31
0.0
  0
LINE
  5
9FD
  8
3
 10
71.816859610114193
 20
21.43654095725509
 30
0.0
 11
74.816859610114236
 21
21.43654095725509
 31
0.0
  0
LINE
  5
9FF
  8
0
 10
82.341650996046241
 20
12.4300382653588
 30
0.0
 11
82.816859610114221
 21
14.203540957255081
 31
0.0
  0
LINE
  5
A00
  8
0
 10
82.816859610114221
 20
22.20354095725509
 30
0.0
 11
82.341650996046241
 21
23.977043649151369
 31
0.0
  0
LINE
  5
A01
  8
0
 10
62.583859610114231
 20
14.203540957255081
 30
0.0
 11
67.816859610114236
 21
14.203540957255081
 31
0.0
  0
LINE
  5
A02
  8
0
 10
67.816859610114236
 20
22.20354095725509
 30
0.0
 11
62.583859610114231
 21
22.20354095725509
 31
0.0
  0
LINE
  5
A03
  8
0
 10
61.816859610114243
 20
14.97054095725508
 30
0.0
 11
62.583859610114231
 21
14.203540957255081
 31
0.0
  0
LINE
  5
A04
  8
0
 10
62.583859610114231
 20
22.20354095725509
 30
0.0
 11
61.816859610114243
 21
21.43654095725509
 31
0.0
  0
LINE
  5
A05
  8
0
 10
89.510359610114264
 20
16.703540957255079
 30
0.0
 11
89.816859610114221
 21
17.010040957255111
 31
0.0
  0
LINE
  5
A06
  8
0
 10
89.816859610114221
 20
19.397040957255061
 30
0.0
 11
89.510359610114264
 21
19.703540957255079
 31
0.0
  0
LINE
  5
A07
  8
0
 10
83.416859610114017
 20
16.703540957255079
 30
0.0
 11
89.510359610114264
 21
16.703540957255079
 31
0.0
  0
LINE
  5
A08
  8
0
 10
89.510359610114264
 20
19.703540957255079
 30
0.0
 11
83.416859610114017
 21
19.703540957255079
 31
0.0
  0
LINE
  5
A0D
  8
0
 10
71.816859610114207
 20
14.203540957255081
 30
0.0
 11
76.816859610114221
 21
14.203540957255081
 31
0.0
  0
LINE
  5
A0E
  8
0
 10
76.816859610114221
 20
22.20354095725509
 30
0.0
 11
71.816859610114207
 21
22.20354095725509
 31
0.0
  0
LINE
  5
A0F
  8
0
 10
82.816859610114221
 20
22.20354095725509
 30
0.0
 11
82.816859610114221
 21
14.203540957255081
 31
0.0
  0
LINE
  5
A10
  8
0
 10
61.816859610114243
 20
21.43654095725509
 30
0.0
 11
61.816859610114243
 21
14.97054095725508
 31
0.0
  0
LINE
  5
A11
  8
0
 10
62.583859610114231
 20
22.20354095725509
 30
0.0
 11
62.583859610114231
 21
14.203540957255081
 31
0.0
  0
POLYLINE
  5
A12
  8
0
 66
     1
 10
0.0
 20
0.0
 30
0.0
  0
VERTEX
  5
11DB
  8
0
 10
82.341650996046241
 20
15.316789611306939
 30
0.0
  0
VERTEX
  5
11DC
  8
0
 10
82.365572058568915
 20
15.225306016617139
 30
0.0
  0
VERTEX
  5
11DD
  8
0
 10
82.40830348121969
 20
15.04845513032234
 30
0.0
  0
VERTEX
  5
11DE
  8
0
 10
82.444660540918065
 20
14.87865403316596
 30
0.0
  0
VERTEX
  5
11DF
  8
0
 10
82.460590438172261
 20
14.79601790627356
 30
0.0
  0
VERTEX
  5
11E0
  8
0
 10
82.475085764626485
 20
14.714705114750871
 30
0.0
  0
VERTEX
  5
11E1
  8
0
 10
82.499936662153928
 20
14.55553035829297
 30
0.0
  0
VERTEX
  5
11E2
  8
0
 10
82.519496704601607
 20
14.400145590048171
 30
0.0
  0
VERTEX
  5
11E3
  8
0
 10
82.533983677218899
 20
14.247638752885051
 30
0.0
  0
VERTEX
  5
11E4
  8
0
 10
82.543555881486697
 20
14.09715114337518
 30
0.0
  0
VERTEX
  5
11E5
  8
0
 10
82.548316524151318
 20
13.947860766606309
 30
0.0
  0
VERTEX
  5
11E6
  8
0
 10
82.548910417683118
 20
13.87341393833287
 30
0.0
  0
VERTEX
  5
11E7
  8
0
 10
82.548316524151318
 20
13.79896711005949
 30
0.0
  0
VERTEX
  5
11E8
  8
0
 10
82.543555881486697
 20
13.64967673329056
 30
0.0
  0
VERTEX
  5
11E9
  8
0
 10
82.533983677218899
 20
13.49918912378075
 30
0.0
  0
VERTEX
  5
11EA
  8
0
 10
82.519496704601607
 20
13.34668228661763
 30
0.0
  0
VERTEX
  5
11EB
  8
0
 10
82.499936662153928
 20
13.19129751837278
 30
0.0
  0
VERTEX
  5
11EC
  8
0
 10
82.475085764626485
 20
13.03212276191493
 30
0.0
  0
VERTEX
  5
11ED
  8
0
 10
82.460590438172261
 20
12.95080997039218
 30
0.0
  0
VERTEX
  5
11EE
  8
0
 10
82.444660540918065
 20
12.86817384349979
 30
0.0
  0
VERTEX
  5
11EF
  8
0
 10
82.40830348121969
 20
12.698372746343461
 30
0.0
  0
VERTEX
  5
11F0
  8
0
 10
82.365572058568915
 20
12.52152186004866
 30
0.0
  0
VERTEX
  5
11F1
  8
0
 10
82.341650996046241
 20
12.4300382653588
 30
0.0
  0
SEQEND
  5
11F2
  8
0
  0
LINE
  5
A13
  8
0
 10
82.341650996046241
 20
12.4300382653588
 30
0.0
 11
76.816859610114221
 21
12.4300382653588
 31
0.0
  0
POLYLINE
  5
A14
  8
0
 66
     1
 10
0.0
 20
0.0
 30
0.0
  0
VERTEX
  5
11F3
  8
0
 10
82.341650996046241
 20
12.4300382653588
 30
0.0
  0
VERTEX
  5
11F4
  8
0
 10
82.365572058568915
 20
12.52152186004866
 30
0.0
  0
VERTEX
  5
11F5
  8
0
 10
82.40830348121969
 20
12.698372746343461
 30
0.0
  0
VERTEX
  5
11F6
  8
0
 10
82.444660540918065
 20
12.86817384349979
 30
0.0
  0
VERTEX
  5
11F7
  8
0
 10
82.460590438172261
 20
12.95080997039218
 30
0.0
  0
VERTEX
  5
11F8
  8
0
 10
82.475085764626485
 20
13.03212276191493
 30
0.0
  0
VERTEX
  5
11F9
  8
0
 10
82.499936662153928
 20
13.19129751837278
 30
0.0
  0
VERTEX
  5
11FA
  8
0
 10
82.519496704601607
 20
13.34668228661763
 30
0.0
  0
VERTEX
  5
11FB
  8
0
 10
82.533983677218899
 20
13.49918912378075
 30
0.0
  0
VERTEX
  5
11FC
  8
0
 10
82.543555881486697
 20
13.64967673329056
 30
0.0
  0
VERTEX
  5
11FD
  8
0
 10
82.548316524151318
 20
13.79896711005949
 30
0.0
  0
VERTEX
  5
11FE
  8
0
 10
82.548910417683118
 20
13.87341393833287
 30
0.0
  0
VERTEX
  5
11FF
  8
0
 10
82.548316524151318
 20
13.947860766606309
 30
0.0
  0
VERTEX
  5
1200
  8
0
 10
82.543555881486697
 20
14.09715114337518
 30
0.0
  0
VERTEX
  5
1201
  8
0
 10
82.533983677218899
 20
14.247638752885051
 30
0.0
  0
VERTEX
  5
1202
  8
0
 10
82.519496704601607
 20
14.400145590048171
 30
0.0
  0
VERTEX
  5
1203
  8
0
 10
82.499936662153928
 20
14.55553035829297
 30
0.0
  0
VERTEX
  5
1204
  8
0
 10
82.475085764626485
 20
14.714705114750871
 30
0.0
  0
VERTEX
  5
1205
  8
0
 10
82.460590438172261
 20
14.79601790627356
 30
0.0
  0
VERTEX
  5
1206
  8
0
 10
82.444660540918065
 20
14.87865403316596
 30
0.0
  0
VERTEX
  5
1207
  8
0
 10
82.40830348121969
 20
15.04845513032234
 30
0.0
  0
VERTEX
  5
1208
  8
0
 10
82.365572058568915
 20
15.225306016617139
 30
0.0
  0
VERTEX
  5
1209
  8
0
 10
82.341650996046241
 20
15.316789611306939
 30
0.0
  0
SEQEND
  5
120A
  8
0
  0
POLYLINE
  5
A15
  8
0
 66
     1
 10
0.0
 20
0.0
 30
0.0
  0
VERTEX
  5
120B
  8
0
 10
82.341650996046241
 20
15.316789611306939
 30
0.0
  0
VERTEX
  5
120C
  8
0
 10
82.365572058568915
 20
15.49975680068661
 30
0.0
  0
VERTEX
  5
120D
  8
0
 10
82.40830348121969
 20
15.85345857327621
 30
0.0
  0
VERTEX
  5
120E
  8
0
 10
82.444660540918065
 20
16.193060767588921
 30
0.0
  0
VERTEX
  5
120F
  8
0
 10
82.460590438172261
 20
16.35833302137371
 30
0.0
  0
VERTEX
  5
1210
  8
0
 10
82.475085764626485
 20
16.52095860441915
 30
0.0
  0
VERTEX
  5
1211
  8
0
 10
82.499936662153928
 20
16.839308117334891
 30
0.0
  0
VERTEX
  5
1212
  8
0
 10
82.519496704601607
 20
17.15007765382455
 30
0.0
  0
VERTEX
  5
1213
  8
0
 10
82.533983677218899
 20
17.455091328150779
 30
0.0
  0
VERTEX
  5
1214
  8
0
 10
82.543555881486697
 20
17.756066547170459
 30
0.0
  0
VERTEX
  5
1215
  8
0
 10
82.548316524151318
 20
18.054647300708272
 30
0.0
  0
VERTEX
  5
1216
  8
0
 10
82.548910417683118
 20
18.203540957255079
 30
0.0
  0
VERTEX
  5
1217
  8
0
 10
82.548316524151318
 20
18.352434613801901
 30
0.0
  0
VERTEX
  5
1218
  8
0
 10
82.543555881486697
 20
18.65101536733971
 30
0.0
  0
VERTEX
  5
1219
  8
0
 10
82.533983677218899
 20
18.951990586359379
 30
0.0
  0
VERTEX
  5
121A
  8
0
 10
82.519496704601607
 20
19.257004260685619
 30
0.0
  0
VERTEX
  5
121B
  8
0
 10
82.499936662153928
 20
19.567773797175281
 30
0.0
  0
VERTEX
  5
121C
  8
0
 10
82.475085764626485
 20
19.886123310091019
 30
0.0
  0
VERTEX
  5
121D
  8
0
 10
82.460590438172261
 20
20.048748893136459
 30
0.0
  0
VERTEX
  5
121E
  8
0
 10
82.444660540918065
 20
20.214021146921262
 30
0.0
  0
VERTEX
  5
121F
  8
0
 10
82.40830348121969
 20
20.553623341233958
 30
0.0
  0
VERTEX
  5
1220
  8
0
 10
82.365572058568915
 20
20.907325113823561
 30
0.0
  0
VERTEX
  5
1221
  8
0
 10
82.341650996046241
 20
21.090292303203231
 30
0.0
  0
SEQEND
  5
1222
  8
0
  0
POLYLINE
  5
A16
  8
0
 66
     1
 10
0.0
 20
0.0
 30
0.0
  0
VERTEX
  5
1223
  8
0
 10
82.341650996046241
 20
21.090292303203231
 30
0.0
  0
VERTEX
  5
1224
  8
0
 10
82.365572058568915
 20
21.181775897893029
 30
0.0
  0
VERTEX
  5
1225
  8
0
 10
82.40830348121969
 20
21.35862678418783
 30
0.0
  0
VERTEX
  5
1226
  8
0
 10
82.444660540918065
 20
21.528427881344211
 30
0.0
  0
VERTEX
  5
1227
  8
0
 10
82.460590438172261
 20
21.61106400823661
 30
0.0
  0
VERTEX
  5
1228
  8
0
 10
82.475085764626485
 20
21.692376799759302
 30
0.0
  0
VERTEX
  5
1229
  8
0
 10
82.499936662153928
 20
21.851551556217199
 30
0.0
  0
VERTEX
  5
122A
  8
0
 10
82.519496704601607
 20
22.006936324462
 30
0.0
  0
VERTEX
  5
122B
  8
0
 10
82.533983677218899
 20
22.15944316162512
 30
0.0
  0
VERTEX
  5
122C
  8
0
 10
82.543555881486697
 20
22.30993077113499
 30
0.0
  0
VERTEX
  5
122D
  8
0
 10
82.548316524151318
 20
22.459221147903861
 30
0.0
  0
VERTEX
  5
122E
  8
0
 10
82.548910417683118
 20
22.533667976177298
 30
0.0
  0
VERTEX
  5
122F
  8
0
 10
82.548316524151318
 20
22.608114804450679
 30
0.0
  0
VERTEX
  5
1230
  8
0
 10
82.543555881486697
 20
22.75740518121961
 30
0.0
  0
VERTEX
  5
1231
  8
0
 10
82.533983677218899
 20
22.90789279072942
 30
0.0
  0
VERTEX
  5
1232
  8
0
 10
82.519496704601607
 20
23.06039962789254
 30
0.0
  0
VERTEX
  5
1233
  8
0
 10
82.499936662153928
 20
23.215784396137391
 30
0.0
  0
VERTEX
  5
1234
  8
0
 10
82.475085764626485
 20
23.374959152595238
 30
0.0
  0
VERTEX
  5
1235
  8
0
 10
82.460590438172261
 20
23.45627194411799
 30
0.0
  0
VERTEX
  5
1236
  8
0
 10
82.444660540918065
 20
23.538908071010379
 30
0.0
  0
VERTEX
  5
1237
  8
0
 10
82.40830348121969
 20
23.70870916816671
 30
0.0
  0
VERTEX
  5
1238
  8
0
 10
82.365572058568915
 20
23.885560054461511
 30
0.0
  0
VERTEX
  5
1239
  8
0
 10
82.341650996046241
 20
23.977043649151369
 30
0.0
  0
SEQEND
  5
123A
  8
0
  0
LINE
  5
A17
  8
0
 10
82.341650996046241
 20
23.977043649151369
 30
0.0
 11
76.816859610114221
 21
23.977043649151369
 31
0.0
  0
POLYLINE
  5
A18
  8
0
 66
     1
 10
0.0
 20
0.0
 30
0.0
  0
VERTEX
  5
123B
  8
0
 10
82.341650996046241
 20
23.977043649151369
 30
0.0
  0
VERTEX
  5
123C
  8
0
 10
82.365572058568915
 20
23.885560054461511
 30
0.0
  0
VERTEX
  5
123D
  8
0
 10
82.40830348121969
 20
23.70870916816671
 30
0.0
  0
VERTEX
  5
123E
  8
0
 10
82.444660540918065
 20
23.538908071010379
 30
0.0
  0
VERTEX
  5
123F
  8
0
 10
82.460590438172261
 20
23.45627194411799
 30
0.0
  0
VERTEX
  5
1240
  8
0
 10
82.475085764626485
 20
23.374959152595238
 30
0.0
  0
VERTEX
  5
1241
  8
0
 10
82.499936662153928
 20
23.215784396137391
 30
0.0
  0
VERTEX
  5
1242
  8
0
 10
82.519496704601607
 20
23.06039962789254
 30
0.0
  0
VERTEX
  5
1243
  8
0
 10
82.533983677218899
 20
22.90789279072942
 30
0.0
  0
VERTEX
  5
1244
  8
0
 10
82.543555881486697
 20
22.75740518121961
 30
0.0
  0
VERTEX
  5
1245
  8
0
 10
82.548316524151318
 20
22.608114804450679
 30
0.0
  0
VERTEX
  5
1246
  8
0
 10
82.548910417683118
 20
22.533667976177298
 30
0.0
  0
VERTEX
  5
1247
  8
0
 10
82.548316524151318
 20
22.459221147903861
 30
0.0
  0
VERTEX
  5
1248
  8
0
 10
82.543555881486697
 20
22.30993077113499
 30
0.0
  0
VERTEX
  5
1249
  8
0
 10
82.533983677218899
 20
22.15944316162512
 30
0.0
  0
VERTEX
  5
124A
  8
0
 10
82.519496704601607
 20
22.006936324462
 30
0.0
  0
VERTEX
  5
124B
  8
0
 10
82.499936662153928
 20
21.851551556217199
 30
0.0
  0
VERTEX
  5
124C
  8
0
 10
82.475085764626485
 20
21.692376799759302
 30
0.0
  0
VERTEX
  5
124D
  8
0
 10
82.460590438172261
 20
21.61106400823661
 30
0.0
  0
VERTEX
  5
124E
  8
0
 10
82.444660540918065
 20
21.528427881344211
 30
0.0
  0
VERTEX
  5
124F
  8
0
 10
82.40830348121969
 20
21.35862678418783
 30
0.0
  0
VERTEX
  5
1250
  8
0
 10
82.365572058568915
 20
21.181775897893029
 30
0.0
  0
VERTEX
  5
1251
  8
0
 10
82.341650996046241
 20
21.090292303203231
 30
0.0
  0
SEQEND
  5
1252
  8
0
  0
LINE
  5
A19
  8
0
 10
76.816859610114221
 20
12.4300382653588
 30
0.0
 11
76.816859610114221
 21
23.977043649151369
 31
0.0
  0
LINE
  5
A1A
  8
0
 10
82.341650996046241
 20
21.090292303203231
 30
0.0
 11
76.816859610114221
 21
21.090292303203231
 31
0.0
  0
POLYLINE
  5
A1B
  8
0
 66
     1
 10
0.0
 20
0.0
 30
0.0
  0
VERTEX
  5
1253
  8
0
 10
82.341650996046241
 20
21.090292303203231
 30
0.0
  0
VERTEX
  5
1254
  8
0
 10
82.365572058568915
 20
20.907325113823561
 30
0.0
  0
VERTEX
  5
1255
  8
0
 10
82.40830348121969
 20
20.553623341233958
 30
0.0
  0
VERTEX
  5
1256
  8
0
 10
82.444660540918065
 20
20.214021146921262
 30
0.0
  0
VERTEX
  5
1257
  8
0
 10
82.460590438172261
 20
20.048748893136459
 30
0.0
  0
VERTEX
  5
1258
  8
0
 10
82.475085764626485
 20
19.886123310091019
 30
0.0
  0
VERTEX
  5
1259
  8
0
 10
82.499936662153928
 20
19.567773797175281
 30
0.0
  0
VERTEX
  5
125A
  8
0
 10
82.519496704601607
 20
19.257004260685619
 30
0.0
  0
VERTEX
  5
125B
  8
0
 10
82.533983677218899
 20
18.951990586359379
 30
0.0
  0
VERTEX
  5
125C
  8
0
 10
82.543555881486697
 20
18.65101536733971
 30
0.0
  0
VERTEX
  5
125D
  8
0
 10
82.548316524151318
 20
18.352434613801901
 30
0.0
  0
VERTEX
  5
125E
  8
0
 10
82.548910417683118
 20
18.203540957255079
 30
0.0
  0
VERTEX
  5
125F
  8
0
 10
82.548316524151318
 20
18.054647300708272
 30
0.0
  0
VERTEX
  5
1260
  8
0
 10
82.543555881486697
 20
17.756066547170459
 30
0.0
  0
VERTEX
  5
1261
  8
0
 10
82.533983677218899
 20
17.455091328150779
 30
0.0
  0
VERTEX
  5
1262
  8
0
 10
82.519496704601607
 20
17.15007765382455
 30
0.0
  0
VERTEX
  5
1263
  8
0
 10
82.499936662153928
 20
16.839308117334891
 30
0.0
  0
VERTEX
  5
1264
  8
0
 10
82.475085764626485
 20
16.52095860441915
 30
0.0
  0
VERTEX
  5
1265
  8
0
 10
82.460590438172261
 20
16.35833302137371
 30
0.0
  0
VERTEX
  5
1266
  8
0
 10
82.444660540918065
 20
16.193060767588921
 30
0.0
  0
VERTEX
  5
1267
  8
0
 10
82.40830348121969
 20
15.85345857327621
 30
0.0
  0
VERTEX
  5
1268
  8
0
 10
82.365572058568915
 20
15.49975680068661
 30
0.0
  0
VERTEX
  5
1269
  8
0
 10
82.341650996046241
 20
15.316789611306939
 30
0.0
  0
SEQEND
  5
126A
  8
0
  0
LINE
  5
A1C
  8
0
 10
82.341650996046241
 20
15.316789611306939
 30
0.0
 11
76.816859610114221
 21
15.316789611306939
 31
0.0
  0
LINE
  5
A1D
  8
0
 10
89.816859610114221
 20
19.397040957255061
 30
0.0
 11
89.816859610114221
 21
17.010040957255111
 31
0.0
  0
LINE
  5
A1E
  8
0
 10
89.510359610114264
 20
19.703540957255079
 30
0.0
 11
89.510359610114264
 21
16.703540957255079
 31
0.0
  0
LINE
  5
A21
  8
0
 10
67.816859610114236
 20
24.70354095725509
 30
0.0
 11
67.816859610114236
 21
11.703540957255081
 31
0.0
  0
LINE
  5
A22
  8
0
 10
71.816859610114207
 20
24.70354095725509
 30
0.0
 11
71.816859610114207
 21
11.703540957255081
 31
0.0
  0
POLYLINE
  5
A23
  8
0
 66
     1
 10
0.0
 20
0.0
 30
0.0
  0
VERTEX
  5
126B
  8
0
 10
68.086296858242221
 20
18.203540957255079
 30
0.0
  0
VERTEX
  5
126C
  8
0
 10
68.002018925285526
 20
17.617301329608949
 30
0.0
  0
VERTEX
  5
126D
  8
0
 10
67.882966761446582
 20
16.519147859800231
 30
0.0
  0
VERTEX
  5
126E
  8
0
 10
67.824266328407802
 20
15.4732379825387
 30
0.0
  0
VERTEX
  5
126F
  8
0
 10
67.816859610114236
 20
14.953540957255081
 30
0.0
  0
SEQEND
  5
1270
  8
0
  0
POLYLINE
  5
A24
  8
0
 66
     1
 10
0.0
 20
0.0
 30
0.0
  0
VERTEX
  5
1271
  8
0
 10
67.816859610114236
 20
14.953540957255081
 30
0.0
  0
VERTEX
  5
1272
  8
0
 10
67.824266328407802
 20
14.43384393197147
 30
0.0
  0
VERTEX
  5
1273
  8
0
 10
67.882966761446582
 20
13.387934054709939
 30
0.0
  0
VERTEX
  5
1274
  8
0
 10
68.002018925285526
 20
12.289780584901219
 30
0.0
  0
VERTEX
  5
1275
  8
0
 10
68.086296858242221
 20
11.703540957255081
 30
0.0
  0
SEQEND
  5
1276
  8
0
  0
POLYLINE
  5
A25
  8
0
 66
     1
 10
0.0
 20
0.0
 30
0.0
  0
VERTEX
  5
1277
  8
0
 10
71.547422361986278
 20
11.703540957255081
 30
0.0
  0
VERTEX
  5
1278
  8
0
 10
71.631700294942974
 20
12.289780584901219
 30
0.0
  0
VERTEX
  5
1279
  8
0
 10
71.750752458781918
 20
13.387934054709939
 30
0.0
  0
VERTEX
  5
127A
  8
0
 10
71.809452891820683
 20
14.43384393197147
 30
0.0
  0
VERTEX
  5
127B
  8
0
 10
71.816859610114207
 20
14.953540957255081
 30
0.0
  0
SEQEND
  5
127C
  8
0
  0
POLYLINE
  5
A26
  8
0
 66
     1
 10
0.0
 20
0.0
 30
0.0
  0
VERTEX
  5
127D
  8
0
 10
71.816859610114207
 20
14.953540957255081
 30
0.0
  0
VERTEX
  5
127E
  8
0
 10
71.809452891820683
 20
15.4732379825387
 30
0.0
  0
VERTEX
  5
127F
  8
0
 10
71.750752458781918
 20
16.519147859800231
 30
0.0
  0
VERTEX
  5
1280
  8
0
 10
71.631700294942917
 20
17.617301329608999
 30
0.0
  0
VERTEX
  5
1281
  8
0
 10
71.547422361986278
 20
18.203540957255079
 30
0.0
  0
SEQEND
  5
1282
  8
0
  0
LINE
  5
A28
  8
0
 10
67.816859610114236
 20
11.703540957255081
 30
0.0
 11
71.816859610114221
 21
11.703540957255081
 31
0.0
  0
POLYLINE
  5
A29
  8
0
 66
     1
 10
0.0
 20
0.0
 30
0.0
  0
VERTEX
  5
1283
  8
0
 10
68.086296858242221
 20
11.703540957255081
 30
0.0
  0
VERTEX
  5
1284
  8
0
 10
68.002018925285526
 20
12.289780584901219
 30
0.0
  0
VERTEX
  5
1285
  8
0
 10
67.882966761446582
 20
13.387934054709939
 30
0.0
  0
VERTEX
  5
1286
  8
0
 10
67.824266328407802
 20
14.43384393197147
 30
0.0
  0
VERTEX
  5
1287
  8
0
 10
67.816859610114236
 20
14.953540957255081
 30
0.0
  0
SEQEND
  5
1288
  8
0
  0
POLYLINE
  5
A2A
  8
0
 66
     1
 10
0.0
 20
0.0
 30
0.0
  0
VERTEX
  5
1289
  8
0
 10
67.816859610114236
 20
14.953540957255081
 30
0.0
  0
VERTEX
  5
128A
  8
0
 10
67.824266328407802
 20
15.4732379825387
 30
0.0
  0
VERTEX
  5
128B
  8
0
 10
67.882966761446525
 20
16.519147859800231
 30
0.0
  0
VERTEX
  5
128C
  8
0
 10
68.002018925285526
 20
17.617301329608949
 30
0.0
  0
VERTEX
  5
128D
  8
0
 10
68.086296858242221
 20
18.203540957255079
 30
0.0
  0
SEQEND
  5
128E
  8
0
  0
POLYLINE
  5
A2B
  8
0
 66
     1
 10
0.0
 20
0.0
 30
0.0
  0
VERTEX
  5
128F
  8
0
 10
71.547422361986278
 20
18.203540957255079
 30
0.0
  0
VERTEX
  5
1290
  8
0
 10
71.631700294942974
 20
17.617301329608999
 30
0.0
  0
VERTEX
  5
1291
  8
0
 10
71.750752458781918
 20
16.519147859800231
 30
0.0
  0
VERTEX
  5
1292
  8
0
 10
71.809452891820683
 20
15.4732379825387
 30
0.0
  0
VERTEX
  5
1293
  8
0
 10
71.816859610114207
 20
14.953540957255081
 30
0.0
  0
SEQEND
  5
1294
  8
0
  0
POLYLINE
  5
A2C
  8
0
 66
     1
 10
0.0
 20
0.0
 30
0.0
  0
VERTEX
  5
1295
  8
0
 10
71.816859610114207
 20
14.953540957255081
 30
0.0
  0
VERTEX
  5
1296
  8
0
 10
71.809452891820683
 20
14.43384393197147
 30
0.0
  0
VERTEX
  5
1297
  8
0
 10
71.750752458781918
 20
13.387934054709939
 30
0.0
  0
VERTEX
  5
1298
  8
0
 10
71.631700294942974
 20
12.289780584901219
 30
0.0
  0
VERTEX
  5
1299
  8
0
 10
71.547422361986278
 20
11.703540957255081
 30
0.0
  0
SEQEND
  5
129A
  8
0
  0
POLYLINE
  5
A2F
  8
0
 66
     1
 10
0.0
 20
0.0
 30
0.0
  0
VERTEX
  5
129B
  8
0
 10
71.816859610114207
 20
21.45354095725509
 30
0.0
  0
VERTEX
  5
129C
  8
0
 10
71.809452891820683
 20
20.93384393197147
 30
0.0
  0
VERTEX
  5
129D
  8
0
 10
71.750752458781918
 20
19.887934054709941
 30
0.0
  0
VERTEX
  5
129E
  8
0
 10
71.631700294942917
 20
18.789780584901159
 30
0.0
  0
VERTEX
  5
129F
  8
0
 10
71.547422361986278
 20
18.203540957255079
 30
0.0
  0
SEQEND
  5
12A0
  8
0
  0
LINE
  5
A30
  8
0
 10
68.086296858242221
 20
18.203540957255079
 30
0.0
 11
71.547422361986278
 21
18.203540957255079
 31
0.0
  0
POLYLINE
  5
A31
  8
0
 66
     1
 10
0.0
 20
0.0
 30
0.0
  0
VERTEX
  5
12A1
  8
0
 10
68.086296858242221
 20
18.203540957255079
 30
0.0
  0
VERTEX
  5
12A2
  8
0
 10
68.002018925285526
 20
18.789780584901219
 30
0.0
  0
VERTEX
  5
12A3
  8
0
 10
67.882966761446582
 20
19.887934054709941
 30
0.0
  0
VERTEX
  5
12A4
  8
0
 10
67.824266328407802
 20
20.93384393197147
 30
0.0
  0
VERTEX
  5
12A5
  8
0
 10
67.816859610114236
 20
21.45354095725509
 30
0.0
  0
SEQEND
  5
12A6
  8
0
  0
POLYLINE
  5
A32
  8
0
 66
     1
 10
0.0
 20
0.0
 30
0.0
  0
VERTEX
  5
12A7
  8
0
 10
67.816859610114236
 20
21.45354095725509
 30
0.0
  0
VERTEX
  5
12A8
  8
0
 10
67.824266328407802
 20
21.973237982538699
 30
0.0
  0
VERTEX
  5
12A9
  8
0
 10
67.882966761446582
 20
23.019147859800231
 30
0.0
  0
VERTEX
  5
12AA
  8
0
 10
68.002018925285526
 20
24.117301329608949
 30
0.0
  0
VERTEX
  5
12AB
  8
0
 10
68.086296858242221
 20
24.70354095725509
 30
0.0
  0
SEQEND
  5
12AC
  8
0
  0
LINE
  5
A33
  8
0
 10
67.816859610114236
 20
24.70354095725509
 30
0.0
 11
71.816859610114221
 21
24.70354095725509
 31
0.0
  0
POLYLINE
  5
A34
  8
0
 66
     1
 10
0.0
 20
0.0
 30
0.0
  0
VERTEX
  5
12AD
  8
0
 10
71.547422361986278
 20
24.70354095725509
 30
0.0
  0
VERTEX
  5
12AE
  8
0
 10
71.631700294942974
 20
24.117301329608949
 30
0.0
  0
VERTEX
  5
12AF
  8
0
 10
71.750752458781918
 20
23.019147859800231
 30
0.0
  0
VERTEX
  5
12B0
  8
0
 10
71.809452891820683
 20
21.973237982538699
 30
0.0
  0
VERTEX
  5
12B1
  8
0
 10
71.816859610114207
 20
21.45354095725509
 30
0.0
  0
SEQEND
  5
12B2
  8
0
  0
POLYLINE
  5
A35
  8
0
 66
     1
 10
0.0
 20
0.0
 30
0.0
  0
VERTEX
  5
12B3
  8
0
 10
71.816859610114207
 20
21.45354095725509
 30
0.0
  0
VERTEX
  5
12B4
  8
0
 10
71.809452891820683
 20
21.973237982538699
 30
0.0
  0
VERTEX
  5
12B5
  8
0
 10
71.750752458781918
 20
23.019147859800231
 30
0.0
  0
VERTEX
  5
12B6
  8
0
 10
71.631700294942974
 20
24.117301329608949
 30
0.0
  0
VERTEX
  5
12B7
  8
0
 10
71.547422361986278
 20
24.70354095725509
 30
0.0
  0
SEQEND
  5
12B8
  8
0
  0
POLYLINE
  5
A36
  8
0
 66
     1
 10
0.0
 20
0.0
 30
0.0
  0
VERTEX
  5
12B9
  8
0
 10
68.086296858242221
 20
24.70354095725509
 30
0.0
  0
VERTEX
  5
12BA
  8
0
 10
68.002018925285526
 20
24.117301329608949
 30
0.0
  0
VERTEX
  5
12BB
  8
0
 10
67.882966761446582
 20
23.019147859800231
 30
0.0
  0
VERTEX
  5
12BC
  8
0
 10
67.824266328407802
 20
21.973237982538699
 30
0.0
  0
VERTEX
  5
12BD
  8
0
 10
67.816859610114236
 20
21.45354095725509
 30
0.0
  0
SEQEND
  5
12BE
  8
0
  0
POLYLINE
  5
A37
  8
0
 66
     1
 10
0.0
 20
0.0
 30
0.0
  0
VERTEX
  5
12BF
  8
0
 10
67.816859610114236
 20
21.45354095725509
 30
0.0
  0
VERTEX
  5
12C0
  8
0
 10
67.824266328407802
 20
20.93384393197147
 30
0.0
  0
VERTEX
  5
12C1
  8
0
 10
67.882966761446525
 20
19.887934054709941
 30
0.0
  0
VERTEX
  5
12C2
  8
0
 10
68.002018925285526
 20
18.789780584901219
 30
0.0
  0
VERTEX
  5
12C3
  8
0
 10
68.086296858242221
 20
18.203540957255079
 30
0.0
  0
SEQEND
  5
12C4
  8
0
  0
POLYLINE
  5
A38
  8
0
 66
     1
 10
0.0
 20
0.0
 30
0.0
  0
VERTEX
  5
12C5
  8
0
 10
71.547422361986278
 20
18.203540957255079
 30
0.0
  0
VERTEX
  5
12C6
  8
0
 10
71.631700294942974
 20
18.789780584901159
 30
0.0
  0
VERTEX
  5
12C7
  8
0
 10
71.750752458781918
 20
19.887934054709941
 30
0.0
  0
VERTEX
  5
12C8
  8
0
 10
71.809452891820683
 20
20.93384393197147
 30
0.0
  0
VERTEX
  5
12C9
  8
0
 10
71.816859610114207
 20
21.45354095725509
 30
0.0
  0
SEQEND
  5
12CA
  8
0
  0
LINE
  5
A39
  8
3
 10
61.816859610114243
 20
14.97054095725508
 30
0.0
 11
67.816859610114221
 21
14.97054095725508
 31
0.0
  0
LINE
  5
A3A
  8
0
 10
74.816859610114236
 20
14.203540957255081
 30
0.0
 11
74.816859610114236
 21
14.97054095725508
 31
0.0
  0
LINE
  5
A3B
  8
0
 10
74.816859610114236
 20
14.203540957255081
 30
0.0
 11
74.816859610114236
 21
22.20354095725509
 31
0.0
  0
LINE
  5
A3C
  8
3
 10
61.816859610114243
 20
21.43654095725509
 30
0.0
 11
67.816859610114221
 21
21.43654095725509
 31
0.0
  0
LINE
  5
A3D
  8
0
 10
74.816859610114236
 20
22.20354095725509
 30
0.0
 11
74.816859610114236
 21
21.43654095725509
 31
0.0
  0
LINE
  5
A3E
  8
3
 10
89.816859610114221
 20
17.010040957255111
 30
0.0
 11
83.416859610114031
 21
17.010040957255111
 31
0.0
  0
LINE
  5
A3F
  8
3
 10
89.816859610114221
 20
19.397040957255061
 30
0.0
 11
83.416859610114031
 21
19.397040957255061
 31
0.0
  0
LINE
  5
A40
  8
1
 10
92.816859610114221
 20
18.203540957255079
 30
0.0
 11
54.222586377101777
 21
18.203540957255079
 31
0.0
  0
LINE
  5
A4C
  8
3
 10
74.806779614420989
 20
64.472773627194641
 30
0.0
 11
76.139940726108136
 21
65.242474553900365
 31
0.0
  0
LINE
  5
A4D
  8
3
 10
74.834103267353868
 20
58.00485412986842
 30
0.0
 11
76.154583427583361
 21
57.242474553900379
 31
0.0
  0
CIRCLE
  5
A55
  8
3
 10
9.3979342153132563
 20
61.24247455390033
 30
0.0
 40
3.2330000000000321
  0
CIRCLE
  5
A5E
  8
3
 10
139.4261120072137
 20
61.242474553900401
 30
0.0
 40
1.193499999999929
  0
POLYLINE
  5
B54
  8
0
 66
     1
 10
0.0
 20
0.0
 30
0.0
  0
VERTEX
  5
B55
  8
0
 10
58.016859610114238
 20
19.741660741903392
 30
0.0
 42
0.3276813223934047
  0
VERTEX
  5
B56
  8
0
 10
57.966496572901917
 20
19.704684346350401
 30
0.0
 42
0.0437459544518764
  0
VERTEX
  5
B57
  8
0
 10
57.875438253876929
 20
19.291155887257091
 30
0.0
 42
0.0188761590834481
 70
     2
 50
262.59146041517357
  0
VERTEX
  5
B58
  8
0
 10
57.833974654563832
 20
18.839542971547871
 30
0.0
 42
0.0134527459397667
 50
262.59146041517357
  0
VERTEX
  5
B59
  8
0
 10
57.816859610114228
 20
18.203540957255051
 30
0.0
 42
0.0134527459397577
  0
VERTEX
  5
B5A
  8
0
 10
57.833974654563811
 20
17.567538942962301
 30
0.0
 42
0.018876159083438
  0
VERTEX
  5
B5B
  8
0
 10
57.875438253876929
 20
17.115926027253021
 30
0.0
 42
0.0437459544518766
 70
     2
 50
277.40853958482643
  0
VERTEX
  5
B5C
  8
0
 10
57.966496572901917
 20
16.702397568159711
 30
0.0
 42
0.3276813223932475
 50
277.40853958482643
  0
VERTEX
  5
B5D
  8
0
 10
58.016859610114238
 20
16.665421172606742
 30
0.0
 42
0.3276813223932475
  0
SEQEND
  5
B5E
  8
0
  0
LINE
  5
B5F
  8
0
 10
58.016859610114253
 20
19.741660741903392
 30
0.0
 11
58.016859610114253
 21
16.665421172606731
 31
0.0
  0
LINE
  5
B60
  8
0
 10
58.816859610114243
 20
20.20354095725509
 30
0.0
 11
58.016859610114238
 21
19.741660741903392
 31
0.0
  0
LINE
  5
B61
  8
0
 10
58.816859610114221
 20
16.203540957255061
 30
0.0
 11
58.016859610114238
 21
16.665421172606731
 31
0.0
  0
LINE
  5
B62
  8
0
 10
58.816859610114243
 20
20.20354095725509
 30
0.0
 11
58.816859610114243
 21
16.203540957255068
 31
0.0
  0
LINE
  5
B63
  8
0
 10
58.816859610114243
 20
16.203540957255068
 30
0.0
 11
61.816859610114243
 21
16.203540957255079
 31
0.0
  0
LINE
  5
B64
  8
0
 10
61.816859610114243
 20
20.20354095725509
 30
0.0
 11
58.816859610114243
 21
20.20354095725509
 31
0.0
  0
POLYLINE
  5
B7A
  8
0
 66
     1
 10
0.0
 20
0.0
 30
0.0
  0
VERTEX
  5
B7B
  8
0
 10
58.016859610114231
 20
62.780594338548667
 30
0.0
 42
0.3276813223934047
  0
VERTEX
  5
B7C
  8
0
 10
57.96649657290191
 20
62.743617942995691
 30
0.0
 42
0.0437459544518764
  0
VERTEX
  5
B7D
  8
0
 10
57.875438253876922
 20
62.330089483902377
 30
0.0
 42
0.0188761590834481
 70
     2
 50
262.59146041517357
  0
VERTEX
  5
B7E
  8
0
 10
57.833974654563818
 20
61.87847656819315
 30
0.0
 42
0.0134527459397667
 50
262.59146041517357
  0
VERTEX
  5
B7F
  8
0
 10
57.816859610114221
 20
61.242474553900337
 30
0.0
 42
0.0134527459397577
  0
VERTEX
  5
B80
  8
0
 10
57.833974654563811
 20
60.606472539607587
 30
0.0
 42
0.018876159083438
  0
VERTEX
  5
B81
  8
0
 10
57.875438253876922
 20
60.154859623898311
 30
0.0
 42
0.0437459544518766
 70
     2
 50
277.40853958482643
  0
VERTEX
  5
B82
  8
0
 10
57.96649657290191
 20
59.741331164804997
 30
0.0
 42
0.3276813223932475
 50
277.40853958482643
  0
VERTEX
  5
B83
  8
0
 10
58.016859610114231
 20
59.704354769252028
 30
0.0
 42
0.3276813223932475
  0
SEQEND
  5
B84
  8
0
  0
LINE
  5
B85
  8
0
 10
58.016859610114238
 20
62.780594338548667
 30
0.0
 11
58.016859610114238
 21
59.704354769252006
 31
0.0
  0
LINE
  5
B86
  8
0
 10
58.816859610114228
 20
63.242474553900372
 30
0.0
 11
58.016859610114231
 21
62.780594338548667
 31
0.0
  0
LINE
  5
B87
  8
0
 10
58.816859610114207
 20
59.242474553900337
 30
0.0
 11
58.016859610114231
 21
59.704354769252006
 31
0.0
  0
LINE
  5
B88
  8
0
 10
58.816859610114228
 20
63.242474553900372
 30
0.0
 11
58.816859610114228
 21
59.242474553900358
 31
0.0
  0
LINE
  5
B89
  8
0
 10
58.816859610114243
 20
59.242474553900358
 30
0.0
 11
61.816859610114228
 21
59.242474553900372
 31
0.0
  0
LINE
  5
B8A
  8
0
 10
61.816859610114228
 20
63.242474553900372
 30
0.0
 11
58.816859610114228
 21
63.242474553900372
 31
0.0
  0
POLYLINE
  5
BA0
  8
0
 66
     1
 10
0.0
 20
0.0
 30
0.0
  0
VERTEX
  5
BA1
  8
0
 10
58.016859610114253
 20
105.81952793512291
 30
0.0
 42
0.3276813223934047
  0
VERTEX
  5
BA2
  8
0
 10
57.966496572901931
 20
105.78255153956989
 30
0.0
 42
0.0437459544518764
  0
VERTEX
  5
BA3
  8
0
 10
57.875438253876943
 20
105.36902308047659
 30
0.0
 42
0.0188761590834481
 70
     2
 50
262.59146041517357
  0
VERTEX
  5
BA4
  8
0
 10
57.833974654563853
 20
104.9174101647674
 30
0.0
 42
0.0134527459397667
 50
262.59146041517357
  0
VERTEX
  5
BA5
  8
0
 10
57.81685961011425
 20
104.2814081504746
 30
0.0
 42
0.0134527459397577
  0
VERTEX
  5
BA6
  8
0
 10
57.833974654563832
 20
103.6454061361818
 30
0.0
 42
0.018876159083438
  0
VERTEX
  5
BA7
  8
0
 10
57.875438253876943
 20
103.1937932204726
 30
0.0
 42
0.0437459544518766
 70
     2
 50
277.40853958482643
  0
VERTEX
  5
BA8
  8
0
 10
57.966496572901931
 20
102.7802647613792
 30
0.0
 42
0.3276813223932475
 50
277.40853958482643
  0
VERTEX
  5
BA9
  8
0
 10
58.016859610114253
 20
102.7432883658263
 30
0.0
 42
0.3276813223932475
  0
SEQEND
  5
BAA
  8
0
  0
LINE
  5
BAB
  8
0
 10
58.016859610114253
 20
105.81952793512291
 30
0.0
 11
58.016859610114253
 21
102.7432883658263
 31
0.0
  0
LINE
  5
BAC
  8
0
 10
58.81685961011425
 20
106.2814081504746
 30
0.0
 11
58.016859610114253
 21
105.81952793512291
 31
0.0
  0
LINE
  5
BAD
  8
0
 10
58.816859610114243
 20
102.2814081504746
 30
0.0
 11
58.016859610114253
 21
102.7432883658263
 31
0.0
  0
LINE
  5
BAE
  8
0
 10
58.81685961011425
 20
106.2814081504746
 30
0.0
 11
58.81685961011425
 21
102.2814081504746
 31
0.0
  0
LINE
  5
BAF
  8
0
 10
58.816859610114257
 20
102.2814081504746
 30
0.0
 11
61.816859610114243
 21
102.2814081504746
 31
0.0
  0
LINE
  5
BB0
  8
0
 10
61.816859610114243
 20
106.2814081504746
 30
0.0
 11
58.81685961011425
 21
106.2814081504746
 31
0.0
  0
LINE
  5
E41
  8
0
 10
9.3979342153132546
 20
68.748028053365445
 30
0.0
 11
2.8979342153132701
 21
64.995251303632884
 31
0.0
  0
LINE
  5
E42
  8
0
 10
2.8979342153132701
 20
57.489697804167761
 30
0.0
 11
9.3979342153132421
 21
53.736921054435172
 31
0.0
  0
LINE
  5
E43
  8
0
 10
15.897934215313249
 20
57.489697804167747
 30
0.0
 11
15.89793421531324
 21
64.995251303632884
 31
0.0
  0
LINE
  5
E44
  8
0
 10
9.3979342153132546
 20
68.748028053365445
 30
0.0
 11
15.89793421531324
 21
64.995251303632884
 31
0.0
  0
LINE
  5
E45
  8
0
 10
15.897934215313249
 20
57.489697804167747
 30
0.0
 11
9.3979342153132421
 21
53.736921054435172
 31
0.0
  0
LINE
  5
E46
  8
0
 10
2.8979342153132701
 20
57.489697804167761
 30
0.0
 11
2.8979342153132701
 21
64.995251303632884
 31
0.0
  0
LINE
  5
E47
  8
2
 10
6.511182869365129
 20
66.242474553900337
 30
0.0
 11
12.28468556126138
 21
66.242474553900337
 31
0.0
  0
LINE
  5
E48
  8
2
 10
15.17143690720952
 20
61.242474553900308
 30
0.0
 11
12.28468556126141
 21
56.242474553900301
 31
0.0
  0
LINE
  5
E49
  8
2
 10
6.511182869365129
 20
56.242474553900308
 30
0.0
 11
3.624431523416987
 21
61.24247455390033
 31
0.0
  0
LINE
  5
E4A
  8
2
 10
3.624431523416987
 20
61.24247455390033
 30
0.0
 11
6.511182869365129
 21
66.242474553900337
 31
0.0
  0
LINE
  5
E4B
  8
2
 10
12.28468556126138
 20
66.242474553900337
 30
0.0
 11
15.171436907209539
 21
61.24247455390033
 31
0.0
  0
LINE
  5
E4C
  8
2
 10
12.28468556126141
 20
56.242474553900301
 30
0.0
 11
6.511182869365129
 21
56.242474553900308
 31
0.0
  0
CIRCLE
  5
E4D
  8
0
 10
9.3979342153132706
 20
61.242474553900308
 30
0.0
 40
2.0
  0
LINE
  5
E4E
  8
0
 10
139.4261120072137
 20
68.748028053365459
 30
0.0
 11
145.9261120072137
 21
64.995251303632898
 31
0.0
  0
LINE
  5
E4F
  8
0
 10
139.4261120072137
 20
68.748028053365459
 30
0.0
 11
132.9261120072137
 21
64.995251303632898
 31
0.0
  0
LINE
  5
E50
  8
0
 10
132.9261120072137
 20
57.489697804167768
 30
0.0
 11
132.9261120072137
 21
64.995251303632898
 31
0.0
  0
LINE
  5
E51
  8
0
 10
132.9261120072137
 20
57.489697804167768
 30
0.0
 11
139.4261120072137
 21
53.736921054435179
 31
0.0
  0
LINE
  5
E52
  8
0
 10
145.9261120072137
 20
57.489697804167747
 30
0.0
 11
139.4261120072137
 21
53.736921054435179
 31
0.0
  0
LINE
  5
E53
  8
0
 10
145.9261120072137
 20
57.489697804167747
 30
0.0
 11
145.9261120072137
 21
64.995251303632898
 31
0.0
  0
LINE
  5
E54
  8
0
 10
133.65260931531751
 20
61.24247455390033
 30
0.0
 11
136.53936066126559
 21
66.242474553900337
 31
0.0
  0
LINE
  5
E55
  8
0
 10
136.53936066126559
 20
66.242474553900337
 30
0.0
 11
142.31286335316179
 21
66.242474553900337
 31
0.0
  0
LINE
  5
E56
  8
0
 10
142.3128633531619
 20
56.242474553900301
 30
0.0
 11
136.53936066126559
 21
56.242474553900308
 31
0.0
  0
LINE
  5
E57
  8
0
 10
145.19961469910999
 20
61.242474553900308
 30
0.0
 11
142.3128633531619
 21
56.242474553900301
 31
0.0
  0
LINE
  5
E58
  8
0
 10
142.31286335316179
 20
66.242474553900337
 30
0.0
 11
145.19961469910999
 21
61.24247455390033
 31
0.0
  0
LINE
  5
E59
  8
0
 10
136.53936066126559
 20
56.242474553900308
 30
0.0
 11
133.65260931531751
 21
61.24247455390033
 31
0.0
  0
LINE
  5
E5A
  8
0
 10
71.816859610114221
 20
110.7814081504746
 30
0.0
 11
67.81685961011425
 21
110.7814081504746
 31
0.0
  0
LINE
  5
E73
  8
0
 10
83.416859610114258
 20
107.7814081504747
 30
0.0
 11
82.816859610114307
 21
107.7814081504747
 31
0.0
  0
LINE
  5
E74
  8
0
 10
82.816859610114307
 20
101.46279259264961
 30
0.0
 11
83.416859610114258
 21
101.46279259264961
 31
0.0
  0
LINE
  5
E75
  8
0
 10
83.416859610114258
 20
107.7814081504747
 30
0.0
 11
83.416859610114258
 21
101.46279259264961
 31
0.0
  0
LINE
  5
E77
  8
0
 10
82.816859610114236
 20
59.35348381481063
 30
0.0
 11
83.416859610114258
 21
59.35348381481063
 31
0.0
  0
LINE
  5
E78
  8
0
 10
82.816859610114236
 20
63.13146529299086
 30
0.0
 11
83.416859610114258
 21
63.13146529299086
 31
0.0
  0
LINE
  5
E79
  8
0
 10
82.816859610114236
 20
59.942474553900347
 30
0.0
 11
83.416859610114258
 21
59.942474553900347
 31
0.0
  0
LINE
  5
E7A
  8
0
 10
82.816859610114236
 20
62.542474553900348
 30
0.0
 11
83.416859610114258
 21
62.542474553900348
 31
0.0
  0
LINE
  5
E7D
  8
0
 10
138.67778052985889
 20
59.942474553900411
 30
0.0
 11
136.75573264036811
 21
59.4274633740974
 31
0.0
  0
LINE
  5
E7E
  8
0
 10
138.67778052985889
 20
62.542474553900398
 30
0.0
 11
136.75573264036811
 21
63.05748573370343
 31
0.0
  0
LINE
  5
E80
  8
0
 10
83.416859610114258
 20
57.742474553900408
 30
0.0
 11
83.416859610114258
 21
59.94247455390034
 31
0.0
  0
LINE
  5
E82
  8
0
 10
83.416859610114216
 20
64.742474553900422
 30
0.0
 11
82.816859610114236
 21
64.742474553900408
 31
0.0
  0
LINE
  5
E83
  8
0
 10
82.816859610114236
 20
57.742474553900408
 30
0.0
 11
83.416859610114216
 21
57.742474553900408
 31
0.0
  0
LINE
  5
E8D
  8
0
 10
83.416859610114258
 20
62.542474553900348
 30
0.0
 11
83.416859610114258
 21
64.742474553900408
 31
0.0
  0
ARC
  5
ED8
  8
0
 10
139.4261120072137
 20
61.242474553900401
 30
0.0
 40
3.5
 50
217.48432403614859
 51
142.51567596385141
  0
ARC
  5
ED9
  8
0
 10
136.80749644938859
 20
63.250670898961239
 30
0.0
 40
0.2
 50
142.51567596385081
 51
254.99999999999699
  0
ARC
  5
EDA
  8
0
 10
136.80749644938859
 20
59.234278208839569
 30
0.0
 40
0.2
 50
104.99999999999361
 51
217.4843240361491
  0
LINE
  5
EFD
  8
0
 10
83.416859610114258
 20
14.703540957326039
 30
0.0
 11
83.416859610114258
 21
21.022156515151149
 31
0.0
  0
LINE
  5
EFE
  8
0
 10
83.416859610114258
 20
14.703540957326039
 30
0.0
 11
82.816859610114307
 21
14.703540957326039
 31
0.0
  0
LINE
  5
EFF
  8
0
 10
82.816859610114307
 20
21.022156515151149
 30
0.0
 11
83.416859610114258
 21
21.022156515151149
 31
0.0
  0
TEXT
  5
FA7
  8
0
 62
     3
 10
0.0
 20
0.0
 30
0.0
 40
5.0
  1
NDX8AWN-SUS
  7
STANDARD1
  0
ENDSEC
  0
EOF
