  0
SECTION
  2
HEADER
  9
$ACADVER
  1
AC1009
  9
$INSBASE
 10
0.0
 20
0.0
 30
0.0
  9
$EXTMIN
 10
0.0
 20
-1.4802182810368341
 30
0.0
  9
$EXTMAX
 10
218.92321241573219
 20
179.58386343173871
 30
0.0
  9
$LIMMIN
 10
0.0
 20
0.0
  9
$LIMMAX
 10
385.0
 20
270.0
  9
$ORTHOMODE
 70
     1
  9
$REGENMODE
 70
     1
  9
$FILLMODE
 70
     1
  9
$QTEXTMODE
 70
     0
  9
$MIRRTEXT
 70
     0
  9
$DRAGMODE
 70
     2
  9
$LTSCALE
 40
10.0
  9
$OSMODE
 70
  3071
  9
$ATTMODE
 70
     1
  9
$TEXTSIZE
 40
4.000000000000048
  9
$TRACEWID
 40
0.05
  9
$TEXTSTYLE
  7
STANDARD
  9
$CLAYER
  8
0
  9
$CELTYPE
  6
BYLAYER
  9
$CECOLOR
 62
   256
  9
$DIMSCALE
 40
1.0
  9
$DIMASZ
 40
3.0
  9
$DIMEXO
 40
2.0
  9
$DIMDLI
 40
0.38
  9
$DIMRND
 40
0.0
  9
$DIMDLE
 40
0.0
  9
$DIMEXE
 40
2.0
  9
$DIMTP
 40
0.0
  9
$DIMTM
 40
0.0
  9
$DIMTXT
 40
3.0
  9
$DIMCEN
 40
0.0
  9
$DIMTSZ
 40
0.0
  9
$DIMTOL
 70
     0
  9
$DIMLIM
 70
     0
  9
$DIMTIH
 70
     0
  9
$DIMTOH
 70
     0
  9
$DIMSE1
 70
     0
  9
$DIMSE2
 70
     0
  9
$DIMTAD
 70
     1
  9
$DIMZIN
 70
     0
  9
$DIMBLK
  1

  9
$DIMASO
 70
     1
  9
$DIMSHO
 70
     0
  9
$DIMPOST
  1

  9
$DIMAPOST
  1

  9
$DIMALT
 70
     0
  9
$DIMALTD
 70
     2
  9
$DIMALTF
 40
25.399999999999999
  9
$DIMLFAC
 40
1.0
  9
$DIMTOFL
 70
     1
  9
$DIMTVP
 40
1.6000000000000001
  9
$DIMTIX
 70
     1
  9
$DIMSOXD
 70
     0
  9
$DIMSAH
 70
     0
  9
$DIMBLK1
  1

  9
$DIMBLK2
  1

  9
$DIMSTYLE
  2
STANDARD
  9
$DIMCLRD
 70
     0
  9
$DIMCLRE
 70
     0
  9
$DIMCLRT
 70
     0
  9
$DIMTFAC
 40
1.0
  9
$DIMGAP
 40
1.0
  9
$LUNITS
 70
     2
  9
$LUPREC
 70
     4
  9
$SKETCHINC
 40
0.1
  9
$FILLETRAD
 40
0.0
  9
$AUNITS
 70
     0
  9
$AUPREC
 70
     4
  9
$MENU
  1
E:\r13\win\SUPPORT\ACAD
  9
$ELEVATION
 40
0.0
  9
$PELEVATION
 40
0.0
  9
$THICKNESS
 40
0.0
  9
$LIMCHECK
 70
     0
  9
$BLIPMODE
 70
     0
  9
$CHAMFERA
 40
0.0
  9
$CHAMFERB
 40
0.0
  9
$SKPOLY
 70
     0
  9
$TDCREATE
 40
2450280.598206134
  9
$TDUPDATE
 40
2456597.6884888662
  9
$TDINDWG
 40
0.0648189583
  9
$TDUSRTIMER
 40
0.0648189583
  9
$USRTIMER
 70
     1
  9
$ANGBASE
 50
0.0
  9
$ANGDIR
 70
     0
  9
$PDMODE
 70
     0
  9
$PDSIZE
 40
0.0
  9
$PLINEWID
 40
0.0
  9
$COORDS
 70
     1
  9
$SPLFRAME
 70
     0
  9
$SPLINETYPE
 70
     6
  9
$SPLINESEGS
 70
     8
  9
$ATTDIA
 70
     0
  9
$ATTREQ
 70
     1
  9
$HANDLING
 70
     1
  9
$HANDSEED
  5
B7A
  9
$SURFTAB1
 70
     6
  9
$SURFTAB2
 70
     6
  9
$SURFTYPE
 70
     6
  9
$SURFU
 70
     6
  9
$SURFV
 70
     6
  9
$UCSNAME
  2

  9
$UCSORG
 10
0.0
 20
0.0
 30
0.0
  9
$UCSXDIR
 10
1.0
 20
0.0
 30
0.0
  9
$UCSYDIR
 10
0.0
 20
1.0
 30
0.0
  9
$PUCSNAME
  2

  9
$PUCSORG
 10
0.0
 20
0.0
 30
0.0
  9
$PUCSXDIR
 10
1.0
 20
0.0
 30
0.0
  9
$PUCSYDIR
 10
0.0
 20
1.0
 30
0.0
  9
$USERI1
 70
     3
  9
$USERI2
 70
     1
  9
$USERI3
 70
     1
  9
$USERI4
 70
     0
  9
$USERI5
 70
     0
  9
$USERR1
 40
1.0
  9
$USERR2
 40
3.0
  9
$USERR3
 40
3.0
  9
$USERR4
 40
3.0
  9
$USERR5
 40
10.0
  9
$WORLDVIEW
 70
     1
  9
$SHADEDGE
 70
     3
  9
$SHADEDIF
 70
    70
  9
$TILEMODE
 70
     1
  9
$MAXACTVP
 70
    16
  9
$PLIMCHECK
 70
     0
  9
$PEXTMIN
 10
1.0000000000000000E+020
 20
1.0000000000000000E+020
 30
1.0000000000000000E+020
  9
$PEXTMAX
 10
-1.0000000000000000E+020
 20
-1.0000000000000000E+020
 30
-1.0000000000000000E+020
  9
$PLIMMIN
 10
0.0
 20
0.0
  9
$PLIMMAX
 10
12.0
 20
9.0
  9
$UNITMODE
 70
     0
  9
$VISRETAIN
 70
     0
  9
$PLINEGEN
 70
     0
  9
$PSLTSCALE
 70
     0
  0
ENDSEC
  0
SECTION
  2
TABLES
  0
TABLE
  2
VPORT
 70
     1
  0
VPORT
  2
*ACTIVE
 70
     0
 10
0.0
 20
0.0
 11
1.0
 21
1.0
 12
192.49412581440311
 22
134.84202934784381
 13
0.0
 23
0.0
 14
5.0
 24
5.0
 15
10.0
 25
10.0
 16
0.0
 26
0.0
 36
1.0
 17
0.0
 27
0.0
 37
0.0
 40
275.78743625673241
 41
2.304913294797688
 42
50.0
 43
0.0
 44
0.0
 50
0.0
 51
0.0
 71
     0
 72
   500
 73
     1
 74
     0
 75
     0
 76
     0
 77
     0
 78
     2
  0
ENDTAB
  0
TABLE
  2
LTYPE
 70
     4
  0
LTYPE
  2
CONTINUOUS
 70
     0
  3
Solid Line
 72
    65
 73
     0
 40
0.0
  0
LTYPE
  2
CENTER
 70
     0
  3
____ _ ____ _ ____ _ ____ _ ____ _ ____ _ ____
 72
    65
 73
     4
 40
2.0
 49
1.25
 49
-0.25
 49
0.25
 49
-0.25
  0
LTYPE
  2
HIDDEN
 70
     0
  3
_ _ _ _ _ _ _ _ _ _ _ _ _ _ _ _ _ _ _ _ _ _ _
 72
    65
 73
     2
 40
0.375
 49
0.25
 49
-0.125
  0
LTYPE
  2
PHANTOM2
 70
     0
  3
___ _ _ ___ _ _ ___ _ _ ___ _ _
 72
    65
 73
     6
 40
1.25
 49
0.625
 49
-0.125
 49
0.125
 49
-0.125
 49
0.125
 49
-0.125
  0
ENDTAB
  0
TABLE
  2
LAYER
 70
     4
  0
LAYER
  2
0
 70
     0
 62
     7
  6
CONTINUOUS
  0
LAYER
  2
1
 70
     0
 62
     1
  6
CENTER
  0
LAYER
  2
3
 70
     0
 62
     3
  6
CONTINUOUS
  0
LAYER
  2
2
 70
     0
 62
     2
  6
HIDDEN
  0
ENDTAB
  0
TABLE
  2
STYLE
 70
     2
  0
STYLE
  2
STANDARD
 70
     0
 40
0.0
 41
1.0
 50
0.0
 71
     0
 42
4.000000000000048
  3
SIMPLEX
  4
BIGFONT
  0
STYLE
  2
STANDARD1
 70
     0
 40
0.0
 41
1.0
 50
0.0
 71
     0
 42
3.0
  3
txt
  4

  0
ENDTAB
  0
TABLE
  2
VIEW
 70
     0
  0
ENDTAB
  0
TABLE
  2
UCS
 70
     0
  0
ENDTAB
  0
TABLE
  2
APPID
 70
     3
  0
APPID
  2
ACAD
 70
     0
  0
APPID
  2
ACAD_MLEADERVER
 70
     0
  0
APPID
  2
ACAD_NAV_VCDISPLAY
 70
     0
  0
ENDTAB
  0
TABLE
  2
DIMSTYLE
 70
     1
  0
DIMSTYLE
  2
STANDARD
 70
     0
  3

  4

  5

  6

  7

 40
1.0
 41
0.18
 42
0.0625
 43
0.38
 44
0.18
 45
0.0
 46
0.0
 47
0.0
 48
0.0
140
0.18
141
0.09
142
0.0
143
25.399999999999999
144
1.0
145
0.0
146
1.0
147
0.09
 71
     0
 72
     0
 73
     1
 74
     1
 75
     0
 76
     0
 77
     0
 78
     0
170
     0
171
     2
172
     0
173
     0
174
     0
175
     0
176
     0
177
     0
178
     0
  0
ENDTAB
  0
ENDSEC
  0
SECTION
  2
BLOCKS
  0
BLOCK
  8
0
  2
$MODEL_SPACE
 70
     0
 10
0.0
 20
0.0
 30
0.0
  3
$MODEL_SPACE
  1

  0
ENDBLK
  5
86E
  8
0
  0
BLOCK
 67
     1
  8
0
  2
$PAPER_SPACE
 70
     0
 10
0.0
 20
0.0
 30
0.0
  3
$PAPER_SPACE
  1

  0
ENDBLK
  5
86C
 67
     1
  8
0
  0
ENDSEC
  0
SECTION
  2
ENTITIES
  0
LINE
  5
4FD
  8
0
 10
120.8655447611854
 20
39.788185665724669
 30
0.0
 11
120.86554476118521
 21
17.788185665724669
 31
0.0
  0
LINE
  5
4FE
  8
0
 10
132.86554476118519
 20
18.288185665724441
 30
0.0
 11
132.57686962659071
 21
17.788185665724889
 31
0.0
  0
LINE
  5
4FF
  8
0
 10
132.8655447611855
 20
39.288185665724441
 30
0.0
 11
132.86554476118519
 21
18.28818566572421
 31
0.0
  0
LINE
  5
500
  8
0
 10
132.57686962659039
 20
17.788185665724669
 30
0.0
 11
120.86554476118521
 21
17.788185665724669
 31
0.0
  0
LINE
  5
501
  8
0
 10
131.59438925434549
 20
28.788185665724669
 30
0.0
 11
120.8655447611853
 21
28.788185665724669
 31
0.0
  0
ARC
  5
502
  8
0
 10
116.6909198591748
 20
23.28818566572831
 30
0.0
 40
15.88594976741253
 50
339.74384199965999
 51
20.25615800031542
  0
ARC
  5
503
  8
0
 10
116.6909198591748
 20
34.288185665721031
 30
0.0
 40
15.88594976741253
 50
339.74384199968461
 51
20.256158000339969
  0
LINE
  5
504
  8
0
 10
132.86554476118519
 20
39.288185665724903
 30
0.0
 11
132.57686962659071
 21
39.788185665724441
 31
0.0
  0
LINE
  5
505
  8
0
 10
132.57686962659039
 20
39.788185665724669
 30
0.0
 11
120.8655447611854
 21
39.788185665724669
 31
0.0
  0
LINE
  5
5CF
  8
1
 10
149.86554476118519
 20
96.686024548731666
 30
0.0
 11
77.865544761185234
 21
96.686024548731694
 31
0.0
  0
LINE
  5
5D0
  8
0
 10
92.865544761185305
 20
101.6860245487316
 30
0.0
 11
85.665544761185245
 21
101.6860245487316
 31
0.0
  0
LINE
  5
5D1
  8
0
 10
92.865544761185191
 20
91.686024548731694
 30
0.0
 11
85.665544761185245
 21
91.686024548731694
 31
0.0
  0
LINE
  5
5D2
  8
0
 10
85.665544761185245
 20
101.6860245487316
 30
0.0
 11
85.665544761185245
 21
91.686024548731694
 31
0.0
  0
LINE
  5
5D3
  8
0
 10
92.865544761185134
 20
87.686024548731751
 30
0.0
 11
92.865544761185376
 21
105.6860245487316
 31
0.0
  0
LINE
  5
5D4
  8
0
 10
93.865544761185134
 20
86.686024548731751
 30
0.0
 11
92.865544761185134
 21
87.686024548731751
 31
0.0
  0
LINE
  5
5D5
  8
0
 10
92.865544761185376
 20
105.6860245487316
 30
0.0
 11
93.865544761185362
 21
106.6860245487316
 31
0.0
  0
LINE
  5
5D6
  8
0
 10
93.865544761185134
 20
86.686024548731751
 30
0.0
 11
93.865544761185134
 21
106.6860245487316
 31
0.0
  0
LINE
  5
5D7
  8
0
 10
85.665544761185245
 20
101.6860245487316
 30
0.0
 11
83.624610319089584
 21
100.50769049918929
 31
0.0
  0
LINE
  5
5D8
  8
0
 10
85.665544761185245
 20
91.686024548731694
 30
0.0
 11
83.624610319089584
 21
92.864358598273967
 31
0.0
  0
LINE
  5
5D9
  8
0
 10
120.8655447611853
 20
109.38773047090351
 30
0.0
 11
120.8655447611853
 21
83.984318626559869
 31
0.0
  0
LINE
  5
5DA
  8
0
 10
132.8655447611853
 20
107.18602454873169
 30
0.0
 11
132.8655447611853
 21
86.186024548732377
 31
0.0
  0
LINE
  5
5DB
  8
0
 10
131.5943892543431
 20
83.984318626560054
 30
0.0
 11
120.8655447611853
 21
83.984318626559869
 31
0.0
  0
LINE
  5
5DC
  8
0
 10
131.5943892543761
 20
90.335171587645988
 30
0.0
 11
120.8655447611853
 21
90.335171587645988
 31
0.0
  0
LINE
  5
5DD
  8
0
 10
132.8655447611853
 20
86.186024548731808
 30
0.0
 11
131.5943892543431
 21
83.984318626559954
 31
0.0
  0
ARC
  5
5DE
  8
0
 10
126.95405958009439
 20
87.159745107095006
 30
0.0
 40
5.6228100464977411
 50
334.38424746417678
 51
34.384247468308239
  0
ARC
  5
5DF
  8
0
 10
111.55934999861221
 20
96.686024548678262
 30
0.0
 40
21.01751962797988
 50
342.41204622608842
 51
17.58795377394674
  0
ARC
  5
5E0
  8
0
 10
126.95405958009439
 20
106.2123039903684
 30
0.0
 40
5.6228100464977411
 50
325.61575253169178
 51
25.61575253582323
  0
LINE
  5
5E1
  8
0
 10
132.8655447611853
 20
107.1860245487316
 30
0.0
 11
131.5943892543431
 21
109.38773047090341
 31
0.0
  0
LINE
  5
5E2
  8
0
 10
131.5943892543761
 20
103.0368775098174
 30
0.0
 11
120.8655447611853
 21
103.0368775098174
 31
0.0
  0
LINE
  5
5E3
  8
0
 10
131.5943892543431
 20
109.38773047090331
 30
0.0
 11
120.8655447611853
 21
109.38773047090351
 31
0.0
  0
ARC
  5
60A
  8
0
 10
92.865544761185234
 20
96.686024548731666
 30
0.0
 40
10.0
 50
157.53204873306441
 51
202.46795126693621
  0
LINE
  5
60B
  8
0
 10
83.624610319089399
 20
100.5076904991892
 30
0.0
 11
83.624610319089484
 21
92.864358598274038
 31
0.0
  0
CIRCLE
  5
61A
  8
3
 10
27.01434722055712
 20
96.686024548731666
 30
0.0
 40
8.6470000000000002
  0
CIRCLE
  5
61B
  8
0
 10
27.01434722055712
 20
96.686024548731666
 30
0.0
 40
10.0
  0
CIRCLE
  5
61C
  8
0
 10
27.01434722055712
 20
96.686024548731666
 30
0.0
 40
5.0
  0
CIRCLE
  5
61E
  8
0
 10
27.01434722055712
 20
96.686024548731666
 30
0.0
 40
3.821665950457557
  0
CIRCLE
  5
642
  8
0
 10
196.42321241573231
 20
96.686024548731609
 30
0.0
 40
10.49999999999997
  0
LINE
  5
646
  8
0
 10
120.8655447611854
 20
106.68602454873169
 30
0.0
 11
113.3195380388733
 21
106.6860245487316
 31
0.0
  0
LINE
  5
647
  8
3
 10
117.8655447611853
 20
105.3330245487317
 30
0.0
 11
113.3195380388733
 21
105.3330245487317
 31
0.0
  0
LINE
  5
648
  8
0
 10
120.8655447611854
 20
86.686024548731709
 30
0.0
 11
113.3195380388734
 21
86.686024548731751
 31
0.0
  0
LINE
  5
649
  8
3
 10
117.8655447611853
 20
88.039024548731675
 30
0.0
 11
113.3195380388733
 21
88.039024548731703
 31
0.0
  0
LINE
  5
658
  8
1
 10
173.92321241573219
 20
96.686024548731609
 30
0.0
 11
218.92321241573219
 21
96.686024548731609
 31
0.0
  0
LINE
  5
659
  8
1
 10
196.42321241573231
 20
74.186024548731865
 30
0.0
 11
196.42321241573231
 21
119.18602454873179
 31
0.0
  0
LINE
  5
65A
  8
1
 10
49.514347220556999
 20
96.686024548731666
 30
0.0
 11
4.5143472205569992
 21
96.686024548731666
 31
0.0
  0
LINE
  5
65B
  8
1
 10
27.014347220557131
 20
74.186024548731723
 30
0.0
 11
27.014347220557131
 21
119.18602454873169
 31
0.0
  0
LINE
  5
65C
  8
0
 10
117.8655447611853
 20
106.68602454873169
 30
0.0
 11
117.8655447611853
 21
86.686024548731709
 31
0.0
  0
LINE
  5
65D
  8
3
 10
117.8655447611853
 20
105.3330245487317
 30
0.0
 11
120.209009503826
 21
106.6860245487316
 31
0.0
  0
LINE
  5
65E
  8
3
 10
117.8655447611853
 20
88.039024548731618
 30
0.0
 11
120.209009503826
 21
86.686024548731666
 31
0.0
  0
LINE
  5
66A
  8
1
 10
149.86554476118519
 20
28.788185665724662
 30
0.0
 11
77.865544761185234
 21
28.788185665724679
 31
0.0
  0
LINE
  5
66B
  8
0
 10
120.8655447611854
 20
38.788185665724683
 30
0.0
 11
113.3195380388733
 21
38.788185665724669
 31
0.0
  0
LINE
  5
66C
  8
3
 10
117.8655447611853
 20
37.43518566572471
 30
0.0
 11
113.3195380388733
 21
37.435185665724667
 31
0.0
  0
LINE
  5
66D
  8
0
 10
120.8655447611854
 20
18.788185665724711
 30
0.0
 11
113.3195380388734
 21
18.788185665724718
 31
0.0
  0
LINE
  5
66E
  8
3
 10
117.8655447611853
 20
20.14118566572467
 30
0.0
 11
113.3195380388733
 21
20.141185665724681
 31
0.0
  0
LINE
  5
66F
  8
0
 10
85.665544761185245
 20
33.788185665724633
 30
0.0
 11
83.624610319089584
 21
32.609851616182311
 31
0.0
  0
LINE
  5
670
  8
0
 10
85.665544761185245
 20
33.788185665724633
 30
0.0
 11
85.665544761185245
 21
23.788185665724679
 31
0.0
  0
LINE
  5
671
  8
0
 10
92.865544761185134
 20
19.78818566572474
 30
0.0
 11
92.865544761185376
 21
37.788185665724633
 31
0.0
  0
LINE
  5
672
  8
0
 10
93.865544761185134
 20
18.78818566572474
 30
0.0
 11
93.865544761185134
 21
38.788185665724619
 31
0.0
  0
LINE
  5
673
  8
0
 10
93.865544761185134
 20
18.78818566572474
 30
0.0
 11
92.865544761185134
 21
19.78818566572474
 31
0.0
  0
LINE
  5
674
  8
0
 10
92.865544761185191
 20
23.788185665724679
 30
0.0
 11
85.665544761185245
 21
23.788185665724679
 31
0.0
  0
ARC
  5
675
  8
0
 10
92.865544761185234
 20
28.788185665724662
 30
0.0
 40
10.0
 50
157.53204873306441
 51
202.46795126693621
  0
LINE
  5
676
  8
0
 10
83.624610319089399
 20
32.609851616182233
 30
0.0
 11
83.624610319089484
 21
24.96651971526703
 31
0.0
  0
LINE
  5
677
  8
0
 10
85.665544761185245
 20
23.788185665724679
 30
0.0
 11
83.624610319089584
 21
24.966519715266969
 31
0.0
  0
LINE
  5
678
  8
0
 10
92.865544761185305
 20
33.788185665724633
 30
0.0
 11
85.665544761185245
 21
33.788185665724633
 31
0.0
  0
LINE
  5
679
  8
0
 10
92.865544761185376
 20
37.788185665724633
 30
0.0
 11
93.865544761185362
 21
38.788185665724619
 31
0.0
  0
LINE
  5
67B
  8
0
 10
117.8655447611853
 20
38.788185665724683
 30
0.0
 11
117.8655447611853
 21
18.788185665724711
 31
0.0
  0
LINE
  5
67C
  8
3
 10
117.8655447611853
 20
20.14118566572461
 30
0.0
 11
120.209009503826
 21
18.788185665724651
 31
0.0
  0
LINE
  5
67D
  8
3
 10
117.8655447611853
 20
37.43518566572471
 30
0.0
 11
120.209009503826
 21
38.788185665724662
 31
0.0
  0
LINE
  5
68C
  8
1
 10
149.86554476118519
 20
164.58386343173871
 30
0.0
 11
77.865544761185234
 21
164.58386343173871
 31
0.0
  0
LINE
  5
68D
  8
0
 10
132.57686962659039
 20
175.58386343173871
 30
0.0
 11
120.86554476118521
 21
175.58386343173871
 31
0.0
  0
LINE
  5
68E
  8
0
 10
131.59438925434549
 20
164.58386343173871
 30
0.0
 11
120.8655447611853
 21
164.58386343173871
 31
0.0
  0
LINE
  5
68F
  8
0
 10
132.57686962659039
 20
153.58386343173871
 30
0.0
 11
120.8655447611854
 21
153.58386343173871
 31
0.0
  0
LINE
  5
690
  8
3
 10
117.8655447611853
 20
155.93686343173869
 30
0.0
 11
120.209009503826
 21
154.58386343173871
 31
0.0
  0
LINE
  5
691
  8
0
 10
117.8655447611853
 20
154.58386343173871
 30
0.0
 11
117.8655447611853
 21
174.58386343173871
 31
0.0
  0
LINE
  5
692
  8
0
 10
120.8655447611854
 20
153.58386343173871
 30
0.0
 11
120.86554476118521
 21
175.58386343173871
 31
0.0
  0
LINE
  5
693
  8
0
 10
92.865544761185376
 20
155.58386343173871
 30
0.0
 11
93.865544761185362
 21
154.58386343173871
 31
0.0
  0
LINE
  5
694
  8
0
 10
93.865544761185134
 20
174.58386343173859
 30
0.0
 11
93.865544761185134
 21
154.58386343173871
 31
0.0
  0
LINE
  5
695
  8
3
 10
117.8655447611853
 20
155.93686343173869
 30
0.0
 11
113.3195380388733
 21
155.93686343173869
 31
0.0
  0
LINE
  5
696
  8
0
 10
120.8655447611854
 20
174.58386343173871
 30
0.0
 11
113.3195380388734
 21
174.58386343173859
 31
0.0
  0
LINE
  5
697
  8
3
 10
117.8655447611853
 20
173.2308634317387
 30
0.0
 11
113.3195380388733
 21
173.2308634317387
 31
0.0
  0
LINE
  5
698
  8
0
 10
85.665544761185245
 20
159.58386343173871
 30
0.0
 11
85.665544761185245
 21
169.58386343173871
 31
0.0
  0
ARC
  5
699
  8
0
 10
92.865544761185234
 20
164.58386343173871
 30
0.0
 40
10.0
 50
157.5320487330641
 51
202.4679512669353
  0
LINE
  5
69A
  8
0
 10
83.624610319089399
 20
160.76219748128111
 30
0.0
 11
83.624610319089484
 21
168.40552938219631
 31
0.0
  0
LINE
  5
69B
  8
0
 10
92.865544761185134
 20
173.58386343173859
 30
0.0
 11
92.865544761185376
 21
155.58386343173871
 31
0.0
  0
LINE
  5
69C
  8
0
 10
92.865544761185191
 20
169.58386343173871
 30
0.0
 11
85.665544761185245
 21
169.58386343173871
 31
0.0
  0
LINE
  5
69D
  8
0
 10
85.665544761185245
 20
169.58386343173871
 30
0.0
 11
83.624610319089584
 21
168.40552938219639
 31
0.0
  0
LINE
  5
69E
  8
0
 10
93.865544761185134
 20
174.58386343173859
 30
0.0
 11
92.865544761185134
 21
173.58386343173859
 31
0.0
  0
LINE
  5
69F
  8
0
 10
92.865544761185305
 20
159.58386343173871
 30
0.0
 11
85.665544761185245
 21
159.58386343173871
 31
0.0
  0
LINE
  5
6A0
  8
0
 10
85.665544761185245
 20
159.58386343173871
 30
0.0
 11
83.624610319089584
 21
160.76219748128111
 31
0.0
  0
LINE
  5
6A1
  8
3
 10
117.8655447611853
 20
173.23086343173881
 30
0.0
 11
120.209009503826
 21
174.58386343173871
 31
0.0
  0
LINE
  5
6A2
  8
0
 10
120.8655447611854
 20
154.58386343173871
 30
0.0
 11
113.3195380388733
 21
154.58386343173871
 31
0.0
  0
LINE
  5
6A3
  8
0
 10
132.8655447611855
 20
154.08386343173891
 30
0.0
 11
132.86554476118519
 21
175.08386343173919
 31
0.0
  0
ARC
  5
6A4
  8
0
 10
116.6909198591748
 20
159.08386343174229
 30
0.0
 40
15.88594976741253
 50
339.74384199965999
 51
20.256158000315359
  0
ARC
  5
6A9
  8
0
 10
116.6909198591748
 20
170.0838634317351
 30
0.0
 40
15.88594976741253
 50
339.74384199968461
 51
20.256158000339941
  0
LINE
  5
6AA
  8
0
 10
132.86554476118519
 20
175.08386343173891
 30
0.0
 11
132.57686962659071
 21
175.58386343173851
 31
0.0
  0
LINE
  5
6AF
  8
0
 10
132.86554476118519
 20
154.08386343173851
 30
0.0
 11
132.57686962659071
 21
153.58386343173891
 31
0.0
  0
CIRCLE
  5
750
  8
0
 10
196.42321241573231
 20
96.686024548731609
 30
0.0
 40
4.0
  0
CIRCLE
  5
751
  8
3
 10
196.42321241573231
 20
96.686024548731609
 30
0.0
 40
3.3235000000000001
  0
LINE
  5
79F
  8
0
 10
144.86554476118519
 20
99.486024548731663
 30
0.0
 11
144.86554476118519
 21
93.886024548731683
 31
0.0
  0
LINE
  5
7A0
  8
0
 10
133.8655447611853
 20
92.686024548731694
 30
0.0
 11
143.6655447611852
 21
92.686024548731666
 31
0.0
  0
LINE
  5
7A1
  8
3
 10
132.8655447611853
 20
93.362524548731585
 30
0.0
 11
144.34204476118509
 21
93.362524548731585
 31
0.0
  0
LINE
  5
7A2
  8
3
 10
132.8655447611853
 20
100.0095245487318
 30
0.0
 11
144.34204476118509
 21
100.0095245487317
 31
0.0
  0
LINE
  5
7A3
  8
0
 10
133.8655447611853
 20
100.68602454873169
 30
0.0
 11
143.66554476118529
 21
100.68602454873169
 31
0.0
  0
LINE
  5
7A4
  8
0
 10
143.66554476118529
 20
100.68602454873169
 30
0.0
 11
144.86554476118519
 21
99.486024548731663
 31
0.0
  0
LINE
  5
7A5
  8
0
 10
144.86554476118519
 20
93.886024548731683
 30
0.0
 11
143.6655447611852
 21
92.686024548731666
 31
0.0
  0
LINE
  5
7A6
  8
0
 10
143.66554476118529
 20
100.68602454873169
 30
0.0
 11
143.6655447611852
 21
92.686024548731666
 31
0.0
  0
LINE
  5
7AA
  8
0
 10
144.86554476118519
 20
167.38386343173869
 30
0.0
 11
144.86554476118519
 21
161.78386343173869
 31
0.0
  0
LINE
  5
7AB
  8
0
 10
143.6655447611852
 20
168.58386343173871
 30
0.0
 11
143.66554476118509
 21
160.58386343173871
 31
0.0
  0
LINE
  5
7AC
  8
0
 10
144.86554476118519
 20
161.78386343173869
 30
0.0
 11
143.66554476118509
 21
160.58386343173871
 31
0.0
  0
LINE
  5
7AD
  8
0
 10
143.6655447611852
 20
168.58386343173871
 30
0.0
 11
144.86554476118519
 21
167.38386343173869
 31
0.0
  0
LINE
  5
7AE
  8
3
 10
133.8655447611853
 20
161.2603634317386
 30
0.0
 11
144.34204476118501
 21
161.2603634317386
 31
0.0
  0
LINE
  5
7AF
  8
0
 10
133.8655447611853
 20
160.58386343173871
 30
0.0
 11
143.66554476118509
 21
160.58386343173871
 31
0.0
  0
LINE
  5
7B0
  8
3
 10
133.86554476118539
 20
167.9073634317389
 30
0.0
 11
144.34204476118501
 21
167.90736343173879
 31
0.0
  0
LINE
  5
7B1
  8
0
 10
133.86554476118539
 20
168.58386343173871
 30
0.0
 11
143.6655447611852
 21
168.58386343173871
 31
0.0
  0
LINE
  5
7B2
  8
3
 10
133.8655447611853
 20
25.46468566572457
 30
0.0
 11
144.34204476118501
 21
25.46468566572457
 31
0.0
  0
LINE
  5
7B3
  8
0
 10
133.86554476118539
 20
24.788185665724679
 30
0.0
 11
143.66554476118509
 21
24.788185665724662
 31
0.0
  0
LINE
  5
7B4
  8
0
 10
143.6655447611852
 20
32.788185665724683
 30
0.0
 11
143.66554476118509
 21
24.788185665724662
 31
0.0
  0
LINE
  5
7B5
  8
0
 10
144.86554476118511
 20
31.588185665724669
 30
0.0
 11
144.86554476118511
 21
25.988185665724671
 31
0.0
  0
LINE
  5
7B6
  8
0
 10
144.86554476118511
 20
25.988185665724671
 30
0.0
 11
143.66554476118509
 21
24.788185665724662
 31
0.0
  0
LINE
  5
7B7
  8
0
 10
133.8655447611853
 20
32.788185665724669
 30
0.0
 11
143.6655447611852
 21
32.788185665724662
 31
0.0
  0
LINE
  5
7B8
  8
3
 10
133.8655447611853
 20
32.111685665724778
 30
0.0
 11
144.34204476118501
 21
32.111685665724771
 31
0.0
  0
LINE
  5
7B9
  8
0
 10
143.6655447611852
 20
32.788185665724662
 30
0.0
 11
144.86554476118511
 21
31.588185665724669
 31
0.0
  0
LINE
  5
8CE
  8
0
 10
111.6911169421233
 20
28.788185665724662
 30
0.0
 11
104.9479591356407
 21
28.788185665724662
 31
0.0
  0
LINE
  5
8CF
  8
0
 10
103.3195380388954
 20
14.288185665724651
 30
0.0
 11
103.3195380388954
 21
43.288185665723063
 31
0.0
  0
LINE
  5
8D0
  8
0
 10
113.3195380388733
 20
43.288185665723063
 30
0.0
 11
113.3195380388733
 21
14.288185665726241
 31
0.0
  0
ARC
  5
8D1
  8
0
 10
91.368204130609456
 20
36.288185665724662
 30
0.0
 40
21.662658773668529
 50
339.74384199959849
 51
20.25615800040071
  0
LINE
  5
8D2
  8
0
 10
113.3195380388733
 20
43.288185665723063
 30
0.0
 11
113.0308629042778
 21
43.788185665724427
 31
0.0
  0
LINE
  5
8D3
  8
0
 10
103.3195380388954
 20
43.288185665723063
 30
0.0
 11
103.608213173491
 21
43.788185665724427
 31
0.0
  0
ARC
  5
8D4
  8
0
 10
125.27087194715941
 20
36.288185665724662
 30
0.0
 40
21.662658773668529
 50
159.74384199959931
 51
200.25615800040151
  0
LINE
  5
8D5
  8
0
 10
113.0308629042778
 20
43.788185665724647
 30
0.0
 11
103.6082131734909
 21
43.788185665724427
 31
0.0
  0
LINE
  5
8D6
  8
0
 10
113.0308629042778
 20
13.788185665724651
 30
0.0
 11
103.6082131734909
 21
13.78818566572488
 31
0.0
  0
ARC
  5
8D7
  8
0
 10
125.27087194715941
 20
21.288185665724662
 30
0.0
 40
21.662658773668529
 50
159.74384199959849
 51
200.25615800040069
  0
LINE
  5
8D8
  8
0
 10
103.3195380388954
 20
14.288185665726241
 30
0.0
 11
103.608213173491
 21
13.78818566572488
 31
0.0
  0
LINE
  5
8D9
  8
0
 10
113.3195380388733
 20
14.288185665726241
 30
0.0
 11
113.0308629042778
 21
13.78818566572488
 31
0.0
  0
ARC
  5
8DA
  8
0
 10
91.368204130609456
 20
21.288185665724662
 30
0.0
 40
21.662658773668529
 50
339.74384199959928
 51
20.256158000401481
  0
LINE
  5
904
  8
0
 10
103.3195380388955
 20
82.186024548731353
 30
0.0
 11
104.9479591356459
 21
79.365516473042732
 31
0.0
  0
ARC
  5
905
  8
0
 10
111.27568141876679
 20
83.695643491965171
 30
0.0
 40
7.6674682452751783
 50
145.6157525319893
 51
205.61575252954631
  0
ARC
  5
906
  8
0
 10
111.27568141876679
 20
83.695643491965171
 30
0.0
 40
7.6674682452751783
 50
214.38424746801201
 51
214.38424746801451
  0
ARC
  5
907
  8
0
 10
132.26846721088421
 20
96.686024548804795
 30
0.0
 40
28.6602540373928
 50
162.41204622587409
 51
197.5879537744338
  0
ARC
  5
908
  8
0
 10
105.363394659002
 20
83.695643491965171
 30
0.0
 40
7.6674682452751783
 50
325.61575253198549
 51
325.61575253198799
  0
ARC
  5
909
  8
0
 10
105.363394659002
 20
83.695643491965171
 30
0.0
 40
7.6674682452751783
 50
334.38424747045372
 51
34.384247468010692
  0
LINE
  5
90A
  8
0
 10
113.3195380388732
 20
82.186024548731353
 30
0.0
 11
111.6911169421229
 21
79.365516473042732
 31
0.0
  0
LINE
  5
90B
  8
0
 10
104.9479591356459
 20
79.365516473042959
 30
0.0
 11
111.69111694195909
 21
79.365516472759197
 31
0.0
  0
LINE
  5
90C
  8
0
 10
111.6911169420995
 20
88.025770510887156
 30
0.0
 11
104.9479591356459
 21
88.025770511041074
 31
0.0
  0
ARC
  5
90D
  8
0
 10
84.370608866884609
 20
96.686024548804795
 30
0.0
 40
28.6602540373928
 50
342.4120462255662
 51
17.587953774125889
  0
LINE
  5
90E
  8
0
 10
111.6911169420995
 20
105.34627858657549
 30
0.0
 11
104.9479591356459
 21
105.3462785864216
 31
0.0
  0
LINE
  5
90F
  8
0
 10
104.9479591356459
 20
114.00653262441971
 30
0.0
 11
111.69111694195909
 21
114.0065326247035
 31
0.0
  0
LINE
  5
910
  8
0
 10
113.3195380388732
 20
111.1860245487313
 30
0.0
 11
111.6911169421229
 21
114.0065326244199
 31
0.0
  0
ARC
  5
911
  8
0
 10
105.363394659002
 20
109.67640560549749
 30
0.0
 40
7.6674682452751783
 50
325.6157525319893
 51
25.61575252954631
  0
ARC
  5
912
  8
0
 10
105.363394659002
 20
109.67640560549749
 30
0.0
 40
7.6674682452751783
 50
34.384247468012042
 51
34.38424746801455
  0
ARC
  5
913
  8
0
 10
111.27568141876679
 20
109.67640560549749
 30
0.0
 40
7.6674682452751783
 50
145.61575253198541
 51
145.61575253198799
  0
ARC
  5
914
  8
0
 10
111.27568141876679
 20
109.67640560549749
 30
0.0
 40
7.6674682452751783
 50
154.38424747045369
 51
214.3842474680107
  0
LINE
  5
915
  8
0
 10
103.3195380388955
 20
111.1860245487313
 30
0.0
 11
104.9479591356459
 21
114.0065326244199
 31
0.0
  0
LINE
  5
916
  8
0
 10
103.3195380388954
 20
82.186024548731353
 30
0.0
 11
103.3195380388959
 21
111.18602454873199
 31
0.0
  0
LINE
  5
917
  8
0
 10
113.31953803887291
 20
111.18602454873179
 30
0.0
 11
113.3195380388732
 21
82.186024548731353
 31
0.0
  0
CIRCLE
  5
91C
  8
0
 10
27.014347220556999
 20
96.686024548731723
 30
0.0
 40
14.5
  0
LINE
  5
91D
  8
0
 10
27.01434722055723
 20
114.0065326244204
 30
0.0
 11
12.014347220556999
 21
105.34627858657591
 31
0.0
  0
LINE
  5
91E
  8
0
 10
42.014347220556999
 20
105.34627858657581
 30
0.0
 11
27.01434722055723
 21
114.0065326244204
 31
0.0
  0
LINE
  5
91F
  8
0
 10
42.014347220556999
 20
88.025770510887455
 30
0.0
 11
42.014347220556999
 21
105.34627858657581
 31
0.0
  0
LINE
  5
920
  8
0
 10
27.014347220556999
 20
79.365516473042931
 30
0.0
 11
42.014347220556999
 21
88.025770510887455
 31
0.0
  0
LINE
  5
921
  8
0
 10
12.014347220556999
 20
88.025770510887298
 30
0.0
 11
27.014347220556999
 21
79.365516473042931
 31
0.0
  0
LINE
  5
922
  8
0
 10
12.014347220556999
 20
105.34627858657591
 30
0.0
 11
12.014347220556999
 21
88.025770510887298
 31
0.0
  0
ARC
  5
949
  8
0
 10
91.368204130609456
 20
157.08386343173871
 30
0.0
 40
21.662658773668529
 50
339.74384199959928
 51
20.256158000401481
  0
ARC
  5
94A
  8
0
 10
125.27087194715941
 20
157.08386343173871
 30
0.0
 40
21.662658773668529
 50
159.74384199959849
 51
200.25615800040069
  0
LINE
  5
94B
  8
0
 10
103.3195380388954
 20
179.08386343173871
 30
0.0
 11
103.3195380388954
 21
150.0838634317403
 31
0.0
  0
LINE
  5
94C
  8
0
 10
113.3195380388733
 20
150.0838634317403
 30
0.0
 11
113.3195380388733
 21
179.08386343173709
 31
0.0
  0
LINE
  5
94D
  8
0
 10
111.6911169421233
 20
164.58386343173871
 30
0.0
 11
104.9479591356407
 21
164.58386343173871
 31
0.0
  0
LINE
  5
94E
  8
0
 10
113.0308629042778
 20
179.58386343173871
 30
0.0
 11
103.6082131734909
 21
179.58386343173851
 31
0.0
  0
ARC
  5
951
  8
0
 10
125.27087194715941
 20
172.08386343173871
 30
0.0
 40
21.662658773668529
 50
159.74384199959931
 51
200.25615800040151
  0
LINE
  5
953
  8
0
 10
103.3195380388954
 20
179.08386343173709
 30
0.0
 11
103.608213173491
 21
179.58386343173851
 31
0.0
  0
ARC
  5
965
  8
0
 10
91.368204130609456
 20
172.08386343173871
 30
0.0
 40
21.662658773668529
 50
339.74384199959849
 51
20.25615800040071
  0
LINE
  5
967
  8
0
 10
113.3195380388733
 20
179.08386343173709
 30
0.0
 11
113.0308629042778
 21
179.58386343173851
 31
0.0
  0
LINE
  5
972
  8
0
 10
113.0308629042778
 20
149.58386343173871
 30
0.0
 11
103.6082131734909
 21
149.58386343173891
 31
0.0
  0
LINE
  5
973
  8
0
 10
103.3195380388954
 20
150.0838634317403
 30
0.0
 11
103.608213173491
 21
149.58386343173891
 31
0.0
  0
LINE
  5
974
  8
0
 10
113.3195380388733
 20
150.0838634317403
 30
0.0
 11
113.0308629042778
 21
149.58386343173891
 31
0.0
  0
LINE
  5
9A7
  8
0
 10
185.42321241573231
 20
90.335171587645675
 30
0.0
 11
196.42321241573231
 21
83.984318626559855
 31
0.0
  0
LINE
  5
9A8
  8
0
 10
196.42321241573231
 20
83.984318626559855
 30
0.0
 11
207.42321241573231
 21
90.335171587645675
 31
0.0
  0
LINE
  5
9A9
  8
0
 10
207.42321241573231
 20
90.335171587645675
 30
0.0
 11
207.42321241573231
 21
103.0368775098175
 31
0.0
  0
LINE
  5
9AA
  8
0
 10
207.42321241573231
 20
103.0368775098175
 30
0.0
 11
196.42321241573231
 21
109.38773047090331
 31
0.0
  0
LINE
  5
9AB
  8
0
 10
196.42321241573231
 20
109.38773047090331
 30
0.0
 11
185.42321241573231
 21
103.0368775098175
 31
0.0
  0
LINE
  5
9AC
  8
0
 10
185.42321241573231
 20
103.0368775098175
 30
0.0
 11
185.42321241573231
 21
90.335171587645675
 31
0.0
  0
LINE
  5
9AD
  8
2
 10
16.014347220557109
 20
90.335171587645718
 30
0.0
 11
27.01434722055712
 21
83.984318626559912
 31
0.0
  0
LINE
  5
9AE
  8
2
 10
27.01434722055712
 20
83.984318626559912
 30
0.0
 11
38.01434722055712
 21
90.335171587645718
 31
0.0
  0
LINE
  5
9AF
  8
2
 10
38.01434722055712
 20
90.335171587645718
 30
0.0
 11
38.01434722055712
 21
103.0368775098176
 31
0.0
  0
LINE
  5
9B0
  8
2
 10
38.01434722055712
 20
103.0368775098176
 30
0.0
 11
27.01434722055712
 21
109.38773047090341
 31
0.0
  0
LINE
  5
9B1
  8
2
 10
27.01434722055712
 20
109.38773047090341
 30
0.0
 11
16.014347220557109
 21
103.0368775098176
 31
0.0
  0
LINE
  5
9B2
  8
2
 10
16.014347220557109
 20
103.0368775098176
 30
0.0
 11
16.014347220557109
 21
90.335171587645718
 31
0.0
  0
LINE
  5
9B3
  8
0
 10
103.3195380388954
 20
38.788185665724662
 30
0.0
 11
93.865544761185362
 21
38.788185665724619
 31
0.0
  0
LINE
  5
9B4
  8
3
 10
103.3195380388955
 20
37.435185665724617
 30
0.0
 11
92.865544761185376
 21
37.435185665724561
 31
0.0
  0
LINE
  5
9B5
  8
3
 10
103.3195380388954
 20
20.141185665724681
 30
0.0
 11
92.865544761185134
 21
20.141185665724691
 31
0.0
  0
LINE
  5
9B6
  8
0
 10
103.3195380388954
 20
18.788185665724718
 30
0.0
 11
93.865544761185134
 21
18.78818566572474
 31
0.0
  0
LINE
  5
9B7
  8
0
 10
103.3195380388954
 20
86.686024548731709
 30
0.0
 11
93.865544761185134
 21
86.686024548731751
 31
0.0
  0
LINE
  5
9B8
  8
3
 10
103.3195380388954
 20
88.039024548731703
 30
0.0
 11
92.865544761185134
 21
88.039024548731703
 31
0.0
  0
LINE
  5
9B9
  8
0
 10
103.3195380388954
 20
106.6860245487316
 30
0.0
 11
93.865544761185362
 21
106.6860245487316
 31
0.0
  0
LINE
  5
9BA
  8
3
 10
103.3195380388955
 20
105.3330245487316
 30
0.0
 11
92.865544761185376
 21
105.3330245487315
 31
0.0
  0
LINE
  5
9BB
  8
0
 10
103.3195380388954
 20
154.58386343173871
 30
0.0
 11
93.865544761185362
 21
154.58386343173871
 31
0.0
  0
LINE
  5
9BC
  8
3
 10
103.3195380388955
 20
155.9368634317388
 30
0.0
 11
92.865544761185376
 21
155.9368634317388
 31
0.0
  0
LINE
  5
9BD
  8
0
 10
103.3195380388954
 20
174.58386343173859
 30
0.0
 11
93.865544761185134
 21
174.58386343173859
 31
0.0
  0
LINE
  5
9BE
  8
3
 10
103.3195380388954
 20
173.2308634317387
 30
0.0
 11
92.865544761185134
 21
173.2308634317387
 31
0.0
  0
LINE
  5
9BF
  8
0
 10
196.42321241573239
 20
114.0065326244205
 30
0.0
 11
181.42321241573219
 21
105.3462785865761
 31
0.0
  0
CIRCLE
  5
9C0
  8
0
 10
196.42321241573219
 20
96.686024548731865
 30
0.0
 40
14.5
  0
LINE
  5
9C1
  8
0
 10
181.42321241573219
 20
105.3462785865761
 30
0.0
 11
181.42321241573219
 21
88.025770510887455
 31
0.0
  0
LINE
  5
9C2
  8
0
 10
211.42321241573219
 20
105.34627858657601
 30
0.0
 11
196.42321241573239
 21
114.0065326244205
 31
0.0
  0
LINE
  5
9C3
  8
0
 10
211.42321241573219
 20
88.025770510887611
 30
0.0
 11
211.42321241573219
 21
105.34627858657601
 31
0.0
  0
LINE
  5
9C4
  8
0
 10
196.42321241573219
 20
79.365516473043073
 30
0.0
 11
211.42321241573219
 21
88.025770510887611
 31
0.0
  0
LINE
  5
9C5
  8
0
 10
181.42321241573219
 20
88.025770510887455
 30
0.0
 11
196.42321241573219
 21
79.365516473043073
 31
0.0
  0
LINE
  5
9FD
  8
0
 10
132.8655447611853
 20
93.236024548731336
 30
0.0
 11
133.8655447611853
 21
93.236024548731336
 31
0.0
  0
LINE
  5
9FE
  8
0
 10
132.8655447611853
 20
100.1360245487313
 30
0.0
 11
133.8655447611853
 21
100.1360245487313
 31
0.0
  0
LINE
  5
9FF
  8
0
 10
132.8655447611853
 20
92.034425309610455
 30
0.0
 11
133.8655447611853
 21
92.034425309610455
 31
0.0
  0
LINE
  5
A00
  8
0
 10
132.8655447611853
 20
101.337623787852
 30
0.0
 11
133.8655447611853
 21
101.337623787852
 31
0.0
  0
LINE
  5
A01
  8
0
 10
133.8655447611853
 20
104.68602454873189
 30
0.0
 11
133.8655447611853
 21
100.1360245487313
 31
0.0
  0
LINE
  5
A02
  8
0
 10
132.8655447611853
 20
88.686024548731965
 30
0.0
 11
133.8655447611853
 21
88.686024548731965
 31
0.0
  0
LINE
  5
A03
  8
0
 10
133.8655447611853
 20
104.68602454873189
 30
0.0
 11
132.8655447611853
 21
104.68602454873189
 31
0.0
  0
ARC
  5
A05
  8
0
 10
190.25065361811949
 20
101.4546216055201
 30
0.0
 40
0.2
 50
142.31219666511541
 51
255.0000000000056
  0
ARC
  5
A06
  8
0
 10
190.2506536181196
 20
91.917427491943727
 30
0.0
 40
0.2
 50
104.99999999998769
 51
217.68780333488459
  0
LINE
  5
A07
  8
0
 10
194.39898416773269
 20
93.236024548731962
 30
0.0
 11
190.19888980909909
 21
92.110612657201614
 31
0.0
  0
LINE
  5
A08
  8
0
 10
194.39898416773269
 20
100.1360245487319
 30
0.0
 11
190.19888980909909
 21
101.2614364402623
 31
0.0
  0
ARC
  5
A09
  8
0
 10
196.42321241573231
 20
96.68602454873195
 30
0.0
 40
8.0
 50
217.68780333488459
 51
142.31219666511541
  0
LINE
  5
A0B
  8
0
 10
133.8655447611853
 20
93.236024548731336
 30
0.0
 11
133.8655447611853
 21
88.686024548731965
 31
0.0
  0
LINE
  5
A29
  8
0
 10
132.8655447611853
 20
172.58386343173891
 30
0.0
 11
133.8655447611853
 21
172.58386343173891
 31
0.0
  0
LINE
  5
A2A
  8
0
 10
132.86554476118539
 20
158.21130463412609
 30
0.0
 11
133.8655447611853
 21
158.21130463412609
 31
0.0
  0
LINE
  5
A2B
  8
0
 10
133.8655447611853
 20
172.58386343173891
 30
0.0
 11
133.8655447611853
 21
158.21130463412609
 31
0.0
  0
LINE
  5
A43
  8
0
 10
133.86554476118539
 20
35.16074446333706
 30
0.0
 11
132.86554476118539
 21
35.16074446333706
 31
0.0
  0
LINE
  5
A44
  8
0
 10
133.86554476118539
 20
20.788185665724171
 30
0.0
 11
132.8655447611853
 21
20.788185665724171
 31
0.0
  0
LINE
  5
A47
  8
0
 10
133.86554476118539
 20
20.788185665724171
 30
0.0
 11
133.86554476118539
 21
35.16074446333706
 31
0.0
  0
TEXT
  5
AEE
  8
0
 62
     3
 10
0.0
 20
0.0
 30
0.0
 40
5.0
  1
NDX20WN-M8-SUS
  7
STANDARD1
  0
ENDSEC
  0
EOF
