  0
SECTION
  2
HEADER
  9
$ACADVER
  1
AC1009
  9
$INSBASE
 10
0.0
 20
0.0
 30
0.0
  9
$EXTMIN
 10
0.0
 20
-1.4802182810368341
 30
0.0
  9
$EXTMAX
 10
188.10172651482711
 20
127.89826740976559
 30
0.0
  9
$LIMMIN
 10
0.0
 20
0.0
  9
$LIMMAX
 10
385.0
 20
270.0
  9
$ORTHOMODE
 70
     1
  9
$REGENMODE
 70
     1
  9
$FILLMODE
 70
     1
  9
$QTEXTMODE
 70
     0
  9
$MIRRTEXT
 70
     0
  9
$DRAGMODE
 70
     2
  9
$LTSCALE
 40
10.0
  9
$OSMODE
 70
  3071
  9
$ATTMODE
 70
     1
  9
$TEXTSIZE
 40
4.000000000000048
  9
$TRACEWID
 40
0.05
  9
$TEXTSTYLE
  7
STANDARD
  9
$CLAYER
  8
0
  9
$CELTYPE
  6
BYLAYER
  9
$CECOLOR
 62
   256
  9
$DIMSCALE
 40
1.0
  9
$DIMASZ
 40
3.0
  9
$DIMEXO
 40
2.0
  9
$DIMDLI
 40
0.38
  9
$DIMRND
 40
0.0
  9
$DIMDLE
 40
0.0
  9
$DIMEXE
 40
2.0
  9
$DIMTP
 40
0.0
  9
$DIMTM
 40
0.0
  9
$DIMTXT
 40
3.0
  9
$DIMCEN
 40
0.0
  9
$DIMTSZ
 40
0.0
  9
$DIMTOL
 70
     0
  9
$DIMLIM
 70
     0
  9
$DIMTIH
 70
     0
  9
$DIMTOH
 70
     0
  9
$DIMSE1
 70
     0
  9
$DIMSE2
 70
     0
  9
$DIMTAD
 70
     1
  9
$DIMZIN
 70
     0
  9
$DIMBLK
  1

  9
$DIMASO
 70
     1
  9
$DIMSHO
 70
     0
  9
$DIMPOST
  1

  9
$DIMAPOST
  1

  9
$DIMALT
 70
     0
  9
$DIMALTD
 70
     2
  9
$DIMALTF
 40
25.399999999999999
  9
$DIMLFAC
 40
1.0
  9
$DIMTOFL
 70
     1
  9
$DIMTVP
 40
1.6000000000000001
  9
$DIMTIX
 70
     1
  9
$DIMSOXD
 70
     0
  9
$DIMSAH
 70
     0
  9
$DIMBLK1
  1

  9
$DIMBLK2
  1

  9
$DIMSTYLE
  2
STANDARD
  9
$DIMCLRD
 70
     0
  9
$DIMCLRE
 70
     0
  9
$DIMCLRT
 70
     0
  9
$DIMTFAC
 40
1.0
  9
$DIMGAP
 40
1.0
  9
$LUNITS
 70
     2
  9
$LUPREC
 70
     4
  9
$SKETCHINC
 40
0.1
  9
$FILLETRAD
 40
0.2
  9
$AUNITS
 70
     0
  9
$AUPREC
 70
     4
  9
$MENU
  1
E:\r13\win\SUPPORT\ACAD
  9
$ELEVATION
 40
0.0
  9
$PELEVATION
 40
0.0
  9
$THICKNESS
 40
0.0
  9
$LIMCHECK
 70
     0
  9
$BLIPMODE
 70
     0
  9
$CHAMFERA
 40
0.0
  9
$CHAMFERB
 40
0.0
  9
$SKPOLY
 70
     0
  9
$TDCREATE
 40
2450280.598206134
  9
$TDUPDATE
 40
2456597.6882211352
  9
$TDINDWG
 40
0.0784531019
  9
$TDUSRTIMER
 40
0.0784531019
  9
$USRTIMER
 70
     1
  9
$ANGBASE
 50
0.0
  9
$ANGDIR
 70
     0
  9
$PDMODE
 70
     0
  9
$PDSIZE
 40
0.0
  9
$PLINEWID
 40
0.0
  9
$COORDS
 70
     1
  9
$SPLFRAME
 70
     0
  9
$SPLINETYPE
 70
     6
  9
$SPLINESEGS
 70
     8
  9
$ATTDIA
 70
     0
  9
$ATTREQ
 70
     1
  9
$HANDLING
 70
     1
  9
$HANDSEED
  5
B47
  9
$SURFTAB1
 70
     6
  9
$SURFTAB2
 70
     6
  9
$SURFTYPE
 70
     6
  9
$SURFU
 70
     6
  9
$SURFV
 70
     6
  9
$UCSNAME
  2

  9
$UCSORG
 10
0.0
 20
0.0
 30
0.0
  9
$UCSXDIR
 10
1.0
 20
0.0
 30
0.0
  9
$UCSYDIR
 10
0.0
 20
1.0
 30
0.0
  9
$PUCSNAME
  2

  9
$PUCSORG
 10
0.0
 20
0.0
 30
0.0
  9
$PUCSXDIR
 10
1.0
 20
0.0
 30
0.0
  9
$PUCSYDIR
 10
0.0
 20
1.0
 30
0.0
  9
$USERI1
 70
     3
  9
$USERI2
 70
     1
  9
$USERI3
 70
     1
  9
$USERI4
 70
     0
  9
$USERI5
 70
     0
  9
$USERR1
 40
1.0
  9
$USERR2
 40
3.0
  9
$USERR3
 40
3.0
  9
$USERR4
 40
3.0
  9
$USERR5
 40
10.0
  9
$WORLDVIEW
 70
     1
  9
$SHADEDGE
 70
     3
  9
$SHADEDIF
 70
    70
  9
$TILEMODE
 70
     1
  9
$MAXACTVP
 70
    16
  9
$PLIMCHECK
 70
     0
  9
$PEXTMIN
 10
1.0000000000000000E+020
 20
1.0000000000000000E+020
 30
1.0000000000000000E+020
  9
$PEXTMAX
 10
-1.0000000000000000E+020
 20
-1.0000000000000000E+020
 30
-1.0000000000000000E+020
  9
$PLIMMIN
 10
0.0
 20
0.0
  9
$PLIMMAX
 10
12.0
 20
9.0
  9
$UNITMODE
 70
     0
  9
$VISRETAIN
 70
     0
  9
$PLINEGEN
 70
     0
  9
$PSLTSCALE
 70
     0
  0
ENDSEC
  0
SECTION
  2
TABLES
  0
TABLE
  2
VPORT
 70
     1
  0
VPORT
  2
*ACTIVE
 70
     0
 10
0.0
 20
0.0
 11
1.0
 21
1.0
 12
192.49412581440311
 22
134.84202934784381
 13
0.0
 23
0.0
 14
5.0
 24
5.0
 15
10.0
 25
10.0
 16
0.0
 26
0.0
 36
1.0
 17
0.0
 27
0.0
 37
0.0
 40
275.78743625673241
 41
2.304913294797688
 42
50.0
 43
0.0
 44
0.0
 50
0.0
 51
0.0
 71
     0
 72
   500
 73
     1
 74
     0
 75
     0
 76
     0
 77
     0
 78
     2
  0
ENDTAB
  0
TABLE
  2
LTYPE
 70
     3
  0
LTYPE
  2
CONTINUOUS
 70
     0
  3
Solid Line
 72
    65
 73
     0
 40
0.0
  0
LTYPE
  2
CENTER
 70
     0
  3
____ _ ____ _ ____ _ ____ _ ____ _ ____ _ ____
 72
    65
 73
     4
 40
2.0
 49
1.25
 49
-0.25
 49
0.25
 49
-0.25
  0
LTYPE
  2
PHANTOM2
 70
     0
  3
___ _ _ ___ _ _ ___ _ _ ___ _ _
 72
    65
 73
     6
 40
1.25
 49
0.625
 49
-0.125
 49
0.125
 49
-0.125
 49
0.125
 49
-0.125
  0
ENDTAB
  0
TABLE
  2
LAYER
 70
     4
  0
LAYER
  2
0
 70
     0
 62
     7
  6
CONTINUOUS
  0
LAYER
  2
1
 70
     0
 62
     1
  6
CENTER
  0
LAYER
  2
3
 70
     0
 62
     3
  6
CONTINUOUS
  0
LAYER
  2
DEFPOINTS
 70
     0
 62
     7
  6
CONTINUOUS
  0
ENDTAB
  0
TABLE
  2
STYLE
 70
     2
  0
STYLE
  2
STANDARD
 70
     0
 40
0.0
 41
1.0
 50
0.0
 71
     0
 42
4.000000000000048
  3
SIMPLEX
  4
BIGFONT
  0
STYLE
  2
STANDARD1
 70
     0
 40
0.0
 41
1.0
 50
0.0
 71
     0
 42
3.0
  3
txt
  4

  0
ENDTAB
  0
TABLE
  2
VIEW
 70
     0
  0
ENDTAB
  0
TABLE
  2
UCS
 70
     0
  0
ENDTAB
  0
TABLE
  2
APPID
 70
     3
  0
APPID
  2
ACAD
 70
     0
  0
APPID
  2
ACAD_MLEADERVER
 70
     0
  0
APPID
  2
ACAD_NAV_VCDISPLAY
 70
     0
  0
ENDTAB
  0
TABLE
  2
DIMSTYLE
 70
     1
  0
DIMSTYLE
  2
STANDARD
 70
     0
  3

  4

  5

  6

  7

 40
1.0
 41
0.18
 42
0.0625
 43
0.38
 44
0.18
 45
0.0
 46
0.0
 47
0.0
 48
0.0
140
0.18
141
0.09
142
0.0
143
25.399999999999999
144
1.0
145
0.0
146
1.0
147
0.09
 71
     0
 72
     0
 73
     1
 74
     1
 75
     0
 76
     0
 77
     0
 78
     0
170
     0
171
     2
172
     0
173
     0
174
     0
175
     0
176
     0
177
     0
178
     0
  0
ENDTAB
  0
ENDSEC
  0
SECTION
  2
BLOCKS
  0
BLOCK
  8
0
  2
$MODEL_SPACE
 70
     0
 10
0.0
 20
0.0
 30
0.0
  3
$MODEL_SPACE
  1

  0
ENDBLK
  5
5A1
  8
0
  0
BLOCK
 67
     1
  8
0
  2
$PAPER_SPACE
 70
     0
 10
0.0
 20
0.0
 30
0.0
  3
$PAPER_SPACE
  1

  0
ENDBLK
  5
59F
 67
     1
  8
0
  0
ENDSEC
  0
SECTION
  2
ENTITIES
  0
LINE
  5
36A
  8
0
 10
7.9906449542723967
 20
63.81788192886512
 30
0.0
 11
14.990644954272399
 21
59.776430044537001
 31
0.0
  0
LINE
  5
36B
  8
0
 10
14.990644954272399
 20
59.776430044537001
 30
0.0
 11
21.990644954271492
 21
63.81788192886512
 31
0.0
  0
LINE
  5
36C
  8
0
 10
21.990644954271492
 20
63.81788192886512
 30
0.0
 11
21.990644954271492
 21
71.900785697520462
 31
0.0
  0
LINE
  5
36D
  8
0
 10
21.990644954271492
 20
71.900785697520462
 30
0.0
 11
14.990644954271479
 21
75.942237581846769
 31
0.0
  0
LINE
  5
36E
  8
0
 10
14.990644954271479
 20
75.942237581846769
 30
0.0
 11
7.9906449542705777
 21
71.900785697518643
 31
0.0
  0
LINE
  5
36F
  8
0
 10
7.9906449542705777
 20
71.900785697518643
 30
0.0
 11
7.9906449542723967
 21
63.81788192886512
 31
0.0
  0
CIRCLE
  5
371
  8
0
 10
14.990644954271479
 20
67.859333813191427
 30
0.0
 40
6.000000000301398
  0
CIRCLE
  5
372
  8
3
 10
14.990644954271479
 20
67.859333813191427
 30
0.0
 40
5.052943654997633
  0
CIRCLE
  5
373
  8
0
 10
14.990644954271479
 20
67.859333813191427
 30
0.0
 40
3.0
  0
LINE
  5
374
  8
1
 10
1.9077411856161459
 20
67.859333813191427
 30
0.0
 11
28.073548722926802
 21
67.859333813191427
 31
0.0
  0
LINE
  5
375
  8
1
 10
14.990644954271479
 20
80.942237581846769
 30
0.0
 11
14.990644954271479
 21
54.776430044536077
 31
0.0
  0
LINE
  5
376
  8
0
 10
106.99064495427019
 20
74.859333807495091
 30
0.0
 11
106.3654301686036
 21
75.942237581913162
 31
0.0
  0
ARC
  5
377
  8
0
 10
99.67803762574087
 20
74.859333807495375
 30
0.0
 40
7.3126073285298174
 50
336.13507441578679
 51
359.99999999997351
  0
ARC
  5
378
  8
0
 10
99.67803762574087
 20
60.859333818887542
 30
0.0
 40
7.3126073285298174
 50
0.0000000000265001
 51
23.864925584213289
  0
ARC
  5
379
  8
0
 10
93.615859804342975
 20
67.859333813191483
 30
0.0
 40
13.374785149927391
 50
342.41204613394399
 51
17.587953866056029
  0
LINE
  5
37A
  8
0
 10
106.99064495427019
 20
60.859333818887819
 30
0.0
 11
106.3654301686036
 21
59.776430044469691
 31
0.0
  0
LINE
  5
37F
  8
0
 10
106.99064495427029
 20
74.859333807493954
 30
0.0
 11
106.99064495427029
 21
60.859333818887819
 31
0.0
  0
LINE
  5
380
  8
0
 10
98.990644954270337
 20
75.942237581913162
 30
0.0
 11
98.990644954270337
 21
59.776430044469691
 31
0.0
  0
LINE
  5
381
  8
0
 10
79.990644954270294
 20
73.859333813239061
 30
0.0
 11
79.990644954270294
 21
61.859333813143841
 31
0.0
  0
LINE
  5
382
  8
0
 10
78.990644954270294
 20
72.809333813203125
 30
0.0
 11
78.990644954270294
 21
62.909333813179778
 31
0.0
  0
LINE
  5
383
  8
0
 10
74.790644954270306
 20
70.859333813191512
 30
0.0
 11
74.790644954270306
 21
64.859333813191455
 31
0.0
  0
LINE
  5
385
  8
0
 10
73.409570349072453
 20
65.656697608273419
 30
0.0
 11
74.790644954270306
 21
64.859333813191455
 31
0.0
  0
LINE
  5
386
  8
0
 10
74.790644954270277
 20
64.859333813191427
 30
0.0
 11
78.990644954270294
 21
64.859333813191427
 31
0.0
  0
LINE
  5
387
  8
0
 10
78.990644954270294
 20
62.909333813179778
 30
0.0
 11
79.990644954270294
 21
61.859333813143841
 31
0.0
  0
LINE
  5
388
  8
0
 10
98.990644954270337
 20
59.776430044469691
 30
0.0
 11
106.3654301686036
 21
59.776430044469691
 31
0.0
  0
LINE
  5
389
  8
0
 10
106.3654301686036
 20
63.817881928845168
 30
0.0
 11
98.990644954270337
 21
63.817881928845111
 31
0.0
  0
LINE
  5
38A
  8
0
 10
106.3654301686036
 20
71.900785697537785
 30
0.0
 11
98.990644954270337
 21
71.900785697537742
 31
0.0
  0
LINE
  5
38B
  8
0
 10
98.990644954270337
 20
75.942237581913162
 30
0.0
 11
106.3654301686036
 21
75.942237581913218
 31
0.0
  0
LINE
  5
38C
  8
0
 10
78.990644954270294
 20
72.809333813203125
 30
0.0
 11
79.990644954270294
 21
73.859333813239061
 31
0.0
  0
LINE
  5
38D
  8
0
 10
74.790644954270277
 20
70.859333813191427
 30
0.0
 11
78.990644954270294
 21
70.859333813191427
 31
0.0
  0
LINE
  5
38E
  8
0
 10
73.409570349072453
 20
70.06197001810952
 30
0.0
 11
74.790644954270306
 21
70.859333813191455
 31
0.0
  0
LINE
  5
391
  8
1
 10
175.01882274617199
 20
80.942237581846712
 30
0.0
 11
175.01882274617199
 21
54.77643004453558
 31
0.0
  0
LINE
  5
392
  8
1
 10
161.93591897751679
 20
67.859333813191427
 30
0.0
 11
188.10172651482711
 21
67.859333813191427
 31
0.0
  0
LINE
  5
3A7
  8
0
 10
114.99064495427029
 20
69.85933381319137
 30
0.0
 11
114.99064495427029
 21
65.859333813191355
 31
0.0
  0
LINE
  5
3A8
  8
0
 10
107.6906449542704
 20
64.859333813191355
 30
0.0
 11
113.99064495427029
 21
64.85933381319137
 31
0.0
  0
LINE
  5
3A9
  8
3
 10
106.99064495427029
 20
65.400833813191298
 30
0.0
 11
114.53214495427019
 21
65.400833813191298
 31
0.0
  0
LINE
  5
3AA
  8
3
 10
106.99064495427029
 20
70.317833813191442
 30
0.0
 11
114.53214495427019
 21
70.317833813191442
 31
0.0
  0
LINE
  5
3AB
  8
0
 10
107.6906449542704
 20
70.859333813191355
 30
0.0
 11
113.99064495427029
 21
70.859333813191355
 31
0.0
  0
LINE
  5
3AC
  8
0
 10
113.99064495427029
 20
70.859333813191355
 30
0.0
 11
114.99064495427029
 21
69.85933381319137
 31
0.0
  0
LINE
  5
3AD
  8
0
 10
114.99064495427029
 20
65.859333813191355
 30
0.0
 11
113.99064495427029
 21
64.85933381319137
 31
0.0
  0
LINE
  5
3AE
  8
0
 10
113.99064495427029
 20
64.85933381319137
 30
0.0
 11
113.99064495427029
 21
70.859333813191355
 31
0.0
  0
LINE
  5
3C1
  8
0
 10
182.01882274617199
 20
71.900785697520462
 30
0.0
 11
175.01882274617199
 21
75.942237581846769
 31
0.0
  0
LINE
  5
3C2
  8
0
 10
175.01882274617199
 20
75.942237581846769
 30
0.0
 11
168.01882274617111
 21
71.900785697518643
 31
0.0
  0
LINE
  5
3C3
  8
0
 10
168.01882274617111
 20
71.900785697518643
 30
0.0
 11
168.0188227461729
 21
63.81788192886512
 31
0.0
  0
LINE
  5
3C4
  8
0
 10
168.0188227461729
 20
63.81788192886512
 30
0.0
 11
175.0188227461729
 21
59.776430044537001
 31
0.0
  0
LINE
  5
3C5
  8
0
 10
175.0188227461729
 20
59.776430044537001
 30
0.0
 11
182.01882274617199
 21
63.81788192886512
 31
0.0
  0
LINE
  5
3C6
  8
0
 10
182.01882274617199
 20
63.81788192886512
 30
0.0
 11
182.01882274617199
 21
71.900785697520462
 31
0.0
  0
CIRCLE
  5
3C7
  8
0
 10
175.01882274617199
 20
67.859333813191427
 30
0.0
 40
6.9999999943025406
  0
CIRCLE
  5
3C8
  8
0
 10
175.01882274617199
 20
67.859333813191427
 30
0.0
 40
3.0
  0
CIRCLE
  5
3C9
  8
3
 10
175.01882274617199
 20
67.859333813191427
 30
0.0
 40
2.458499999999999
  0
LINE
  5
410
  8
0
 10
95.990644954270323
 20
73.859333813188897
 30
0.0
 11
95.990644954270337
 21
61.859333813193928
 31
0.0
  0
LINE
  5
411
  8
3
 10
95.990644954270323
 20
72.912277468189046
 30
0.0
 11
97.630994661431586
 21
73.859333813183696
 31
0.0
  0
LINE
  5
412
  8
3
 10
95.990644954270337
 20
62.806390158193452
 30
0.0
 11
97.630994661431174
 21
61.859333813199079
 31
0.0
  0
LINE
  5
41C
  8
1
 10
67.990644954270408
 20
67.859333813156283
 30
0.0
 11
119.99064495427071
 21
67.859333813155928
 31
0.0
  0
LINE
  5
41D
  8
1
 10
67.990644954270408
 20
14.820400216546149
 30
0.0
 11
119.99064495427029
 21
14.82040021654578
 31
0.0
  0
LINE
  5
41E
  8
0
 10
107.6906449542703
 20
11.8204002165812
 30
0.0
 11
113.99064495427029
 21
11.82040021658122
 31
0.0
  0
LINE
  5
41F
  8
3
 10
107.6906449542703
 20
12.36190021658115
 30
0.0
 11
114.53214495427019
 21
12.36190021658115
 31
0.0
  0
LINE
  5
420
  8
3
 10
107.6906449542703
 20
17.278900216581292
 30
0.0
 11
114.53214495427019
 21
17.278900216581292
 31
0.0
  0
LINE
  5
421
  8
0
 10
107.6906449542703
 20
17.82040021658122
 30
0.0
 11
113.99064495427029
 21
17.82040021658122
 31
0.0
  0
LINE
  5
42D
  8
0
 10
79.990644954270294
 20
20.820400216628911
 30
0.0
 11
79.990644954270294
 21
8.8204002165336988
 31
0.0
  0
LINE
  5
42E
  8
0
 10
78.990644954270294
 20
19.770400216592972
 30
0.0
 11
78.990644954270294
 21
9.8704002165696352
 31
0.0
  0
LINE
  5
42F
  8
0
 10
78.990644954270294
 20
9.8704002165696352
 30
0.0
 11
79.990644954270294
 21
8.8204002165336988
 31
0.0
  0
LINE
  5
430
  8
0
 10
78.990644954270294
 20
19.770400216592972
 30
0.0
 11
79.990644954270294
 21
20.820400216628911
 31
0.0
  0
LINE
  5
434
  8
0
 10
95.990644954270323
 20
20.820400216578751
 30
0.0
 11
95.990644954270337
 21
8.8204002165837778
 31
0.0
  0
LINE
  5
43F
  8
0
 10
114.99064495427029
 20
16.82040021658122
 30
0.0
 11
114.99064495427029
 21
12.82040021658122
 31
0.0
  0
LINE
  5
440
  8
0
 10
113.99064495427029
 20
11.82040021658122
 30
0.0
 11
113.99064495427029
 21
17.82040021658122
 31
0.0
  0
LINE
  5
441
  8
0
 10
114.99064495427029
 20
12.82040021658122
 30
0.0
 11
113.99064495427029
 21
11.82040021658122
 31
0.0
  0
LINE
  5
442
  8
0
 10
113.99064495427029
 20
17.82040021658122
 30
0.0
 11
114.99064495427029
 21
16.82040021658122
 31
0.0
  0
LINE
  5
443
  8
0
 10
106.99064495427029
 20
21.551169447313711
 30
0.0
 11
106.99064495427029
 21
8.0896309857781858
 31
0.0
  0
LINE
  5
444
  8
0
 10
98.990644954270337
 20
21.820400216545679
 30
0.0
 11
98.990644954270294
 21
7.8204002165461901
 31
0.0
  0
ARC
  5
445
  8
0
 10
96.725963736143044
 20
18.320400216545679
 30
0.0
 40
10.10924076103711
 50
339.7438419995828
 51
20.25615800041717
  0
LINE
  5
446
  8
0
 10
106.8352044971801
 20
7.8204002165461901
 30
0.0
 11
98.990644954270294
 21
7.8204002165461901
 31
0.0
  0
LINE
  5
447
  8
0
 10
106.2099897148403
 20
14.820400216545931
 30
0.0
 11
98.990644954270266
 21
14.820400216545931
 31
0.0
  0
ARC
  5
448
  8
0
 10
96.725963736143044
 20
11.32040021654619
 30
0.0
 40
10.10924076103711
 50
339.7438419995828
 51
20.25615800041717
  0
LINE
  5
449
  8
0
 10
106.8352044971801
 20
7.8204002165461901
 30
0.0
 11
106.99064495427029
 21
8.0896309857781858
 31
0.0
  0
LINE
  5
44A
  8
0
 10
106.8352044971801
 20
21.820400216545679
 30
0.0
 11
98.990644954270337
 21
21.820400216545679
 31
0.0
  0
LINE
  5
44B
  8
0
 10
106.8352044971801
 20
21.820400216545679
 30
0.0
 11
106.99064495427029
 21
21.551169447313711
 31
0.0
  0
LINE
  5
44C
  8
1
 10
67.990644954270408
 20
120.89826740976569
 30
0.0
 11
119.990644954271
 21
120.89826740976611
 31
0.0
  0
LINE
  5
44D
  8
0
 10
107.6906449542703
 20
123.89826740973059
 30
0.0
 11
113.99064495427029
 21
123.89826740973059
 31
0.0
  0
LINE
  5
44E
  8
3
 10
107.6906449542703
 20
123.35676740973069
 30
0.0
 11
114.53214495427019
 21
123.35676740973069
 31
0.0
  0
LINE
  5
44F
  8
3
 10
107.6906449542703
 20
118.43976740973061
 30
0.0
 11
114.53214495427029
 21
118.43976740973051
 31
0.0
  0
LINE
  5
450
  8
0
 10
107.6906449542703
 20
117.89826740973059
 30
0.0
 11
113.99064495427029
 21
117.89826740973059
 31
0.0
  0
LINE
  5
451
  8
0
 10
79.990644954270294
 20
114.8982674096829
 30
0.0
 11
79.990644954270294
 21
126.8982674097781
 31
0.0
  0
LINE
  5
452
  8
0
 10
78.990644954270294
 20
115.94826740971889
 30
0.0
 11
78.990644954270294
 21
125.84826740974221
 31
0.0
  0
LINE
  5
453
  8
0
 10
95.990644954270323
 20
114.89826740973309
 30
0.0
 11
95.990644954270337
 21
126.89826740972801
 31
0.0
  0
LINE
  5
454
  8
0
 10
106.99064495427029
 20
114.1674981789981
 30
0.0
 11
106.99064495427029
 21
127.6290366405337
 31
0.0
  0
LINE
  5
455
  8
0
 10
98.990644954270337
 20
113.89826740976611
 30
0.0
 11
98.990644954270294
 21
127.89826740976559
 31
0.0
  0
ARC
  5
456
  8
0
 10
96.725963736143044
 20
124.39826740976559
 30
0.0
 40
10.10924076103711
 50
339.7438419995828
 51
20.256158000417141
  0
LINE
  5
45E
  8
0
 10
78.990644954270294
 20
125.84826740974221
 30
0.0
 11
79.990644954270294
 21
126.8982674097781
 31
0.0
  0
LINE
  5
45F
  8
0
 10
106.8352044971801
 20
127.89826740976559
 30
0.0
 11
98.990644954270294
 21
127.89826740976559
 31
0.0
  0
LINE
  5
461
  8
0
 10
106.8352044971801
 20
127.89826740976559
 30
0.0
 11
106.99064495427029
 21
127.6290366405337
 31
0.0
  0
LINE
  5
466
  8
0
 10
78.990644954270294
 20
115.94826740971889
 30
0.0
 11
79.990644954270294
 21
114.8982674096829
 31
0.0
  0
LINE
  5
467
  8
0
 10
106.2099897148403
 20
120.89826740976589
 30
0.0
 11
98.990644954270266
 21
120.89826740976589
 31
0.0
  0
LINE
  5
468
  8
0
 10
106.8352044971801
 20
113.89826740976611
 30
0.0
 11
98.990644954270337
 21
113.89826740976611
 31
0.0
  0
ARC
  5
46A
  8
0
 10
96.725963736143044
 20
117.39826740976611
 30
0.0
 40
10.10924076103711
 50
339.7438419995828
 51
20.256158000417141
  0
LINE
  5
46B
  8
0
 10
106.8352044971801
 20
113.89826740976611
 30
0.0
 11
106.99064495427029
 21
114.1674981789981
 31
0.0
  0
LINE
  5
46C
  8
0
 10
114.99064495427029
 20
118.89826740973059
 30
0.0
 11
114.99064495427029
 21
122.89826740973059
 31
0.0
  0
LINE
  5
46D
  8
0
 10
113.99064495427029
 20
123.89826740973059
 30
0.0
 11
113.99064495427029
 21
117.89826740973059
 31
0.0
  0
LINE
  5
46E
  8
0
 10
114.99064495427029
 20
122.89826740973059
 30
0.0
 11
113.99064495427029
 21
123.89826740973059
 31
0.0
  0
LINE
  5
46F
  8
0
 10
113.99064495427029
 20
117.89826740973059
 30
0.0
 11
114.99064495427029
 21
118.89826740973059
 31
0.0
  0
ARC
  5
5F0
  8
0
 10
78.990644954270294
 20
67.859333813191455
 30
0.0
 40
6.0
 50
158.4627507536226
 51
201.53724924637649
  0
LINE
  5
5F1
  8
0
 10
73.409570349072453
 20
70.06197001810952
 30
0.0
 11
73.409570349072425
 21
65.656697608273504
 31
0.0
  0
CIRCLE
  5
5F3
  8
0
 10
14.990644954271479
 20
67.859333813191427
 30
0.0
 40
2.2026362049180639
  0
LINE
  5
5F4
  8
0
 10
73.409570349072453
 20
123.1009036146486
 30
0.0
 11
73.409570349072425
 21
118.6956312048126
 31
0.0
  0
ARC
  5
5F5
  8
0
 10
78.990644954270294
 20
120.89826740973049
 30
0.0
 40
6.0
 50
158.4627507536226
 51
201.53724924637649
  0
LINE
  5
5F6
  8
0
 10
73.409570349072453
 20
123.1009036146486
 30
0.0
 11
74.790644954270306
 21
123.89826740973049
 31
0.0
  0
LINE
  5
5F7
  8
0
 10
74.790644954270277
 20
123.89826740973049
 30
0.0
 11
78.990644954270294
 21
123.89826740973049
 31
0.0
  0
LINE
  5
5F8
  8
0
 10
74.790644954270277
 20
117.89826740973049
 30
0.0
 11
78.990644954270294
 21
117.89826740973049
 31
0.0
  0
LINE
  5
5F9
  8
0
 10
73.409570349072453
 20
118.6956312048125
 30
0.0
 11
74.790644954270306
 21
117.89826740973049
 31
0.0
  0
LINE
  5
5FA
  8
0
 10
74.790644954270306
 20
123.89826740973059
 30
0.0
 11
74.790644954270306
 21
117.89826740973049
 31
0.0
  0
LINE
  5
5FB
  8
0
 10
74.790644954270306
 20
17.820400216546119
 30
0.0
 11
74.790644954270306
 21
11.82040021654606
 31
0.0
  0
LINE
  5
5FC
  8
0
 10
73.409570349072453
 20
12.617764011628021
 30
0.0
 11
74.790644954270306
 21
11.82040021654606
 31
0.0
  0
LINE
  5
5FD
  8
0
 10
74.790644954270277
 20
11.82040021654603
 30
0.0
 11
78.990644954270294
 21
11.82040021654603
 31
0.0
  0
LINE
  5
5FE
  8
0
 10
74.790644954270277
 20
17.82040021654603
 30
0.0
 11
78.990644954270294
 21
17.82040021654603
 31
0.0
  0
LINE
  5
5FF
  8
0
 10
73.409570349072453
 20
17.023036421464131
 30
0.0
 11
74.790644954270306
 21
17.820400216546059
 31
0.0
  0
ARC
  5
600
  8
0
 10
78.990644954270294
 20
14.82040021654606
 30
0.0
 40
6.0
 50
158.4627507536226
 51
201.53724924637649
  0
LINE
  5
601
  8
0
 10
73.409570349072453
 20
17.023036421464131
 30
0.0
 11
73.409570349072425
 21
12.617764011628109
 31
0.0
  0
LINE
  5
6F0
  8
0
 10
79.990644954270593
 20
20.820400216629231
 30
0.0
 11
98.990644954270337
 21
20.820400216569261
 31
0.0
  0
LINE
  5
6F3
  8
0
 10
79.990644954270294
 20
8.8204002165336988
 30
0.0
 11
98.990644954270351
 21
8.8204002165931854
 31
0.0
  0
LINE
  5
6F4
  8
0
 10
79.990644954270309
 20
61.85933381314382
 30
0.0
 11
98.990644954270351
 21
61.859333813203328
 31
0.0
  0
LINE
  5
6F5
  8
3
 10
79.088686530444292
 20
62.806390158193558
 30
0.0
 11
95.990644954270365
 21
62.80639015819348
 31
0.0
  0
LINE
  5
6F6
  8
0
 10
79.990644954270635
 20
73.859333813239417
 30
0.0
 11
98.990644954270337
 21
73.859333813179404
 31
0.0
  0
LINE
  5
6F7
  8
3
 10
79.088686530443994
 20
72.912277468189046
 30
0.0
 11
95.990644954270337
 21
72.912277468189046
 31
0.0
  0
LINE
  5
6F8
  8
0
 10
79.990644954270294
 20
126.8982674097781
 30
0.0
 11
98.990644954270351
 21
126.8982674097187
 31
0.0
  0
LINE
  5
6FB
  8
0
 10
79.990644954270692
 20
114.8982674096825
 30
0.0
 11
98.990644954270337
 21
114.8982674097426
 31
0.0
  0
ARC
  5
9B6
  8
0
 10
170.48737826512939
 20
64.239111317923545
 30
0.0
 40
0.2
 50
104.99999999999569
 51
218.62175500469979
  0
ARC
  5
9B7
  8
0
 10
170.48737826512939
 20
71.479556308459266
 30
0.0
 40
0.2
 50
141.3782449953103
 51
255.00000000000219
  0
LINE
  5
9B9
  8
0
 10
173.52215979146229
 20
70.459333813191506
 30
0.0
 11
170.43561445610891
 21
71.286371143201507
 31
0.0
  0
LINE
  5
9BA
  8
0
 10
173.52215979146229
 20
65.259333813191347
 30
0.0
 11
170.43561445610891
 21
64.432296483181347
 31
0.0
  0
ARC
  5
9BB
  8
0
 10
175.01882274617199
 20
67.859333813191427
 30
0.0
 40
6.0
 50
218.62175500469499
 51
141.37824499530549
  0
LINE
  5
9BC
  8
0
 10
106.99064495427029
 20
65.259333813191461
 30
0.0
 11
107.6906449542704
 21
65.259333813191461
 31
0.0
  0
LINE
  5
9BD
  8
0
 10
106.99064495427029
 20
70.459333813191506
 30
0.0
 11
107.6906449542704
 21
70.459333813191506
 31
0.0
  0
LINE
  5
9BE
  8
0
 10
106.99064495427029
 20
71.363352921096578
 30
0.0
 11
107.6906449542704
 21
71.363352921096578
 31
0.0
  0
LINE
  5
9BF
  8
0
 10
106.99064495427029
 20
64.355314705286389
 30
0.0
 11
107.6906449542704
 21
64.355314705286389
 31
0.0
  0
LINE
  5
9C0
  8
0
 10
107.6906449542704
 20
73.859333813191483
 30
0.0
 11
106.99064495427029
 21
73.859333813191483
 31
0.0
  0
LINE
  5
9C1
  8
0
 10
107.6906449542704
 20
61.85933381319149
 30
0.0
 11
107.6906449542704
 21
65.259333813191461
 31
0.0
  0
LINE
  5
9C2
  8
0
 10
106.99064495427029
 20
61.85933381319149
 30
0.0
 11
107.6906449542704
 21
61.85933381319149
 31
0.0
  0
LINE
  5
9C4
  8
0
 10
107.6906449542704
 20
70.459333813191506
 30
0.0
 11
107.6906449542704
 21
73.859333813191483
 31
0.0
  0
LINE
  5
9D7
  8
0
 10
106.99064495427029
 20
116.1668229287591
 30
0.0
 11
107.6906449542703
 21
116.1668229287591
 31
0.0
  0
LINE
  5
9D8
  8
0
 10
107.6906449542703
 20
126.8982674098016
 30
0.0
 11
106.99064495427029
 21
126.8982674098016
 31
0.0
  0
LINE
  5
9D9
  8
0
 10
107.6906449542703
 20
116.1668229287591
 30
0.0
 11
107.6906449542703
 21
126.8982674098016
 31
0.0
  0
LINE
  5
9ED
  8
0
 10
107.6906449542703
 20
19.55184469762375
 30
0.0
 11
107.6906449542703
 21
8.8204002165812483
 31
0.0
  0
LINE
  5
9EE
  8
0
 10
107.6906449542703
 20
8.8204002165812483
 30
0.0
 11
106.99064495427029
 21
8.8204002165812483
 31
0.0
  0
LINE
  5
9EF
  8
0
 10
106.99064495427029
 20
19.55184469762375
 30
0.0
 11
107.6906449542703
 21
19.55184469762375
 31
0.0
  0
LINE
  5
A0F
  8
3
 10
79.088686530443908
 20
115.8453237548033
 30
0.0
 11
95.990644954269996
 21
115.8453237548032
 31
0.0
  0
LINE
  5
A10
  8
3
 10
95.990644954269953
 20
115.8453237548032
 30
0.0
 11
97.630994661430776
 21
114.89826740980889
 31
0.0
  0
LINE
  5
A11
  8
3
 10
79.088686530443624
 20
125.9512110647988
 30
0.0
 11
95.990644954269968
 21
125.9512110647988
 31
0.0
  0
LINE
  5
A12
  8
3
 10
95.990644954269925
 20
125.9512110647988
 30
0.0
 11
97.630994661431188
 21
126.8982674097935
 31
0.0
  0
LINE
  5
A13
  8
3
 10
79.088686530444292
 20
9.7674565615834084
 30
0.0
 11
95.990644954270365
 21
9.7674565615833302
 31
0.0
  0
LINE
  5
A14
  8
3
 10
95.990644954270337
 20
9.7674565615833018
 30
0.0
 11
97.630994661431174
 21
8.8204002165889293
 31
0.0
  0
LINE
  5
A15
  8
3
 10
79.088686530443994
 20
19.873343871578889
 30
0.0
 11
95.990644954270337
 21
19.873343871578889
 31
0.0
  0
LINE
  5
A16
  8
3
 10
95.990644954270323
 20
19.873343871578889
 30
0.0
 11
97.630994661431586
 21
20.82040021657355
 31
0.0
  0
TEXT
  5
ABB
  8
0
 62
     3
 10
0.0
 20
0.0
 30
0.0
 40
5.0
  1
NDX12N
  7
STANDARD1
  0
ENDSEC
  0
EOF
