  0
SECTION
  2
HEADER
  9
$ACADVER
  1
AC1009
  9
$INSBASE
 10
0.0
 20
0.0
 30
0.0
  9
$EXTMIN
 10
0.0
 20
-1.4802182810368341
 30
0.0
  9
$EXTMAX
 10
208.0
 20
66.5
 30
0.0
  9
$LIMMIN
 10
0.0
 20
0.0
  9
$LIMMAX
 10
187.5
 20
135.0
  9
$ORTHOMODE
 70
     1
  9
$REGENMODE
 70
     1
  9
$FILLMODE
 70
     1
  9
$QTEXTMODE
 70
     0
  9
$MIRRTEXT
 70
     0
  9
$DRAGMODE
 70
     2
  9
$LTSCALE
 40
5.0
  9
$OSMODE
 70
  3071
  9
$ATTMODE
 70
     1
  9
$TEXTSIZE
 40
0.2
  9
$TRACEWID
 40
0.05
  9
$TEXTSTYLE
  7
STANDARD
  9
$CLAYER
  8
0
  9
$CELTYPE
  6
BYLAYER
  9
$CECOLOR
 62
   256
  9
$DIMSCALE
 40
0.5
  9
$DIMASZ
 40
3.0
  9
$DIMEXO
 40
2.0
  9
$DIMDLI
 40
0.38
  9
$DIMRND
 40
0.0
  9
$DIMDLE
 40
0.0
  9
$DIMEXE
 40
2.0
  9
$DIMTP
 40
0.0
  9
$DIMTM
 40
0.0
  9
$DIMTXT
 40
3.2000000000000002
  9
$DIMCEN
 40
0.0
  9
$DIMTSZ
 40
0.0
  9
$DIMTOL
 70
     0
  9
$DIMLIM
 70
     0
  9
$DIMTIH
 70
     0
  9
$DIMTOH
 70
     0
  9
$DIMSE1
 70
     0
  9
$DIMSE2
 70
     0
  9
$DIMTAD
 70
     1
  9
$DIMZIN
 70
     0
  9
$DIMBLK
  1

  9
$DIMASO
 70
     0
  9
$DIMSHO
 70
     0
  9
$DIMPOST
  1

  9
$DIMAPOST
  1

  9
$DIMALT
 70
     0
  9
$DIMALTD
 70
     2
  9
$DIMALTF
 40
25.399999999999999
  9
$DIMLFAC
 40
1.0
  9
$DIMTOFL
 70
     1
  9
$DIMTVP
 40
1.6000000000000001
  9
$DIMTIX
 70
     1
  9
$DIMSOXD
 70
     0
  9
$DIMSAH
 70
     0
  9
$DIMBLK1
  1

  9
$DIMBLK2
  1

  9
$DIMSTYLE
  2
STANDARD
  9
$DIMCLRD
 70
     0
  9
$DIMCLRE
 70
     0
  9
$DIMCLRT
 70
     0
  9
$DIMTFAC
 40
1.0
  9
$DIMGAP
 40
0.09
  9
$LUNITS
 70
     2
  9
$LUPREC
 70
     4
  9
$SKETCHINC
 40
0.1
  9
$FILLETRAD
 40
0.0
  9
$AUNITS
 70
     0
  9
$AUPREC
 70
     4
  9
$MENU
  1
E:\r13\win\SUPPORT\ACAD
  9
$ELEVATION
 40
0.0
  9
$PELEVATION
 40
0.0
  9
$THICKNESS
 40
0.0
  9
$LIMCHECK
 70
     0
  9
$BLIPMODE
 70
     0
  9
$CHAMFERA
 40
0.0
  9
$CHAMFERB
 40
0.0
  9
$SKPOLY
 70
     0
  9
$TDCREATE
 40
2449839.7732986109
  9
$TDUPDATE
 40
2456597.6748784138
  9
$TDINDWG
 40
0.070885
  9
$TDUSRTIMER
 40
0.070885
  9
$USRTIMER
 70
     1
  9
$ANGBASE
 50
0.0
  9
$ANGDIR
 70
     0
  9
$PDMODE
 70
     0
  9
$PDSIZE
 40
0.0
  9
$PLINEWID
 40
0.0
  9
$COORDS
 70
     1
  9
$SPLFRAME
 70
     0
  9
$SPLINETYPE
 70
     6
  9
$SPLINESEGS
 70
     8
  9
$ATTDIA
 70
     0
  9
$ATTREQ
 70
     1
  9
$HANDLING
 70
     1
  9
$HANDSEED
  5
716
  9
$SURFTAB1
 70
     6
  9
$SURFTAB2
 70
     6
  9
$SURFTYPE
 70
     6
  9
$SURFU
 70
     6
  9
$SURFV
 70
     6
  9
$UCSNAME
  2

  9
$UCSORG
 10
0.0
 20
0.0
 30
0.0
  9
$UCSXDIR
 10
1.0
 20
0.0
 30
0.0
  9
$UCSYDIR
 10
0.0
 20
1.0
 30
0.0
  9
$PUCSNAME
  2

  9
$PUCSORG
 10
0.0
 20
0.0
 30
0.0
  9
$PUCSXDIR
 10
1.0
 20
0.0
 30
0.0
  9
$PUCSYDIR
 10
0.0
 20
1.0
 30
0.0
  9
$USERI1
 70
     0
  9
$USERI2
 70
     1
  9
$USERI3
 70
     0
  9
$USERI4
 70
     0
  9
$USERI5
 70
     0
  9
$USERR1
 40
0.0
  9
$USERR2
 40
0.0
  9
$USERR3
 40
0.0
  9
$USERR4
 40
0.0
  9
$USERR5
 40
0.0
  9
$WORLDVIEW
 70
     1
  9
$SHADEDGE
 70
     3
  9
$SHADEDIF
 70
    70
  9
$TILEMODE
 70
     1
  9
$MAXACTVP
 70
    16
  9
$PLIMCHECK
 70
     0
  9
$PEXTMIN
 10
1.0000000000000000E+020
 20
1.0000000000000000E+020
 30
1.0000000000000000E+020
  9
$PEXTMAX
 10
-1.0000000000000000E+020
 20
-1.0000000000000000E+020
 30
-1.0000000000000000E+020
  9
$PLIMMIN
 10
0.0
 20
0.0
  9
$PLIMMAX
 10
12.0
 20
9.0
  9
$UNITMODE
 70
     0
  9
$VISRETAIN
 70
     0
  9
$PLINEGEN
 70
     0
  9
$PSLTSCALE
 70
     0
  0
ENDSEC
  0
SECTION
  2
TABLES
  0
TABLE
  2
VPORT
 70
     1
  0
VPORT
  2
*ACTIVE
 70
     0
 10
0.0
 20
0.0
 11
1.0
 21
1.0
 12
104.0000004842878
 22
67.05183146954721
 13
0.0
 23
0.0
 14
5.0
 24
5.0
 15
5.0
 25
5.0
 16
0.0
 26
0.0
 36
1.0
 17
0.0
 27
0.0
 37
0.0
 40
138.6470298934976
 41
2.304913294797688
 42
50.0
 43
0.0
 44
0.0
 50
0.0
 51
0.0
 71
     0
 72
   500
 73
     1
 74
     0
 75
     0
 76
     0
 77
     0
 78
     2
  0
ENDTAB
  0
TABLE
  2
LTYPE
 70
     4
  0
LTYPE
  2
CONTINUOUS
 70
     0
  3
Solid Line
 72
    65
 73
     0
 40
0.0
  0
LTYPE
  2
CENTER
 70
     0
  3
____ _ ____ _ ____ _ ____ _ ____ _ ____ _ ____
 72
    65
 73
     4
 40
2.0
 49
1.25
 49
-0.25
 49
0.25
 49
-0.25
  0
LTYPE
  2
HIDDEN
 70
     0
  3
_ _ _ _ _ _ _ _ _ _ _ _ _ _ _ _ _ _ _ _ _ _ _
 72
    65
 73
     2
 40
0.375
 49
0.25
 49
-0.125
  0
LTYPE
  2
PHANTOM2
 70
     0
  3
___ _ _ ___ _ _ ___ _ _ ___ _ _
 72
    65
 73
     6
 40
1.25
 49
0.625
 49
-0.125
 49
0.125
 49
-0.125
 49
0.125
 49
-0.125
  0
ENDTAB
  0
TABLE
  2
LAYER
 70
     4
  0
LAYER
  2
0
 70
     0
 62
     7
  6
CONTINUOUS
  0
LAYER
  2
1
 70
     0
 62
     1
  6
CENTER
  0
LAYER
  2
2
 70
     0
 62
     2
  6
HIDDEN
  0
LAYER
  2
3
 70
     0
 62
     3
  6
CONTINUOUS
  0
ENDTAB
  0
TABLE
  2
STYLE
 70
     2
  0
STYLE
  2
STANDARD
 70
     0
 40
0.0
 41
1.0
 50
0.0
 71
     0
 42
0.2
  3
TXT
  4
BIGFONT
  0
STYLE
  2
STANDARD1
 70
     0
 40
0.0
 41
1.0
 50
0.0
 71
     0
 42
3.0
  3
txt
  4

  0
ENDTAB
  0
TABLE
  2
VIEW
 70
     1
  0
VIEW
  2
ALL
 70
     0
 40
270.0
 10
220.99159663865549
 20
135.0
 41
0.0
 11
0.0
 21
0.0
 31
1.0
 12
0.0
 22
0.0
 32
0.0
 42
0.0
 43
0.0
 44
0.0
 50
0.0
 71
     0
  0
ENDTAB
  0
TABLE
  2
UCS
 70
     0
  0
ENDTAB
  0
TABLE
  2
APPID
 70
     5
  0
APPID
  2
ACAD
 70
     0
  0
APPID
  2
ACAD_EXEMPT_FROM_CAD_STANDARDS
 70
     0
  0
APPID
  2
ACAD_PSEXT
 70
     0
  0
APPID
  2
ACAD_MLEADERVER
 70
     0
  0
APPID
  2
ACAD_NAV_VCDISPLAY
 70
     0
  0
ENDTAB
  0
TABLE
  2
DIMSTYLE
 70
     1
  0
DIMSTYLE
  2
STANDARD
 70
     0
  3

  4

  5

  6

  7

 40
1.0
 41
0.18
 42
0.0625
 43
0.38
 44
0.18
 45
0.0
 46
0.0
 47
0.0
 48
0.0
140
0.18
141
0.09
142
0.0
143
25.399999999999999
144
1.0
145
0.0
146
1.0
147
0.09
 71
     0
 72
     0
 73
     1
 74
     1
 75
     0
 76
     0
 77
     0
 78
     0
170
     0
171
     2
172
     0
173
     0
174
     0
175
     0
176
     0
177
     0
178
     0
  0
ENDTAB
  0
ENDSEC
  0
SECTION
  2
BLOCKS
  0
BLOCK
  8
0
  2
$MODEL_SPACE
 70
     0
 10
0.0
 20
0.0
 30
0.0
  3
$MODEL_SPACE
  1

  0
ENDBLK
  5
1D4
  8
0
  0
BLOCK
 67
     1
  8
0
  2
$PAPER_SPACE
 70
     0
 10
0.0
 20
0.0
 30
0.0
  3
$PAPER_SPACE
  1

  0
ENDBLK
  5
1D2
 67
     1
  8
0
  0
ENDSEC
  0
SECTION
  2
ENTITIES
  0
LINE
  5
444
  8
1
 10
166.5
 20
66.5
 30
0.0
 11
166.5
 21
47.500000000000021
 31
0.0
  0
LINE
  5
445
  8
1
 10
151.5
 20
57.0
 30
0.0
 11
181.5
 21
56.999999999999972
 31
0.0
  0
LINE
  5
446
  8
1
 10
201.0
 20
37.5
 30
0.0
 11
201.0
 21
16.300000000000011
 31
0.0
  0
LINE
  5
447
  8
0
 10
194.5
 20
35.0
 30
0.0
 11
193.99999999999989
 21
34.5
 31
0.0
  0
LINE
  5
448
  8
0
 10
195.0
 20
25.5
 30
0.0
 11
195.5
 21
25.0
 31
0.0
  0
LINE
  5
449
  8
0
 10
207.5
 20
35.000000000000028
 30
0.0
 11
194.5
 21
34.999999999999972
 31
0.0
  0
LINE
  5
44A
  8
2
 10
198.59999999999991
 20
30.800000000000011
 30
0.0
 11
198.59999999999991
 21
25.0
 31
0.0
  0
LINE
  5
44B
  8
2
 10
196.99999999999989
 20
30.800000000000011
 30
0.0
 11
205.0
 21
30.800000000000011
 31
0.0
  0
LINE
  5
44C
  8
2
 10
196.99999999999989
 20
35.0
 30
0.0
 11
196.99999999999989
 21
30.800000000000011
 31
0.0
  0
LINE
  5
44D
  8
0
 10
207.0
 20
27.900000000000041
 30
0.0
 11
195.0
 21
27.899999999999981
 31
0.0
  0
LINE
  5
44E
  8
0
 10
195.5
 20
25.0
 30
0.0
 11
206.5
 21
25.0
 31
0.0
  0
LINE
  5
44F
  8
0
 10
195.0
 20
27.900000000000009
 30
0.0
 11
195.0
 21
25.499999999999972
 31
0.0
  0
LINE
  5
450
  8
0
 10
193.99999999999989
 20
34.5
 30
0.0
 11
193.99999999999989
 21
29.500000000000028
 31
0.0
  0
LINE
  5
451
  8
0
 10
154.0
 20
50.5
 30
0.0
 11
154.5
 21
50.0
 31
0.0
  0
LINE
  5
452
  8
0
 10
179.0
 20
50.5
 30
0.0
 11
178.5
 21
50.0
 31
0.0
  0
LINE
  5
453
  8
0
 10
178.5
 20
64.0
 30
0.0
 11
179.0
 21
63.5
 31
0.0
  0
LINE
  5
454
  8
0
 10
154.5
 20
64.0
 30
0.0
 11
154.0
 21
63.5
 31
0.0
  0
LINE
  5
455
  8
0
 10
154.0
 20
63.5
 30
0.0
 11
154.0
 21
50.5
 31
0.0
  0
LINE
  5
456
  8
0
 10
178.5
 20
64.0
 30
0.0
 11
154.5
 21
64.0
 31
0.0
  0
LINE
  5
457
  8
0
 10
179.0
 20
50.5
 30
0.0
 11
179.0
 21
63.5
 31
0.0
  0
LINE
  5
458
  8
0
 10
154.5
 20
50.0
 30
0.0
 11
178.5
 21
50.0
 31
0.0
  0
ARC
  5
459
  8
0
 10
195.0
 20
28.700000000000021
 30
0.0
 40
0.8000000000000007
 50
270.0
 51
90.0
  0
CIRCLE
  5
45A
  8
0
 10
166.5
 20
57.000000000000021
 30
0.0
 40
4.0
  0
LINE
  5
45C
  8
0
 10
193.99999999999989
 20
29.500000000000028
 30
0.0
 11
208.0
 21
29.500000000000028
 31
0.0
  0
LINE
  5
45F
  8
2
 10
205.0
 20
35.0
 30
0.0
 11
205.0
 21
30.800000000000011
 31
0.0
  0
LINE
  5
460
  8
2
 10
203.40000000000001
 20
30.800000000000011
 30
0.0
 11
203.40000000000001
 21
25.0
 31
0.0
  0
LINE
  5
461
  8
0
 10
207.0
 20
27.900000000000009
 30
0.0
 11
207.0
 21
25.500000000000028
 31
0.0
  0
ARC
  5
462
  8
0
 10
207.0
 20
28.700000000000021
 30
0.0
 40
0.8000000000000007
 50
90.0
 51
270.0
  0
LINE
  5
463
  8
0
 10
208.0
 20
34.5
 30
0.0
 11
208.0
 21
29.500000000000028
 31
0.0
  0
LINE
  5
464
  8
0
 10
207.0
 20
25.5
 30
0.0
 11
206.5
 21
25.0
 31
0.0
  0
LINE
  5
465
  8
0
 10
207.5
 20
35.0
 30
0.0
 11
208.0
 21
34.5
 31
0.0
  0
LINE
  5
466
  8
0
 10
153.99999999999989
 20
34.999999999999972
 30
0.0
 11
154.0
 21
25.0
 31
0.0
  0
LINE
  5
467
  8
0
 10
153.99999999999989
 20
25.0
 30
0.0
 11
179.0
 21
25.0
 31
0.0
  0
LINE
  5
468
  8
0
 10
179.0
 20
25.0
 30
0.0
 11
179.0
 21
34.999999999999972
 31
0.0
  0
LINE
  5
469
  8
1
 10
166.5
 20
16.300000000000011
 30
0.0
 11
166.5
 21
37.500000000000028
 31
0.0
  0
LINE
  5
46A
  8
0
 10
179.0
 20
35.0
 30
0.0
 11
154.0
 21
35.0
 31
0.0
  0
LINE
  5
46C
  8
0
 10
179.0
 20
27.899999999999839
 30
0.0
 11
154.0
 21
27.899999999999672
 31
0.0
  0
LINE
  5
46D
  8
0
 10
179.0
 20
29.5
 30
0.0
 11
154.0
 21
29.499999999999801
 31
0.0
  0
LINE
  5
46F
  8
2
 10
168.90000000000001
 20
30.800000000000011
 30
0.0
 11
168.90000000000001
 21
25.0
 31
0.0
  0
LINE
  5
470
  8
2
 10
170.49999999999989
 20
35.0
 30
0.0
 11
170.49999999999989
 21
30.800000000000011
 31
0.0
  0
LINE
  5
471
  8
2
 10
162.49999999999989
 20
30.800000000000011
 30
0.0
 11
170.5
 21
30.800000000000011
 31
0.0
  0
LINE
  5
472
  8
2
 10
162.49999999999989
 20
35.0
 30
0.0
 11
162.49999999999989
 21
30.800000000000011
 31
0.0
  0
LINE
  5
473
  8
2
 10
164.09999999999999
 20
30.800000000000011
 30
0.0
 11
164.09999999999999
 21
25.0
 31
0.0
  0
LINE
  5
56A
  8
0
 10
165.00000000000011
 20
56.133974596215722
 30
0.0
 11
166.50000000000011
 21
55.267949192431239
 31
0.0
  0
LINE
  5
56B
  8
0
 10
166.50000000000011
 20
55.267949192431239
 30
0.0
 11
168.0
 21
56.133974596215722
 31
0.0
  0
LINE
  5
56C
  8
0
 10
168.0
 20
56.133974596215722
 30
0.0
 11
168.0
 21
57.866025403784853
 31
0.0
  0
LINE
  5
56D
  8
0
 10
168.0
 20
57.866025403784853
 30
0.0
 11
166.5
 21
58.732050807568982
 31
0.0
  0
LINE
  5
56E
  8
0
 10
166.5
 20
58.732050807568982
 30
0.0
 11
164.9999999999998
 21
57.866025403784327
 31
0.0
  0
LINE
  5
56F
  8
0
 10
164.9999999999998
 20
57.866025403784327
 30
0.0
 11
165.00000000000011
 21
56.133974596215722
 31
0.0
  0
CIRCLE
  5
571
  8
0
 10
166.5
 20
57.000000000000021
 30
0.0
 40
3.5
  0
LINE
  5
575
  8
2
 10
164.5
 20
30.800000000000011
 30
0.0
 11
164.5
 21
25.0
 31
0.0
  0
LINE
  5
577
  8
2
 10
164.87900000000141
 20
28.700000000000031
 30
0.0
 11
164.87900000000141
 21
25.0
 31
0.0
  0
LINE
  5
578
  8
2
 10
164.87900000000141
 20
28.700000000000031
 30
0.0
 11
164.5
 21
29.356447256071021
 31
0.0
  0
LINE
  5
579
  8
2
 10
168.12099999999859
 20
28.700000000000031
 30
0.0
 11
168.5
 21
29.356447256071021
 31
0.0
  0
LINE
  5
57A
  8
2
 10
168.12099999999859
 20
28.700000000000031
 30
0.0
 11
168.12099999999859
 21
25.0
 31
0.0
  0
LINE
  5
57B
  8
2
 10
168.5
 20
28.700000000000031
 30
0.0
 11
164.5
 21
28.700000000000038
 31
0.0
  0
LINE
  5
57E
  8
2
 10
163.0
 20
34.500000000000028
 30
0.0
 11
163.51961524227059
 21
34.800000000000011
 31
0.0
  0
LINE
  5
57F
  8
2
 10
170.0
 20
34.5
 30
0.0
 11
169.4803847577293
 21
34.800000000000011
 31
0.0
  0
LINE
  5
580
  8
2
 10
163.0
 20
34.5
 30
0.0
 11
170.0
 21
34.500000000000007
 31
0.0
  0
LINE
  5
582
  8
2
 10
168.5
 20
30.800000000000011
 30
0.0
 11
168.5
 21
25.0
 31
0.0
  0
LINE
  5
583
  8
2
 10
163.51961524227059
 20
34.800000000000011
 30
0.0
 11
169.4803847577293
 21
34.800000000000011
 31
0.0
  0
LINE
  5
584
  8
2
 10
163.0
 20
30.800000000000011
 30
0.0
 11
163.0
 21
34.5
 31
0.0
  0
LINE
  5
586
  8
2
 10
170.0
 20
34.500000000000007
 30
0.0
 11
170.0
 21
30.800000000000011
 31
0.0
  0
LINE
  5
58E
  8
0
 10
164.5
 20
25.0
 30
0.0
 11
164.5
 21
19.600000000000019
 31
0.0
  0
LINE
  5
58F
  8
0
 10
164.5
 20
19.600000000000009
 30
0.0
 11
165.30000000000001
 21
18.800000000000011
 31
0.0
  0
LINE
  5
590
  8
3
 10
164.87900000000141
 20
25.0
 30
0.0
 11
164.87900000000141
 21
19.220999999998611
 31
0.0
  0
LINE
  5
591
  8
3
 10
168.12099999999859
 20
25.0
 30
0.0
 11
168.12099999999859
 21
19.220999999998611
 31
0.0
  0
LINE
  5
592
  8
0
 10
164.5
 20
19.599999999999959
 30
0.0
 11
168.5
 21
19.600000000000041
 31
0.0
  0
LINE
  5
593
  8
0
 10
168.5
 20
19.600000000000009
 30
0.0
 11
167.69999999999999
 21
18.800000000000011
 31
0.0
  0
LINE
  5
594
  8
0
 10
167.69999999999999
 20
18.800000000000011
 30
0.0
 11
165.30000000000001
 21
18.800000000000011
 31
0.0
  0
LINE
  5
595
  8
0
 10
168.5
 20
25.0
 30
0.0
 11
168.5
 21
19.600000000000019
 31
0.0
  0
LINE
  5
5B1
  8
2
 10
199.0
 20
30.800000000000029
 30
0.0
 11
199.0
 21
25.000000000000021
 31
0.0
  0
LINE
  5
5B2
  8
2
 10
199.37900000000141
 20
28.700000000000038
 30
0.0
 11
199.37900000000141
 21
25.000000000000021
 31
0.0
  0
LINE
  5
5B3
  8
2
 10
199.37900000000141
 20
28.700000000000038
 30
0.0
 11
199.0
 21
29.356447256071039
 31
0.0
  0
LINE
  5
5B4
  8
2
 10
202.62099999999859
 20
28.700000000000038
 30
0.0
 11
203.0
 21
29.356447256071039
 31
0.0
  0
LINE
  5
5B5
  8
2
 10
202.62099999999859
 20
28.700000000000038
 30
0.0
 11
202.62099999999859
 21
25.000000000000021
 31
0.0
  0
LINE
  5
5B6
  8
2
 10
203.0
 20
28.700000000000038
 30
0.0
 11
199.0
 21
28.70000000000006
 31
0.0
  0
LINE
  5
5B7
  8
2
 10
197.5
 20
34.50000000000005
 30
0.0
 11
198.01961524227059
 21
34.800000000000033
 31
0.0
  0
LINE
  5
5B8
  8
2
 10
204.5
 20
34.500000000000007
 30
0.0
 11
203.9803847577293
 21
34.800000000000033
 31
0.0
  0
LINE
  5
5B9
  8
2
 10
197.5
 20
34.500000000000007
 30
0.0
 11
204.5
 21
34.500000000000028
 31
0.0
  0
LINE
  5
5BA
  8
2
 10
203.0
 20
30.800000000000029
 30
0.0
 11
203.0
 21
25.000000000000021
 31
0.0
  0
LINE
  5
5BB
  8
2
 10
198.01961524227059
 20
34.800000000000033
 30
0.0
 11
203.9803847577293
 21
34.800000000000033
 31
0.0
  0
LINE
  5
5BC
  8
2
 10
197.5
 20
30.800000000000029
 30
0.0
 11
197.5
 21
34.500000000000007
 31
0.0
  0
LINE
  5
5BD
  8
2
 10
204.5
 20
34.500000000000028
 30
0.0
 11
204.5
 21
30.800000000000029
 31
0.0
  0
LINE
  5
5BE
  8
0
 10
199.0
 20
25.000000000000021
 30
0.0
 11
199.0
 21
19.600000000000041
 31
0.0
  0
LINE
  5
5BF
  8
0
 10
199.0
 20
19.600000000000019
 30
0.0
 11
199.80000000000001
 21
18.800000000000018
 31
0.0
  0
LINE
  5
5C0
  8
3
 10
199.37900000000141
 20
25.000000000000021
 30
0.0
 11
199.37900000000141
 21
19.220999999998622
 31
0.0
  0
LINE
  5
5C1
  8
3
 10
202.62099999999859
 20
25.000000000000021
 30
0.0
 11
202.62099999999859
 21
19.220999999998622
 31
0.0
  0
LINE
  5
5C2
  8
0
 10
199.0
 20
19.59999999999998
 30
0.0
 11
203.0
 21
19.600000000000051
 31
0.0
  0
LINE
  5
5C3
  8
0
 10
203.0
 20
19.600000000000019
 30
0.0
 11
202.19999999999999
 21
18.800000000000018
 31
0.0
  0
LINE
  5
5C4
  8
0
 10
202.19999999999999
 20
18.800000000000018
 30
0.0
 11
199.80000000000001
 21
18.800000000000018
 31
0.0
  0
LINE
  5
5C5
  8
0
 10
203.0
 20
25.000000000000021
 30
0.0
 11
203.0
 21
19.600000000000041
 31
0.0
  0
LINE
  5
5DB
  8
1
 10
66.500000000000014
 20
66.5
 30
0.0
 11
66.500000000000014
 21
47.500000000000021
 31
0.0
  0
LINE
  5
5DC
  8
1
 10
81.500000000000014
 20
57.0
 30
0.0
 11
51.500000000000021
 21
56.999999999999972
 31
0.0
  0
LINE
  5
5DD
  8
1
 10
32.00000000000005
 20
37.5
 30
0.0
 11
32.00000000000005
 21
16.300000000000011
 31
0.0
  0
LINE
  5
5DE
  8
0
 10
38.500000000000043
 20
35.0
 30
0.0
 11
39.000000000000043
 21
34.5
 31
0.0
  0
LINE
  5
5DF
  8
0
 10
38.000000000000021
 20
25.5
 30
0.0
 11
37.500000000000021
 21
25.0
 31
0.0
  0
LINE
  5
5E0
  8
0
 10
25.499999999999979
 20
35.000000000000028
 30
0.0
 11
38.500000000000043
 21
34.999999999999972
 31
0.0
  0
LINE
  5
5E1
  8
2
 10
34.400000000000048
 20
30.800000000000011
 30
0.0
 11
34.400000000000048
 21
25.0
 31
0.0
  0
LINE
  5
5E2
  8
2
 10
36.000000000000043
 20
30.800000000000011
 30
0.0
 11
27.999999999999979
 21
30.800000000000011
 31
0.0
  0
LINE
  5
5E3
  8
2
 10
36.000000000000043
 20
35.0
 30
0.0
 11
36.000000000000043
 21
30.800000000000011
 31
0.0
  0
LINE
  5
5E4
  8
0
 10
25.999999999999979
 20
27.900000000000041
 30
0.0
 11
37.999999999999993
 21
27.899999999999981
 31
0.0
  0
LINE
  5
5E5
  8
0
 10
37.500000000000043
 20
25.0
 30
0.0
 11
26.500000000000011
 21
25.0
 31
0.0
  0
LINE
  5
5E6
  8
0
 10
38.000000000000021
 20
27.900000000000009
 30
0.0
 11
37.999999999999993
 21
25.499999999999972
 31
0.0
  0
LINE
  5
5E7
  8
0
 10
39.000000000000043
 20
34.5
 30
0.0
 11
39.000000000000043
 21
29.500000000000028
 31
0.0
  0
LINE
  5
5E8
  8
0
 10
79.000000000000014
 20
50.5
 30
0.0
 11
78.500000000000014
 21
50.0
 31
0.0
  0
LINE
  5
5E9
  8
0
 10
54.000000000000021
 20
50.5
 30
0.0
 11
54.500000000000007
 21
50.0
 31
0.0
  0
LINE
  5
5EA
  8
0
 10
54.500000000000007
 20
64.0
 30
0.0
 11
54.000000000000021
 21
63.5
 31
0.0
  0
LINE
  5
5EB
  8
0
 10
78.500000000000014
 20
64.0
 30
0.0
 11
79.000000000000014
 21
63.5
 31
0.0
  0
LINE
  5
5EC
  8
0
 10
79.000000000000014
 20
63.5
 30
0.0
 11
79.000000000000014
 21
50.5
 31
0.0
  0
LINE
  5
5ED
  8
0
 10
54.500000000000007
 20
64.0
 30
0.0
 11
78.500000000000014
 21
64.0
 31
0.0
  0
LINE
  5
5EE
  8
0
 10
54.000000000000021
 20
50.5
 30
0.0
 11
54.000000000000021
 21
63.5
 31
0.0
  0
LINE
  5
5EF
  8
0
 10
78.500000000000014
 20
50.0
 30
0.0
 11
54.500000000000007
 21
50.0
 31
0.0
  0
ARC
  5
5F0
  8
0
 10
38.000000000000021
 20
28.700000000000021
 30
0.0
 40
0.8000000000000007
 50
90.0
 51
270.0
  0
CIRCLE
  5
5F1
  8
0
 10
66.500000000000014
 20
57.000000000000021
 30
0.0
 40
4.0
  0
LINE
  5
5F2
  8
0
 10
39.000000000000071
 20
29.500000000000028
 30
0.0
 11
25.000000000000011
 21
29.500000000000028
 31
0.0
  0
LINE
  5
5F3
  8
2
 10
28.000000000000039
 20
35.0
 30
0.0
 11
28.000000000000039
 21
30.800000000000011
 31
0.0
  0
LINE
  5
5F4
  8
2
 10
29.600000000000041
 20
30.800000000000011
 30
0.0
 11
29.600000000000041
 21
25.0
 31
0.0
  0
LINE
  5
5F5
  8
0
 10
26.000000000000011
 20
27.900000000000009
 30
0.0
 11
25.999999999999979
 21
25.500000000000028
 31
0.0
  0
ARC
  5
5F6
  8
0
 10
26.000000000000011
 20
28.700000000000021
 30
0.0
 40
0.8000000000000007
 50
270.0
 51
90.0
  0
LINE
  5
5F7
  8
0
 10
25.000000000000011
 20
34.5
 30
0.0
 11
24.999999999999979
 21
29.500000000000028
 31
0.0
  0
LINE
  5
5F8
  8
0
 10
26.000000000000011
 20
25.5
 30
0.0
 11
26.500000000000011
 21
25.0
 31
0.0
  0
LINE
  5
5F9
  8
0
 10
25.499999999999979
 20
35.0
 30
0.0
 11
24.999999999999979
 21
34.5
 31
0.0
  0
LINE
  5
5FA
  8
0
 10
79.000000000000071
 20
34.999999999999972
 30
0.0
 11
79.000000000000014
 21
25.0
 31
0.0
  0
LINE
  5
5FB
  8
0
 10
79.000000000000071
 20
25.0
 30
0.0
 11
54.000000000000021
 21
25.0
 31
0.0
  0
LINE
  5
5FC
  8
0
 10
54.000000000000021
 20
25.0
 30
0.0
 11
54.000000000000043
 21
34.999999999999972
 31
0.0
  0
LINE
  5
5FD
  8
1
 10
66.500000000000043
 20
16.300000000000011
 30
0.0
 11
66.500000000000014
 21
37.500000000000028
 31
0.0
  0
LINE
  5
5FE
  8
0
 10
54.000000000000043
 20
35.0
 30
0.0
 11
79.000000000000043
 21
35.0
 31
0.0
  0
LINE
  5
5FF
  8
0
 10
54.000000000000021
 20
27.899999999999839
 30
0.0
 11
79.000000000000043
 21
27.899999999999672
 31
0.0
  0
LINE
  5
600
  8
0
 10
54.000000000000043
 20
29.5
 30
0.0
 11
79.000000000000043
 21
29.499999999999801
 31
0.0
  0
LINE
  5
601
  8
2
 10
64.100000000000065
 20
30.800000000000011
 30
0.0
 11
64.100000000000065
 21
25.0
 31
0.0
  0
LINE
  5
602
  8
2
 10
62.500000000000071
 20
35.0
 30
0.0
 11
62.500000000000071
 21
30.800000000000011
 31
0.0
  0
LINE
  5
603
  8
2
 10
70.500000000000071
 20
30.800000000000011
 30
0.0
 11
62.500000000000007
 21
30.800000000000011
 31
0.0
  0
LINE
  5
604
  8
2
 10
70.500000000000071
 20
35.0
 30
0.0
 11
70.500000000000071
 21
30.800000000000011
 31
0.0
  0
LINE
  5
605
  8
2
 10
68.900000000000077
 20
30.800000000000011
 30
0.0
 11
68.900000000000077
 21
25.0
 31
0.0
  0
LINE
  5
606
  8
0
 10
67.999999999999844
 20
56.133974596215722
 30
0.0
 11
66.499999999999844
 21
55.267949192431239
 31
0.0
  0
LINE
  5
607
  8
0
 10
66.499999999999844
 20
55.267949192431239
 30
0.0
 11
65.000000000000014
 21
56.133974596215722
 31
0.0
  0
LINE
  5
608
  8
0
 10
65.000000000000014
 20
56.133974596215722
 30
0.0
 11
65.000000000000014
 21
57.866025403784853
 31
0.0
  0
LINE
  5
609
  8
0
 10
65.000000000000014
 20
57.866025403784853
 30
0.0
 11
66.500000000000014
 21
58.732050807568982
 31
0.0
  0
LINE
  5
60A
  8
0
 10
66.500000000000014
 20
58.732050807568982
 30
0.0
 11
68.000000000000185
 21
57.866025403784327
 31
0.0
  0
LINE
  5
60B
  8
0
 10
68.000000000000185
 20
57.866025403784327
 30
0.0
 11
67.999999999999844
 21
56.133974596215722
 31
0.0
  0
CIRCLE
  5
60C
  8
0
 10
66.500000000000014
 20
57.000000000000021
 30
0.0
 40
3.5
  0
LINE
  5
60D
  8
2
 10
68.500000000000014
 20
30.800000000000011
 30
0.0
 11
68.500000000000014
 21
25.0
 31
0.0
  0
LINE
  5
60E
  8
2
 10
68.120999999998617
 20
28.700000000000031
 30
0.0
 11
68.120999999998617
 21
25.0
 31
0.0
  0
LINE
  5
60F
  8
2
 10
68.120999999998631
 20
28.700000000000031
 30
0.0
 11
68.500000000000014
 21
29.356447256071021
 31
0.0
  0
LINE
  5
610
  8
2
 10
64.879000000001398
 20
28.700000000000031
 30
0.0
 11
64.500000000000014
 21
29.356447256071021
 31
0.0
  0
LINE
  5
611
  8
2
 10
64.879000000001412
 20
28.700000000000031
 30
0.0
 11
64.879000000001398
 21
25.0
 31
0.0
  0
LINE
  5
612
  8
2
 10
64.500000000000014
 20
28.700000000000031
 30
0.0
 11
68.500000000000028
 21
28.700000000000038
 31
0.0
  0
LINE
  5
613
  8
2
 10
70.0
 20
34.500000000000028
 30
0.0
 11
69.480384757729396
 21
34.800000000000011
 31
0.0
  0
LINE
  5
614
  8
2
 10
63.000000000000007
 20
34.5
 30
0.0
 11
63.519615242270689
 21
34.800000000000011
 31
0.0
  0
LINE
  5
615
  8
2
 10
70.000000000000014
 20
34.5
 30
0.0
 11
63.0
 21
34.500000000000007
 31
0.0
  0
LINE
  5
616
  8
2
 10
64.500000000000014
 20
30.800000000000011
 30
0.0
 11
64.500000000000014
 21
25.0
 31
0.0
  0
LINE
  5
617
  8
2
 10
69.480384757729396
 20
34.800000000000011
 30
0.0
 11
63.519615242270689
 21
34.800000000000011
 31
0.0
  0
LINE
  5
618
  8
2
 10
70.000000000000014
 20
30.800000000000011
 30
0.0
 11
70.000000000000014
 21
34.5
 31
0.0
  0
LINE
  5
619
  8
2
 10
63.0
 20
34.500000000000007
 30
0.0
 11
63.000000000000007
 21
30.800000000000011
 31
0.0
  0
LINE
  5
61A
  8
0
 10
68.500000000000014
 20
25.0
 30
0.0
 11
68.500000000000014
 21
19.600000000000019
 31
0.0
  0
LINE
  5
61B
  8
0
 10
68.500000000000014
 20
19.600000000000009
 30
0.0
 11
67.700000000000017
 21
18.800000000000011
 31
0.0
  0
LINE
  5
61C
  8
3
 10
68.120999999998617
 20
25.0
 30
0.0
 11
68.120999999998617
 21
19.220999999998611
 31
0.0
  0
LINE
  5
61D
  8
3
 10
64.879000000001412
 20
25.0
 30
0.0
 11
64.879000000001412
 21
19.220999999998611
 31
0.0
  0
LINE
  5
61E
  8
0
 10
68.499999999999972
 20
19.599999999999959
 30
0.0
 11
64.500000000000014
 21
19.600000000000041
 31
0.0
  0
LINE
  5
61F
  8
0
 10
64.500000000000014
 20
19.600000000000009
 30
0.0
 11
65.300000000000011
 21
18.800000000000011
 31
0.0
  0
LINE
  5
620
  8
0
 10
65.300000000000011
 20
18.800000000000011
 30
0.0
 11
67.700000000000017
 21
18.800000000000011
 31
0.0
  0
LINE
  5
621
  8
0
 10
64.500000000000014
 20
25.0
 30
0.0
 11
64.500000000000014
 21
19.600000000000019
 31
0.0
  0
LINE
  5
622
  8
2
 10
34.000000000000021
 20
30.800000000000029
 30
0.0
 11
34.000000000000021
 21
25.000000000000021
 31
0.0
  0
LINE
  5
623
  8
2
 10
33.620999999998617
 20
28.700000000000038
 30
0.0
 11
33.620999999998617
 21
25.000000000000021
 31
0.0
  0
LINE
  5
624
  8
2
 10
33.620999999998631
 20
28.700000000000038
 30
0.0
 11
34.000000000000021
 21
29.356447256071039
 31
0.0
  0
LINE
  5
625
  8
2
 10
30.37900000000139
 20
28.700000000000038
 30
0.0
 11
30.000000000000011
 21
29.356447256071039
 31
0.0
  0
LINE
  5
626
  8
2
 10
30.379000000001412
 20
28.700000000000038
 30
0.0
 11
30.37900000000139
 21
25.000000000000021
 31
0.0
  0
LINE
  5
627
  8
2
 10
30.000000000000028
 20
28.700000000000038
 30
0.0
 11
34.000000000000028
 21
28.70000000000006
 31
0.0
  0
LINE
  5
628
  8
2
 10
35.5
 20
34.50000000000005
 30
0.0
 11
34.980384757729396
 21
34.800000000000033
 31
0.0
  0
LINE
  5
629
  8
2
 10
28.500000000000011
 20
34.500000000000007
 30
0.0
 11
29.019615242270689
 21
34.800000000000033
 31
0.0
  0
LINE
  5
62A
  8
2
 10
35.500000000000021
 20
34.500000000000007
 30
0.0
 11
28.5
 21
34.500000000000028
 31
0.0
  0
LINE
  5
62B
  8
2
 10
30.000000000000011
 20
30.800000000000029
 30
0.0
 11
30.000000000000011
 21
25.000000000000021
 31
0.0
  0
LINE
  5
62C
  8
2
 10
34.980384757729396
 20
34.800000000000033
 30
0.0
 11
29.019615242270689
 21
34.800000000000033
 31
0.0
  0
LINE
  5
62D
  8
2
 10
35.500000000000021
 20
30.800000000000029
 30
0.0
 11
35.500000000000021
 21
34.500000000000007
 31
0.0
  0
LINE
  5
62E
  8
2
 10
28.5
 20
34.500000000000028
 30
0.0
 11
28.500000000000011
 21
30.800000000000029
 31
0.0
  0
LINE
  5
62F
  8
0
 10
34.000000000000021
 20
25.000000000000021
 30
0.0
 11
34.000000000000021
 21
19.600000000000041
 31
0.0
  0
LINE
  5
630
  8
0
 10
34.000000000000021
 20
19.600000000000019
 30
0.0
 11
33.200000000000017
 21
18.800000000000018
 31
0.0
  0
LINE
  5
631
  8
3
 10
33.620999999998617
 20
25.000000000000021
 30
0.0
 11
33.620999999998617
 21
19.220999999998622
 31
0.0
  0
LINE
  5
632
  8
3
 10
30.379000000001412
 20
25.000000000000021
 30
0.0
 11
30.379000000001412
 21
19.220999999998622
 31
0.0
  0
LINE
  5
633
  8
0
 10
33.999999999999972
 20
19.59999999999998
 30
0.0
 11
30.000000000000011
 21
19.600000000000051
 31
0.0
  0
LINE
  5
634
  8
0
 10
30.000000000000011
 20
19.600000000000019
 30
0.0
 11
30.800000000000011
 21
18.800000000000018
 31
0.0
  0
LINE
  5
635
  8
0
 10
30.800000000000011
 20
18.800000000000018
 30
0.0
 11
33.200000000000017
 21
18.800000000000018
 31
0.0
  0
LINE
  5
636
  8
0
 10
30.000000000000011
 20
25.000000000000021
 30
0.0
 11
30.000000000000011
 21
19.600000000000041
 31
0.0
  0
TEXT
  5
6B1
  8
0
 62
     3
 10
0.0
 20
0.0
 30
0.0
 40
5.0
  1
MVAC12SK14
  7
STANDARD1
  0
ENDSEC
  0
EOF
