  0
SECTION
  2
HEADER
  9
$ACADVER
  1
AC1009
  9
$INSBASE
 10
0.0
 20
0.0
 30
0.0
  9
$EXTMIN
 10
0.0
 20
-1.4802182810368341
 30
0.0
  9
$EXTMAX
 10
47.905152164800711
 20
102.7313721817259
 30
0.0
  9
$LIMMIN
 10
0.0
 20
0.0
  9
$LIMMAX
 10
187.5
 20
135.0
  9
$ORTHOMODE
 70
     1
  9
$REGENMODE
 70
     1
  9
$FILLMODE
 70
     1
  9
$QTEXTMODE
 70
     0
  9
$MIRRTEXT
 70
     0
  9
$DRAGMODE
 70
     2
  9
$LTSCALE
 40
5.0
  9
$OSMODE
 70
    37
  9
$ATTMODE
 70
     1
  9
$TEXTSIZE
 40
0.06
  9
$TRACEWID
 40
0.05
  9
$TEXTSTYLE
  7
STANDARD
  9
$CLAYER
  8
0
  9
$CELTYPE
  6
BYLAYER
  9
$CECOLOR
 62
   256
  9
$DIMSCALE
 40
0.5
  9
$DIMASZ
 40
3.0
  9
$DIMEXO
 40
2.0
  9
$DIMDLI
 40
10.0
  9
$DIMRND
 40
0.0
  9
$DIMDLE
 40
0.0
  9
$DIMEXE
 40
2.0
  9
$DIMTP
 40
0.0
  9
$DIMTM
 40
0.0
  9
$DIMTXT
 40
3.0
  9
$DIMCEN
 40
0.0
  9
$DIMTSZ
 40
0.0
  9
$DIMTOL
 70
     0
  9
$DIMLIM
 70
     0
  9
$DIMTIH
 70
     0
  9
$DIMTOH
 70
     0
  9
$DIMSE1
 70
     0
  9
$DIMSE2
 70
     0
  9
$DIMTAD
 70
     1
  9
$DIMZIN
 70
     8
  9
$DIMBLK
  1

  9
$DIMASO
 70
     0
  9
$DIMSHO
 70
     0
  9
$DIMPOST
  1

  9
$DIMAPOST
  1

  9
$DIMALT
 70
     0
  9
$DIMALTD
 70
     2
  9
$DIMALTF
 40
25.399999999999999
  9
$DIMLFAC
 40
1.0
  9
$DIMTOFL
 70
     1
  9
$DIMTVP
 40
1.6000000000000001
  9
$DIMTIX
 70
     1
  9
$DIMSOXD
 70
     0
  9
$DIMSAH
 70
     0
  9
$DIMBLK1
  1

  9
$DIMBLK2
  1

  9
$DIMSTYLE
  2
STANDARD
  9
$DIMCLRD
 70
     0
  9
$DIMCLRE
 70
     0
  9
$DIMCLRT
 70
     0
  9
$DIMTFAC
 40
1.0
  9
$DIMGAP
 40
1.0
  9
$LUNITS
 70
     2
  9
$LUPREC
 70
     4
  9
$SKETCHINC
 40
0.1
  9
$FILLETRAD
 40
1.3
  9
$AUNITS
 70
     0
  9
$AUPREC
 70
     4
  9
$MENU
  1
E:\r13\win\SUPPORT\ACAD
  9
$ELEVATION
 40
0.0
  9
$PELEVATION
 40
0.0
  9
$THICKNESS
 40
0.0
  9
$LIMCHECK
 70
     0
  9
$BLIPMODE
 70
     0
  9
$CHAMFERA
 40
0.0
  9
$CHAMFERB
 40
0.0
  9
$SKPOLY
 70
     0
  9
$TDCREATE
 40
2449840.5914699072
  9
$TDUPDATE
 40
2456598.7236212152
  9
$TDINDWG
 40
4.2633173264000002
  9
$TDUSRTIMER
 40
2456598.0831163311
  9
$USRTIMER
 70
     1
  9
$ANGBASE
 50
0.0
  9
$ANGDIR
 70
     0
  9
$PDMODE
 70
     0
  9
$PDSIZE
 40
0.0
  9
$PLINEWID
 40
0.0
  9
$COORDS
 70
     1
  9
$SPLFRAME
 70
     0
  9
$SPLINETYPE
 70
     6
  9
$SPLINESEGS
 70
     8
  9
$ATTDIA
 70
     0
  9
$ATTREQ
 70
     1
  9
$HANDLING
 70
     1
  9
$HANDSEED
  5
13946
  9
$SURFTAB1
 70
     6
  9
$SURFTAB2
 70
     6
  9
$SURFTYPE
 70
     6
  9
$SURFU
 70
     6
  9
$SURFV
 70
     6
  9
$UCSNAME
  2

  9
$UCSORG
 10
0.0
 20
0.0
 30
0.0
  9
$UCSXDIR
 10
1.0
 20
0.0
 30
0.0
  9
$UCSYDIR
 10
0.0
 20
1.0
 30
0.0
  9
$PUCSNAME
  2

  9
$PUCSORG
 10
0.0
 20
0.0
 30
0.0
  9
$PUCSXDIR
 10
1.0
 20
0.0
 30
0.0
  9
$PUCSYDIR
 10
0.0
 20
1.0
 30
0.0
  9
$USERI1
 70
     3
  9
$USERI2
 70
     1
  9
$USERI3
 70
     0
  9
$USERI4
 70
     0
  9
$USERI5
 70
     0
  9
$USERR1
 40
0.5
  9
$USERR2
 40
3.0
  9
$USERR3
 40
3.0
  9
$USERR4
 40
3.0
  9
$USERR5
 40
10.0
  9
$WORLDVIEW
 70
     1
  9
$SHADEDGE
 70
     3
  9
$SHADEDIF
 70
    70
  9
$TILEMODE
 70
     1
  9
$MAXACTVP
 70
    16
  9
$PLIMCHECK
 70
     0
  9
$PEXTMIN
 10
1.0000000000000000E+020
 20
1.0000000000000000E+020
 30
1.0000000000000000E+020
  9
$PEXTMAX
 10
-1.0000000000000000E+020
 20
-1.0000000000000000E+020
 30
-1.0000000000000000E+020
  9
$PLIMMIN
 10
0.0
 20
0.0
  9
$PLIMMAX
 10
12.0
 20
9.0
  9
$UNITMODE
 70
     0
  9
$VISRETAIN
 70
     0
  9
$PLINEGEN
 70
     0
  9
$PSLTSCALE
 70
     0
  0
ENDSEC
  0
SECTION
  2
TABLES
  0
TABLE
  2
VPORT
 70
     1
  0
VPORT
  2
*ACTIVE
 70
     0
 10
0.0
 20
0.0
 11
1.0
 21
1.0
 12
93.74713919532617
 22
88.76102906355564
 13
0.0
 23
0.0
 14
5.0
 24
5.0
 15
10.0
 25
10.0
 16
0.0
 26
0.0
 36
1.0
 17
0.0
 27
0.0
 37
0.0
 40
182.06542508151449
 41
1.755244755244755
 42
50.0
 43
0.0
 44
0.0
 50
0.0
 51
0.0
 71
     0
 72
   100
 73
     1
 74
     0
 75
     0
 76
     0
 77
     0
 78
     0
  0
ENDTAB
  0
TABLE
  2
LTYPE
 70
     4
  0
LTYPE
  2
CONTINUOUS
 70
     0
  3
Solid Line
 72
    65
 73
     0
 40
0.0
  0
LTYPE
  2
CENTER
 70
     0
  3
____ _ ____ _ ____ _ ____ _ ____ _ ____ _ ____
 72
    65
 73
     4
 40
2.0
 49
1.25
 49
-0.25
 49
0.25
 49
-0.25
  0
LTYPE
  2
HIDDEN
 70
     0
  3
_ _ _ _ _ _ _ _ _ _ _ _ _ _ _ _ _ _ _ _ _ _ _
 72
    65
 73
     2
 40
0.375
 49
0.25
 49
-0.125
  0
LTYPE
  2
PHANTOM2
 70
     0
  3
___ _ _ ___ _ _ ___ _ _ ___ _ _
 72
    65
 73
     6
 40
1.25
 49
0.625
 49
-0.125
 49
0.125
 49
-0.125
 49
0.125
 49
-0.125
  0
ENDTAB
  0
TABLE
  2
LAYER
 70
     5
  0
LAYER
  2
0
 70
     0
 62
     7
  6
CONTINUOUS
  0
LAYER
  2
1
 70
     0
 62
     1
  6
CENTER
  0
LAYER
  2
2
 70
     0
 62
     2
  6
HIDDEN
  0
LAYER
  2
3
 70
     0
 62
     3
  6
CONTINUOUS
  0
LAYER
  2
DEFPOINTS
 70
     0
 62
     7
  6
CONTINUOUS
  0
ENDTAB
  0
TABLE
  2
STYLE
 70
     2
  0
STYLE
  2
STANDARD
 70
     0
 40
0.0
 41
1.0
 50
0.0
 71
     0
 42
0.06
  3
TXT
  4
BIGFONT
  0
STYLE
  2
STANDARD1
 70
     0
 40
0.0
 41
1.0
 50
0.0
 71
     0
 42
3.0
  3
txt
  4

  0
ENDTAB
  0
TABLE
  2
VIEW
 70
     3
  0
VIEW
  2
OLE1
 70
     0
 40
24.514257897662329
 10
44.901529473115893
 20
103.25177669290009
 41
34.172454060781448
 11
0.0
 21
0.0
 31
1.0
 12
0.0
 22
0.0
 32
0.0
 42
50.0
 43
0.0
 44
0.0
 50
0.0
 71
     0
  0
VIEW
  2
OLE2
 70
     0
 40
111.8251716252055
 10
23.153306359535989
 20
84.753742215946431
 41
155.8823667497492
 11
0.0
 21
0.0
 31
1.0
 12
0.0
 22
0.0
 32
0.0
 42
50.0
 43
0.0
 44
0.0
 50
0.0
 71
     0
  0
VIEW
  2
OLE3
 70
     0
 40
74.608199520119342
 10
-293.62538904716121
 20
-23.174189004697379
 41
90.16357702624461
 11
0.0
 21
0.0
 31
1.0
 12
0.0
 22
0.0
 32
0.0
 42
50.0
 43
0.0
 44
0.0
 50
0.0
 71
     0
  0
ENDTAB
  0
TABLE
  2
UCS
 70
     0
  0
ENDTAB
  0
TABLE
  2
APPID
 70
    42
  0
APPID
  2
ACAD
 70
     0
  0
APPID
  2
ACAD_PSEXT
 70
     0
  0
APPID
  2
ACAD_DSTYLE_DIMJAG
 70
     0
  0
APPID
  2
ACAD_DSTYLE_DIMTALN
 70
     0
  0
APPID
  2
ACAD_EXEMPT_FROM_CAD_STANDARDS
 70
     0
  0
APPID
  2
ACAD_MLEADERVER
 70
     0
  0
APPID
  2
DCO15
 70
     0
  0
APPID
  2
GENIUS_GENOREF_13
 70
     0
  0
APPID
  2
GENIUS_GENOENT_13
 70
     0
  0
APPID
  2
GENIUS_GENBH_13
 70
     0
  0
APPID
  2
GENIUS_GENOBJ_13
 70
     0
  0
APPID
  2
GENIUS_GENODEF_13
 70
     0
  0
APPID
  2
GENIUS_GENOLIS_13
 70
     0
  0
APPID
  2
GENIUS_GENOBJ-NBEHI-BHF_13
 70
     0
  0
APPID
  2
GENIUS_GENOBJ-NBEHI-BHB_13
 70
     0
  0
APPID
  2
GENIUS_GENOBJ-F-PART_13
 70
     0
  0
APPID
  2
GENIUS_GEFSTDP_13
 70
     0
  0
APPID
  2
GENIUS_GENOBJ-N-RSSYM_13
 70
     0
  0
APPID
  2
GENIUS_GENSYMENT_13
 70
     0
  0
APPID
  2
GENIUS_GENOBJ-N-TIT_13
 70
     0
  0
APPID
  2
GENIUS_GENTITLE_13
 70
     0
  0
APPID
  2
GENIUS_GENZVEED_13
 70
     0
  0
APPID
  2
GENIUS_GENOBJ-N-LEADER_13
 70
     0
  0
APPID
  2
GENIUS_GENOBJ-N-FIL_13
 70
     0
  0
APPID
  2
GENIUS_GENOBJ-N-SEC_13
 70
     0
  0
APPID
  2
GENIUS_GENOBJ-N-CRS_13
 70
     0
  0
APPID
  2
GENIUS_GENOBJ-N-ZOO_13
 70
     0
  0
APPID
  2
GENIUS_GENZOO_13
 70
     0
  0
APPID
  2
GENIUS_GENOBJ-F-TOL_13
 70
     0
  0
APPID
  2
GENIUS_GENFIL_13
 70
     0
  0
APPID
  2
GENIUS_GENOBJ-N-CHA_13
 70
     0
  0
APPID
  2
_CALL_MAC$
 70
     0
  0
APPID
  2
ASM_BASE
 70
     0
  0
APPID
  2
ASM_EXPLO_VER_2_00
 70
     0
  0
APPID
  2
ASM_CADM_VER_12_00
 70
     0
  0
APPID
  2
ASM_BASEFORO
 70
     0
  0
APPID
  2
ASM_BASETRAVI
 70
     0
  0
APPID
  2
ASM_BASETRAVI1
 70
     0
  0
APPID
  2
ASM_GRUPPI
 70
     0
  0
APPID
  2
ASM_CADM_ALBERO
 70
     0
  0
APPID
  2
ASM_GOLE
 70
     0
  0
APPID
  2
ACAD_NAV_VCDISPLAY
 70
     0
  0
ENDTAB
  0
TABLE
  2
DIMSTYLE
 70
     1
  0
DIMSTYLE
  2
STANDARD
 70
     0
  3

  4

  5

  6

  7

 40
1.0
 41
0.18
 42
0.0625
 43
0.38
 44
0.18
 45
0.0
 46
0.0
 47
0.0
 48
0.0
140
0.18
141
0.09
142
0.0
143
25.399999999999999
144
1.0
145
0.0
146
1.0
147
0.1
 71
     0
 72
     0
 73
     0
 74
     0
 75
     0
 76
     0
 77
     1
 78
     0
170
     0
171
     2
172
     0
173
     0
174
     0
175
     0
176
     0
177
     0
178
     0
  0
ENDTAB
  0
ENDSEC
  0
SECTION
  2
BLOCKS
  0
BLOCK
  8
0
  2
$MODEL_SPACE
 70
     0
 10
0.0
 20
0.0
 30
0.0
  3
$MODEL_SPACE
  1

  0
ENDBLK
  5
E6
  8
0
  0
BLOCK
 67
     1
  8
0
  2
$PAPER_SPACE
 70
     0
 10
0.0
 20
0.0
 30
0.0
  3
$PAPER_SPACE
  1

  0
ENDBLK
  5
E4
 67
     1
  8
0
  0
ENDSEC
  0
SECTION
  2
ENTITIES
  0
ARC
  5
F7E6
  8
0
 10
34.242263583712663
 20
54.276837356283238
 30
0.0
 40
0.6349999999999909
 50
0.0
 51
90.0
  0
LINE
  5
F7E7
  8
0
 10
34.877263583712647
 20
53.605532115702168
 30
0.0
 11
34.877263583712647
 21
54.276837356283238
 31
0.0
  0
LINE
  5
F842
  8
0
 10
18.25150025042819
 20
52.081504022471577
 30
0.0
 11
18.599878302352629
 21
41.307597356283253
 31
0.0
  0
ARC
  5
F843
  8
0
 10
17.489898302352682
 20
52.056877356283252
 30
0.0
 40
0.7620000000000085
 50
1.852033831807476
 51
80.984138765807316
  0
LINE
  5
F844
  8
0
 10
17.510491513411459
 20
55.11868167987457
 30
0.0
 11
17.609309708098859
 21
52.809462843904257
 31
0.0
  0
ARC
  5
F845
  8
0
 10
17.662752164798921
 20
55.125197356283252
 30
0.0
 40
0.1523999999999953
 50
84.450358161634455
 51
182.45035816163619
  0
LINE
  5
F846
  8
0
 10
35.31060150949282
 20
53.563574037137791
 30
0.0
 11
17.677490596353088
 21
55.276883013599047
 31
0.0
  0
LINE
  5
F847
  8
0
 10
18.599878302352629
 20
41.307597356283253
 30
0.0
 11
20.263578302352592
 21
40.344937356283253
 31
0.0
  0
LINE
  5
F848
  8
0
 10
42.653083953922867
 20
40.941323293830528
 30
0.0
 11
36.515706161768783
 21
52.749107981314751
 31
0.0
  0
ARC
  5
F849
  8
0
 10
40.624352164798779
 20
39.88773735628326
 30
0.0
 40
2.2860000000000049
 50
262.26682858338347
 51
27.44430954709502
  0
LINE
  5
F84A
  8
0
 10
20.263578302352592
 20
40.344937356283253
 30
0.0
 11
40.316826779100779
 21
37.622516806943452
 31
0.0
  0
ARC
  5
F84B
  8
0
 10
35.163218302352561
 20
52.046717356283253
 30
0.0
 40
1.5240000000000271
 50
27.44430954709393
 51
84.450358161640906
  0
LINE
  5
F880
  8
2
 10
19.288218302352671
 20
45.386837356283252
 30
0.0
 11
38.312818302352639
 21
45.386837356283252
 31
0.0
  0
LINE
  5
F8AA
  8
2
 10
38.312818302352639
 20
45.386837356283252
 30
0.0
 11
38.312818302352639
 21
49.288679744477108
 31
0.0
  0
LINE
  5
F8AB
  8
2
 10
19.288218302352671
 20
55.120365956178318
 30
0.0
 11
19.288218302352671
 21
45.386837356283252
 31
0.0
  0
LINE
  5
F8AC
  8
2
 10
35.08701830235259
 20
38.332513398404423
 30
0.0
 11
35.08701830235259
 21
45.386837356283252
 31
0.0
  0
LINE
  5
F8AD
  8
2
 10
22.514018302352611
 20
45.386837356283252
 30
0.0
 11
22.514018302352611
 21
40.039418571725221
 31
0.0
  0
ARC
  5
F8AE
  8
2
 10
21.21206358371262
 20
54.276837356283238
 30
0.0
 40
0.6350000000000052
 50
90.0
 51
180.0
  0
LINE
  5
F8AF
  8
2
 10
34.877263583712647
 20
45.386837356283223
 30
0.0
 11
34.877263583712647
 21
53.605532115702168
 31
0.0
  0
LINE
  5
F8B0
  8
2
 10
20.577063583712629
 20
54.276837356283238
 30
0.0
 11
20.577063583712629
 21
45.386837356283223
 31
0.0
  0
LINE
  5
F928
  8
0
 10
17.51035216479897
 20
102.7313721817259
 30
0.0
 11
17.51035216479897
 21
77.331372181725925
 31
0.0
  0
LINE
  5
F929
  8
0
 10
42.91035216479883
 20
77.331372181725925
 30
0.0
 11
42.910352164798951
 21
102.7313721817259
 31
0.0
  0
CIRCLE
  5
F931
  8
0
 10
27.710352164798909
 20
90.031372181725814
 30
0.0
 40
7.1500662132431101
  0
LINE
  5
F9F6
  8
0
 10
17.51035216479886
 20
102.7313721817259
 30
0.0
 11
42.91035216479883
 21
102.7313721817259
 31
0.0
  0
LINE
  5
F9F7
  8
0
 10
17.51035216479886
 20
77.331372181725925
 30
0.0
 11
42.91035216479883
 21
77.331372181725925
 31
0.0
  0
LINE
  5
F9F8
  8
2
 10
21.21206358371262
 20
54.911837356283243
 30
0.0
 11
21.43437868274998
 21
54.911837356283229
 31
0.0
  0
LINE
  5
F9F9
  8
0
 10
21.43437868274998
 20
54.911837356283229
 30
0.0
 11
34.242263583712663
 21
54.911837356283229
 31
0.0
  0
LINE
  5
FA01
  8
2
 10
20.577063583712629
 20
54.276837356283238
 30
0.0
 11
27.968241458147869
 21
54.276837356283238
 31
0.0
  0
LINE
  5
FA02
  8
0
 10
27.968241458147869
 20
54.276837356283238
 30
0.0
 11
34.877263583712647
 21
54.276837356283238
 31
0.0
  0
LINE
  5
FA4A
  8
0
 10
32.710352164798913
 20
21.886837356283252
 30
0.0
 11
22.710352164798909
 21
21.886837356283369
 31
0.0
  0
LINE
  5
FA4B
  8
0
 10
24.210352164798909
 20
20.386837356283369
 30
0.0
 11
22.710352164798909
 21
21.886837356283369
 31
0.0
  0
LINE
  5
FA4C
  8
0
 10
32.710352164798913
 20
21.886837356283252
 30
0.0
 11
31.210352164798909
 21
20.386837356283252
 31
0.0
  0
LINE
  5
FA4D
  8
0
 10
32.710352164798913
 20
36.469935533836733
 30
0.0
 11
32.710352164798913
 21
21.886837356283252
 31
0.0
  0
LINE
  5
FA4E
  8
3
 10
31.898352164799121
 20
36.469935533836733
 30
0.0
 11
31.898352164799011
 21
21.07483735628335
 31
0.0
  0
LINE
  5
FA4F
  8
3
 10
23.5223521647988
 20
36.469935533836747
 30
0.0
 11
23.5223521647988
 21
21.07483735628324
 31
0.0
  0
LINE
  5
FA50
  8
0
 10
22.710352164798909
 20
36.469935533836733
 30
0.0
 11
22.710352164798909
 21
21.886837356283309
 31
0.0
  0
LINE
  5
FA51
  8
0
 10
31.210352164798909
 20
20.386837356283252
 30
0.0
 11
24.210352164798909
 21
20.386837356283369
 31
0.0
  0
LINE
  5
FA53
  8
2
 10
23.52235216479869
 20
36.469935533836761
 30
0.0
 11
23.5223521647988
 21
45.386837356283309
 31
0.0
  0
LINE
  5
FA54
  8
2
 10
22.710352164798909
 20
36.469935533836761
 30
0.0
 11
22.710352164798909
 21
45.386837356283252
 31
0.0
  0
LINE
  5
FA55
  8
2
 10
31.898352164799011
 20
36.469935533836747
 30
0.0
 11
31.898352164799011
 21
45.386837356283252
 31
0.0
  0
LINE
  5
FA56
  8
2
 10
32.710352164798913
 20
36.469935533836747
 30
0.0
 11
32.710352164798913
 21
45.386837356283252
 31
0.0
  0
LINE
  5
FA6E
  8
1
 10
12.505152164800849
 20
90.031372181726056
 30
0.0
 11
47.905152164800711
 21
90.031372181725956
 31
0.0
  0
LINE
  5
FA8D
  8
0
 10
23.710352164798682
 20
92.340773258484148
 30
0.0
 11
23.710352164799591
 21
87.721971104967849
 31
0.0
  0
LINE
  5
FA8E
  8
0
 10
27.710352164799129
 20
94.650174335243207
 30
0.0
 11
23.710352164798682
 21
92.340773258484148
 31
0.0
  0
LINE
  5
FA8F
  8
0
 10
31.710352164799129
 20
92.340773258485498
 30
0.0
 11
27.710352164799129
 21
94.650174335243207
 31
0.0
  0
LINE
  5
FA90
  8
0
 10
31.710352164799129
 20
87.721971104967849
 30
0.0
 11
31.710352164799129
 21
92.340773258485498
 31
0.0
  0
LINE
  5
FA91
  8
0
 10
27.710352164799591
 20
85.412570028209245
 30
0.0
 11
31.710352164799129
 21
87.721971104967849
 31
0.0
  0
LINE
  5
FA92
  8
0
 10
23.710352164799591
 20
87.721971104967849
 30
0.0
 11
27.710352164799591
 21
85.412570028209245
 31
0.0
  0
LINE
  5
FABB
  8
1
 10
27.710352164798909
 20
79.662357025854362
 30
0.0
 11
27.710352164798909
 21
100.40038733759749
 31
0.0
  0
ARC
  5
FAF4
  8
0
 10
27.670178694431691
 20
90.031372181725814
 30
0.0
 40
8.3819603920789714
 50
90.0
 51
270.0
  0
LINE
  5
FAF5
  8
0
 10
27.670304155196391
 20
98.413332573804837
 30
0.0
 11
29.9308934730625
 21
98.413332573804837
 31
0.0
  0
LINE
  5
FAF6
  8
0
 10
27.670304155199691
 20
81.649411789646805
 30
0.0
 11
29.93089347306579
 21
81.649411789647701
 31
0.0
  0
ARC
  5
FAFA
  8
0
 10
29.930857909334691
 20
90.031372181725814
 30
0.0
 40
8.3819603930178967
 50
269.99914240605671
 51
90.000857593943294
  0
LINE
  5
11730
  8
1
 10
27.710352164798909
 20
61.271707581465762
 30
0.0
 11
27.710352164798909
 21
16.271707581465868
 31
0.0
  0
ARC
  5
11869
  8
0
 10
33.933352164798968
 20
38.24793553383671
 30
0.0
 40
1.7780000000000049
 50
270.0
 51
359.9941532580022
  0
LINE
  5
1186A
  8
0
 10
21.487352164798949
 20
36.469935533836747
 30
0.0
 11
33.933352164798968
 21
36.469935533836747
 31
0.0
  0
LINE
  5
1186B
  8
0
 10
22.613333857792782
 20
40.02593553383673
 30
0.0
 11
21.487352164798949
 21
40.02593553383673
 31
0.0
  0
ARC
  5
1186C
  8
0
 10
21.487352164798949
 20
38.247935533836738
 30
0.0
 40
1.7779999999999909
 50
90.0
 51
270.0
  0
LINE
  5
11874
  8
1
 10
28.800518302352661
 20
37.325699838239643
 30
0.0
 11
28.800518302352661
 21
58.268396008162647
 31
0.0
  0
LINE
  5
1187C
  8
1
 10
28.800598814129451
 20
79.662357025854362
 30
0.0
 11
28.800598814129451
 21
100.40038733759749
 31
0.0
  0
ARC
  5
129B6
  8
2
 10
27.670178694431691
 20
90.031372181725814
 30
0.0
 40
5.1561603920790349
 50
90.0
 51
270.0
  0
ARC
  5
129B7
  8
2
 10
29.9310189338272
 20
90.031372181725814
 30
0.0
 40
5.1561603920790349
 50
270.0
 51
90.0
  0
LINE
  5
129B8
  8
2
 10
27.670178694431691
 20
95.187532573804859
 30
0.0
 11
29.9310189338272
 21
95.187532573804859
 31
0.0
  0
LINE
  5
129B9
  8
2
 10
29.9310189338272
 20
84.875211789646784
 30
0.0
 11
27.670178694431691
 21
84.875211789646784
 31
0.0
  0
TEXT
  5
13882
  8
0
 62
     3
 10
0.0
 20
0.0
 30
0.0
 40
5.0
  1
MBSC10B
  7
STANDARD1
  0
ENDSEC
  0
EOF
