  0
SECTION
  2
HEADER
  9
$ACADVER
  1
AC1009
  9
$INSBASE
 10
0.0
 20
0.0
 30
0.0
  9
$EXTMIN
 10
0.0
 20
-1.4802182810368341
 30
0.0
  9
$EXTMAX
 10
32.994542974079131
 20
51.671916295735429
 30
0.0
  9
$LIMMIN
 10
0.0
 20
0.0
  9
$LIMMAX
 10
187.5
 20
135.0
  9
$ORTHOMODE
 70
     0
  9
$REGENMODE
 70
     1
  9
$FILLMODE
 70
     1
  9
$QTEXTMODE
 70
     0
  9
$MIRRTEXT
 70
     0
  9
$DRAGMODE
 70
     2
  9
$LTSCALE
 40
5.0
  9
$OSMODE
 70
  3071
  9
$ATTMODE
 70
     1
  9
$TEXTSIZE
 40
0.06
  9
$TRACEWID
 40
0.05
  9
$TEXTSTYLE
  7
STANDARD
  9
$CLAYER
  8
0
  9
$CELTYPE
  6
BYLAYER
  9
$CECOLOR
 62
   256
  9
$DIMSCALE
 40
0.5
  9
$DIMASZ
 40
3.0
  9
$DIMEXO
 40
2.0
  9
$DIMDLI
 40
10.0
  9
$DIMRND
 40
0.0
  9
$DIMDLE
 40
0.0
  9
$DIMEXE
 40
2.0
  9
$DIMTP
 40
0.0
  9
$DIMTM
 40
0.0
  9
$DIMTXT
 40
3.0
  9
$DIMCEN
 40
0.0
  9
$DIMTSZ
 40
0.0
  9
$DIMTOL
 70
     0
  9
$DIMLIM
 70
     0
  9
$DIMTIH
 70
     0
  9
$DIMTOH
 70
     0
  9
$DIMSE1
 70
     0
  9
$DIMSE2
 70
     0
  9
$DIMTAD
 70
     1
  9
$DIMZIN
 70
     8
  9
$DIMBLK
  1

  9
$DIMASO
 70
     0
  9
$DIMSHO
 70
     0
  9
$DIMPOST
  1

  9
$DIMAPOST
  1

  9
$DIMALT
 70
     0
  9
$DIMALTD
 70
     2
  9
$DIMALTF
 40
25.399999999999999
  9
$DIMLFAC
 40
1.0
  9
$DIMTOFL
 70
     1
  9
$DIMTVP
 40
1.6000000000000001
  9
$DIMTIX
 70
     1
  9
$DIMSOXD
 70
     0
  9
$DIMSAH
 70
     0
  9
$DIMBLK1
  1

  9
$DIMBLK2
  1

  9
$DIMSTYLE
  2
STANDARD
  9
$DIMCLRD
 70
     0
  9
$DIMCLRE
 70
     0
  9
$DIMCLRT
 70
     0
  9
$DIMTFAC
 40
1.0
  9
$DIMGAP
 40
1.0
  9
$LUNITS
 70
     2
  9
$LUPREC
 70
     4
  9
$SKETCHINC
 40
0.1
  9
$FILLETRAD
 40
1.3
  9
$AUNITS
 70
     0
  9
$AUPREC
 70
     4
  9
$MENU
  1
E:\r13\win\SUPPORT\ACAD
  9
$ELEVATION
 40
0.0
  9
$PELEVATION
 40
0.0
  9
$THICKNESS
 40
0.0
  9
$LIMCHECK
 70
     0
  9
$BLIPMODE
 70
     0
  9
$CHAMFERA
 40
0.0
  9
$CHAMFERB
 40
0.0
  9
$SKPOLY
 70
     0
  9
$TDCREATE
 40
2449840.5914699072
  9
$TDUPDATE
 40
2456597.6352390861
  9
$TDINDWG
 40
4.3530425463000002
  9
$TDUSRTIMER
 40
4.3530425463000002
  9
$USRTIMER
 70
     1
  9
$ANGBASE
 50
0.0
  9
$ANGDIR
 70
     0
  9
$PDMODE
 70
     0
  9
$PDSIZE
 40
0.0
  9
$PLINEWID
 40
0.0
  9
$COORDS
 70
     1
  9
$SPLFRAME
 70
     0
  9
$SPLINETYPE
 70
     6
  9
$SPLINESEGS
 70
     8
  9
$ATTDIA
 70
     0
  9
$ATTREQ
 70
     1
  9
$HANDLING
 70
     1
  9
$HANDSEED
  5
13A9C
  9
$SURFTAB1
 70
     6
  9
$SURFTAB2
 70
     6
  9
$SURFTYPE
 70
     6
  9
$SURFU
 70
     6
  9
$SURFV
 70
     6
  9
$UCSNAME
  2

  9
$UCSORG
 10
0.0
 20
0.0
 30
0.0
  9
$UCSXDIR
 10
1.0
 20
0.0
 30
0.0
  9
$UCSYDIR
 10
0.0
 20
1.0
 30
0.0
  9
$PUCSNAME
  2

  9
$PUCSORG
 10
0.0
 20
0.0
 30
0.0
  9
$PUCSXDIR
 10
1.0
 20
0.0
 30
0.0
  9
$PUCSYDIR
 10
0.0
 20
1.0
 30
0.0
  9
$USERI1
 70
     3
  9
$USERI2
 70
     1
  9
$USERI3
 70
     0
  9
$USERI4
 70
     0
  9
$USERI5
 70
     0
  9
$USERR1
 40
0.5
  9
$USERR2
 40
3.0
  9
$USERR3
 40
3.0
  9
$USERR4
 40
3.0
  9
$USERR5
 40
10.0
  9
$WORLDVIEW
 70
     1
  9
$SHADEDGE
 70
     3
  9
$SHADEDIF
 70
    70
  9
$TILEMODE
 70
     1
  9
$MAXACTVP
 70
    16
  9
$PLIMCHECK
 70
     0
  9
$PEXTMIN
 10
1.0000000000000000E+020
 20
1.0000000000000000E+020
 30
1.0000000000000000E+020
  9
$PEXTMAX
 10
-1.0000000000000000E+020
 20
-1.0000000000000000E+020
 30
-1.0000000000000000E+020
  9
$PLIMMIN
 10
0.0
 20
0.0
  9
$PLIMMAX
 10
12.0
 20
9.0
  9
$UNITMODE
 70
     0
  9
$VISRETAIN
 70
     0
  9
$PLINEGEN
 70
     0
  9
$PSLTSCALE
 70
     0
  0
ENDSEC
  0
SECTION
  2
TABLES
  0
TABLE
  2
VPORT
 70
     1
  0
VPORT
  2
*ACTIVE
 70
     0
 10
0.0
 20
0.0
 11
1.0
 21
1.0
 12
93.747139195326156
 22
67.05183146954721
 13
0.0
 23
0.0
 14
5.0
 24
5.0
 15
10.0
 25
10.0
 16
0.0
 26
0.0
 36
1.0
 17
0.0
 27
0.0
 37
0.0
 40
138.6470298934976
 41
2.304913294797688
 42
50.0
 43
0.0
 44
0.0
 50
0.0
 51
0.0
 71
     0
 72
   100
 73
     1
 74
     0
 75
     0
 76
     0
 77
     0
 78
     0
  0
ENDTAB
  0
TABLE
  2
LTYPE
 70
     4
  0
LTYPE
  2
CONTINUOUS
 70
     0
  3
Solid Line
 72
    65
 73
     0
 40
0.0
  0
LTYPE
  2
CENTER
 70
     0
  3
____ _ ____ _ ____ _ ____ _ ____ _ ____ _ ____
 72
    65
 73
     4
 40
2.0
 49
1.25
 49
-0.25
 49
0.25
 49
-0.25
  0
LTYPE
  2
HIDDEN
 70
     0
  3
_ _ _ _ _ _ _ _ _ _ _ _ _ _ _ _ _ _ _ _ _ _ _
 72
    65
 73
     2
 40
0.375
 49
0.25
 49
-0.125
  0
LTYPE
  2
PHANTOM2
 70
     0
  3
___ _ _ ___ _ _ ___ _ _ ___ _ _
 72
    65
 73
     6
 40
1.25
 49
0.625
 49
-0.125
 49
0.125
 49
-0.125
 49
0.125
 49
-0.125
  0
ENDTAB
  0
TABLE
  2
LAYER
 70
     5
  0
LAYER
  2
0
 70
     0
 62
     7
  6
CONTINUOUS
  0
LAYER
  2
1
 70
     0
 62
     1
  6
CENTER
  0
LAYER
  2
2
 70
     0
 62
     2
  6
HIDDEN
  0
LAYER
  2
3
 70
     0
 62
     3
  6
CONTINUOUS
  0
LAYER
  2
DEFPOINTS
 70
     0
 62
     7
  6
CONTINUOUS
  0
ENDTAB
  0
TABLE
  2
STYLE
 70
     2
  0
STYLE
  2
STANDARD
 70
     0
 40
0.0
 41
1.0
 50
0.0
 71
     0
 42
0.06
  3
TXT
  4
BIGFONT
  0
STYLE
  2
STANDARD1
 70
     0
 40
0.0
 41
1.0
 50
0.0
 71
     0
 42
3.0
  3
txt
  4

  0
ENDTAB
  0
TABLE
  2
VIEW
 70
     3
  0
VIEW
  2
OLE1
 70
     0
 40
24.514257897662329
 10
44.901529473115893
 20
103.25177669290009
 41
34.172454060781448
 11
0.0
 21
0.0
 31
1.0
 12
0.0
 22
0.0
 32
0.0
 42
50.0
 43
0.0
 44
0.0
 50
0.0
 71
     0
  0
VIEW
  2
OLE2
 70
     0
 40
111.8251716252055
 10
23.153306359535989
 20
84.753742215946431
 41
155.8823667497492
 11
0.0
 21
0.0
 31
1.0
 12
0.0
 22
0.0
 32
0.0
 42
50.0
 43
0.0
 44
0.0
 50
0.0
 71
     0
  0
VIEW
  2
OLE3
 70
     0
 40
74.608199520119342
 10
-293.62538904716121
 20
-23.174189004697379
 41
90.16357702624461
 11
0.0
 21
0.0
 31
1.0
 12
0.0
 22
0.0
 32
0.0
 42
50.0
 43
0.0
 44
0.0
 50
0.0
 71
     0
  0
ENDTAB
  0
TABLE
  2
UCS
 70
     0
  0
ENDTAB
  0
TABLE
  2
APPID
 70
    42
  0
APPID
  2
ACAD
 70
     0
  0
APPID
  2
ACAD_PSEXT
 70
     0
  0
APPID
  2
ACAD_DSTYLE_DIMJAG
 70
     0
  0
APPID
  2
ACAD_DSTYLE_DIMTALN
 70
     0
  0
APPID
  2
ACAD_EXEMPT_FROM_CAD_STANDARDS
 70
     0
  0
APPID
  2
ACAD_MLEADERVER
 70
     0
  0
APPID
  2
DCO15
 70
     0
  0
APPID
  2
GENIUS_GENOREF_13
 70
     0
  0
APPID
  2
GENIUS_GENOENT_13
 70
     0
  0
APPID
  2
GENIUS_GENBH_13
 70
     0
  0
APPID
  2
GENIUS_GENOBJ_13
 70
     0
  0
APPID
  2
GENIUS_GENODEF_13
 70
     0
  0
APPID
  2
GENIUS_GENOLIS_13
 70
     0
  0
APPID
  2
GENIUS_GENOBJ-NBEHI-BHF_13
 70
     0
  0
APPID
  2
GENIUS_GENOBJ-NBEHI-BHB_13
 70
     0
  0
APPID
  2
GENIUS_GENOBJ-F-PART_13
 70
     0
  0
APPID
  2
GENIUS_GEFSTDP_13
 70
     0
  0
APPID
  2
GENIUS_GENOBJ-N-RSSYM_13
 70
     0
  0
APPID
  2
GENIUS_GENSYMENT_13
 70
     0
  0
APPID
  2
GENIUS_GENOBJ-N-TIT_13
 70
     0
  0
APPID
  2
GENIUS_GENTITLE_13
 70
     0
  0
APPID
  2
GENIUS_GENZVEED_13
 70
     0
  0
APPID
  2
GENIUS_GENOBJ-N-LEADER_13
 70
     0
  0
APPID
  2
GENIUS_GENOBJ-N-FIL_13
 70
     0
  0
APPID
  2
GENIUS_GENOBJ-N-SEC_13
 70
     0
  0
APPID
  2
GENIUS_GENOBJ-N-CRS_13
 70
     0
  0
APPID
  2
GENIUS_GENOBJ-N-ZOO_13
 70
     0
  0
APPID
  2
GENIUS_GENZOO_13
 70
     0
  0
APPID
  2
GENIUS_GENOBJ-F-TOL_13
 70
     0
  0
APPID
  2
GENIUS_GENFIL_13
 70
     0
  0
APPID
  2
GENIUS_GENOBJ-N-CHA_13
 70
     0
  0
APPID
  2
_CALL_MAC$
 70
     0
  0
APPID
  2
ASM_BASE
 70
     0
  0
APPID
  2
ASM_EXPLO_VER_2_00
 70
     0
  0
APPID
  2
ASM_CADM_VER_12_00
 70
     0
  0
APPID
  2
ASM_BASEFORO
 70
     0
  0
APPID
  2
ASM_BASETRAVI
 70
     0
  0
APPID
  2
ASM_BASETRAVI1
 70
     0
  0
APPID
  2
ASM_GRUPPI
 70
     0
  0
APPID
  2
ASM_CADM_ALBERO
 70
     0
  0
APPID
  2
ASM_GOLE
 70
     0
  0
APPID
  2
ACAD_NAV_VCDISPLAY
 70
     0
  0
ENDTAB
  0
TABLE
  2
DIMSTYLE
 70
     1
  0
DIMSTYLE
  2
STANDARD
 70
     0
  3

  4

  5

  6

  7

 40
1.0
 41
0.18
 42
0.0625
 43
0.38
 44
0.18
 45
0.0
 46
0.0
 47
0.0
 48
0.0
140
0.18
141
0.09
142
0.0
143
25.399999999999999
144
1.0
145
0.0
146
1.0
147
0.1
 71
     0
 72
     0
 73
     0
 74
     0
 75
     0
 76
     0
 77
     1
 78
     0
170
     0
171
     2
172
     0
173
     0
174
     0
175
     0
176
     0
177
     0
178
     0
  0
ENDTAB
  0
ENDSEC
  0
SECTION
  2
BLOCKS
  0
BLOCK
  8
0
  2
$MODEL_SPACE
 70
     0
 10
0.0
 20
0.0
 30
0.0
  3
$MODEL_SPACE
  1

  0
ENDBLK
  5
E6
  8
0
  0
BLOCK
 67
     1
  8
0
  2
$PAPER_SPACE
 70
     0
 10
0.0
 20
0.0
 30
0.0
  3
$PAPER_SPACE
  1

  0
ENDBLK
  5
E4
 67
     1
  8
0
  0
ENDSEC
  0
SECTION
  2
ENTITIES
  0
ARC
  5
11B96
  8
0
 10
11.761017580098381
 20
26.651238426165438
 30
0.0
 40
0.076299298084052
 50
84.470625279516327
 51
182.35590817350311
  0
LINE
  5
11B97
  8
0
 10
20.587700262534099
 20
25.868491509597622
 30
0.0
 11
11.768369480238331
 21
26.72718269818413
 31
0.0
  0
LINE
  5
11B98
  8
0
 10
11.684782773266649
 20
26.64810200855305
 30
0.0
 11
11.734097424086601
 21
25.487692061479091
 31
0.0
  0
LINE
  5
11B99
  8
0
 10
23.788889620184928
 20
22.91545996241911
 30
0.0
 11
21.052365594407661
 21
25.649173001116541
 31
0.0
  0
ARC
  5
11B9A
  8
0
 10
22.352787178941409
 20
21.477880824335021
 30
0.0
 40
2.032000000000008
 50
261.46149115597592
 51
45.029442541493488
  0
LINE
  5
11B9B
  8
0
 10
13.66538507027928
 20
20.727417127935901
 30
0.0
 11
22.05108780508203
 21
19.468402910096358
 31
0.0
  0
ARC
  5
11B9C
  8
0
 10
13.853947178941439
 20
21.98334082433502
 30
0.0
 40
1.2700000000000029
 50
187.3608451432608
 51
261.46149115597592
  0
LINE
  5
11B9D
  8
0
 10
12.247028853085
 20
24.48034795432406
 30
0.0
 11
12.594413315868559
 21
21.820631120343819
 31
0.0
  0
ARC
  5
11B9E
  8
0
 10
10.67261152424396
 20
24.276960824335021
 30
0.0
 40
1.587500000000001
 50
7.3608451432608026
 51
46.859686961818873
  0
ARC
  5
11B9F
  8
0
 10
11.81022852715944
 20
25.490931682583891
 30
0.0
 40
0.0762000000000021
 50
182.43664801951689
 51
226.85968696182351
  0
ARC
  5
11BA0
  8
0
 10
20.513827178941369
 20
25.110080824335
 30
0.0
 40
0.7620000000000009
 50
45.029442541493488
 51
84.436648019515246
  0
LINE
  5
11BBD
  8
0
 10
18.784718282014289
 20
18.82982081526637
 30
0.0
 11
18.784718282014289
 21
12.66548082433496
 31
0.0
  0
LINE
  5
11BBE
  8
0
 10
17.984718282014232
 20
11.865480824335011
 30
0.0
 11
15.584718282014251
 21
11.865480824335011
 31
0.0
  0
LINE
  5
11BBF
  8
0
 10
18.784718282014289
 20
12.66548082433496
 30
0.0
 11
17.984718282014232
 21
11.865480824335011
 31
0.0
  0
LINE
  5
11BC0
  8
0
 10
14.784718282014291
 20
12.66548082433496
 30
0.0
 11
18.784718282014289
 21
12.66548082433502
 31
0.0
  0
LINE
  5
11BC1
  8
3
 10
18.405718282012909
 20
18.82982081526637
 30
0.0
 11
18.405718282012909
 21
12.286480824333641
 31
0.0
  0
LINE
  5
11BC2
  8
3
 10
15.16371828201568
 20
18.82982081526637
 30
0.0
 11
15.16371828201568
 21
12.286480824333641
 31
0.0
  0
LINE
  5
11BC3
  8
0
 10
14.784718282014291
 20
12.66548082433496
 30
0.0
 11
15.584718282014251
 21
11.865480824335011
 31
0.0
  0
LINE
  5
11BC4
  8
0
 10
14.784718282014291
 20
18.82982081526637
 30
0.0
 11
14.784718282014291
 21
12.66548082433502
 31
0.0
  0
LINE
  5
11BDE
  8
0
 10
24.384718282014319
 20
38.971958447032897
 30
0.0
 11
24.384718282014319
 21
51.671916295735429
 31
0.0
  0
LINE
  5
11BE0
  8
0
 10
11.68471828201427
 20
51.671916295735429
 30
0.0
 11
24.384718282014319
 21
51.671916295735429
 31
0.0
  0
LINE
  5
11BE1
  8
0
 10
11.68471828201427
 20
38.971958447032897
 30
0.0
 11
24.384718282014319
 21
38.971958447032897
 31
0.0
  0
LINE
  5
11BE6
  8
1
 10
9.1915615820141738
 20
45.321937371384131
 30
0.0
 11
26.888418282014189
 21
45.321937371384188
 31
0.0
  0
LINE
  5
11BE7
  8
1
 10
16.784718282014289
 20
50.571937371384109
 30
0.0
 11
16.784718282014289
 21
40.071937371384159
 31
0.0
  0
LINE
  5
11BE8
  8
1
 10
16.78471828201441
 20
50.571937371384109
 30
0.0
 11
16.78471828201441
 21
40.071937371384159
 31
0.0
  0
LINE
  5
11BE9
  8
0
 10
18.034718282014289
 20
46.043625207011473
 30
0.0
 11
18.034718282014289
 21
44.600249535756852
 31
0.0
  0
LINE
  5
11BEA
  8
0
 10
16.784718282042832
 20
46.765313044400699
 30
0.0
 11
18.034718282014289
 21
46.043625207011473
 31
0.0
  0
ARC
  5
11BEB
  8
0
 10
16.784718282014289
 20
45.321937371384159
 30
0.0
 40
1.4369677890721979
 50
330.44554323216943
 51
29.55445676783064
  0
ARC
  5
11BEC
  8
0
 10
16.784718282014289
 20
45.321937371384159
 30
0.0
 40
1.4369677890721979
 50
30.445543172558001
 51
89.554456764281355
  0
ARC
  5
11BED
  8
0
 10
16.784718282014289
 20
45.321937371384159
 30
0.0
 40
1.4369677890721979
 50
90.445543235721914
 51
149.55445682743931
  0
ARC
  5
11BEE
  8
0
 10
16.784718282014289
 20
45.321937371384159
 30
0.0
 40
1.4369677890721979
 50
150.44554323216931
 51
209.5544567678306
  0
ARC
  5
11BEF
  8
0
 10
16.784718282014289
 20
45.321937371384159
 30
0.0
 40
1.4369677890721979
 50
210.44554317255759
 51
269.5544567642782
  0
ARC
  5
11BF0
  8
0
 10
16.784718282014289
 20
45.321937371384159
 30
0.0
 40
1.4369677890721979
 50
270.44554323571862
 51
329.55445682743931
  0
LINE
  5
11BF1
  8
0
 10
16.784718282042832
 20
43.878561698367633
 30
0.0
 11
18.034718282014289
 21
44.600249535756852
 31
0.0
  0
LINE
  5
11BF2
  8
0
 10
15.534718282014291
 20
46.043625207011473
 30
0.0
 11
15.534718282014291
 21
44.600249535756852
 31
0.0
  0
LINE
  5
11BF3
  8
0
 10
16.784718281985761
 20
46.765313044400699
 30
0.0
 11
15.534718282014291
 21
46.043625207011473
 31
0.0
  0
LINE
  5
11BF4
  8
0
 10
16.784718281985761
 20
43.878561698367633
 30
0.0
 11
15.534718282014291
 21
44.600249535756852
 31
0.0
  0
LINE
  5
11BF5
  8
0
 10
11.68471828201427
 20
51.671916295735429
 30
0.0
 11
11.68471828201427
 21
38.971958447032897
 31
0.0
  0
CIRCLE
  5
11BF6
  8
0
 10
16.784718282014289
 20
45.321937371384131
 30
0.0
 40
3.7999999999999972
  0
ARC
  5
11BFD
  8
0
 10
19.578718282014279
 20
19.71882081526638
 30
0.0
 40
0.8890000000000028
 50
270.0
 51
359.18274398737321
  0
LINE
  5
11BFE
  8
0
 10
13.9907182820142
 20
18.82982081526637
 30
0.0
 11
19.578718282014279
 21
18.82982081526637
 31
0.0
  0
ARC
  5
11BFF
  8
0
 10
13.9907182820142
 20
19.71882081526638
 30
0.0
 40
0.8890000000000028
 50
90.0
 51
270.0
  0
LINE
  5
11C00
  8
0
 10
13.9907182820142
 20
20.60782081526639
 30
0.0
 11
14.46195997150914
 21
20.60782081526639
 31
0.0
  0
LINE
  5
11F24
  8
2
 10
12.67944719542686
 20
23.865480824335009
 30
0.0
 11
21.87358067799676
 21
23.865480824335009
 31
0.0
  0
LINE
  5
11F25
  8
2
 10
12.67944719542686
 20
26.63847592150665
 30
0.0
 11
12.67944719542686
 21
23.865480824335009
 31
0.0
  0
LINE
  5
11F26
  8
2
 10
21.87358067799676
 20
23.865480824335009
 30
0.0
 11
21.87358067799676
 21
24.828801478544339
 31
0.0
  0
LINE
  5
11F27
  8
2
 10
20.0451139367118
 20
19.769576192856668
 30
0.0
 11
20.0451139367118
 21
23.865480824335009
 31
0.0
  0
LINE
  5
11F28
  8
2
 10
14.507913936711811
 20
23.865480824335009
 30
0.0
 11
14.507913936711811
 21
20.600921370177101
 31
0.0
  0
LINE
  5
11F2A
  8
2
 10
12.98471828201434
 20
24.365480824346658
 30
0.0
 11
20.584718282014251
 21
24.365480824346658
 31
0.0
  0
LINE
  5
11F2B
  8
2
 10
18.221754968013549
 20
26.059141837346662
 30
0.0
 11
15.34768159601526
 21
26.059141837346719
 31
0.0
  0
LINE
  5
11F2C
  8
2
 10
20.584718282014251
 20
23.865480824346658
 30
0.0
 11
20.584718282014251
 21
24.365480824346658
 31
0.0
  0
LINE
  5
11F2D
  8
2
 10
12.98471828201434
 20
24.365480824346658
 30
0.0
 11
12.98471828201434
 21
23.865480824346658
 31
0.0
  0
POLYLINE
  5
11F2E
  8
2
 66
     1
 10
0.0
 20
0.0
 30
0.0
 70
     2
  0
VERTEX
  5
11F2F
  8
2
 10
15.347681596015031
 20
26.059141837346662
 30
0.0
 42
0.0158522154451643
  0
VERTEX
  5
11F30
  8
2
 10
15.133836192372771
 20
26.038024662877032
 30
0.0
 42
0.0256732840078816
 70
     1
  0
VERTEX
  5
11F31
  8
2
 10
15.00327852363114
 20
26.014069131940861
 30
0.0
 42
0.0030021713197812
  0
VERTEX
  5
11F32
  8
2
 10
14.793504762266251
 20
25.962999095331611
 30
0.0
 42
0.0099602603123409
 70
     1
  0
VERTEX
  5
11F33
  8
2
 10
14.73069040961332
 20
25.945970484229068
 30
0.0
 42
0.0263851772827436
  0
VERTEX
  5
11F34
  8
2
 10
14.4956032454528
 20
25.86349606931282
 30
0.0
 42
0.0239590294118231
 70
     1
  0
VERTEX
  5
11F35
  8
2
 10
14.2471793512409
 20
25.747126173664132
 30
0.0
 42
0.0168821915884279
  0
VERTEX
  5
11F36
  8
2
 10
14.07938579399854
 20
25.651110454013981
 30
0.0
 42
0.01762617533088
 70
     1
  0
VERTEX
  5
11F37
  8
2
 10
13.92539453661527
 20
25.548281863099142
 30
0.0
 42
0.0177913585156189
  0
VERTEX
  5
11F38
  8
2
 10
13.761516188170051
 20
25.421204256585611
 30
0.0
 42
0.0186181085710238
 70
     1
  0
VERTEX
  5
11F39
  8
2
 10
13.61415941138455
 20
25.288695178097498
 30
0.0
 42
0.0198367234930261
  0
VERTEX
  5
11F3A
  8
2
 10
13.454940365258491
 20
25.12167861496107
 30
0.0
 42
0.0216235522334303
 70
     1
  0
VERTEX
  5
11F3B
  8
2
 10
13.3220583439147
 20
24.956881343722898
 30
0.0
 42
0.0129622502629455
  0
VERTEX
  5
11F3C
  8
2
 10
13.28236480215844
 20
24.900019472883631
 30
0.0
 42
0.0034970654143249
 70
     1
  0
VERTEX
  5
11F3D
  8
2
 10
13.14227445327219
 20
24.684560382233659
 30
0.0
 42
0.0277211019071754
  0
VERTEX
  5
11F3E
  8
2
 10
13.077441023068561
 20
24.56975825371012
 30
0.0
 42
0.0162837196839507
 70
     1
  0
VERTEX
  5
11F3F
  8
2
 10
12.98471828201434
 20
24.365480824346658
 30
0.0
  0
SEQEND
  5
11F40
  8
2
  0
POLYLINE
  5
11F41
  8
2
 66
     1
 10
0.0
 20
0.0
 30
0.0
 70
     2
  0
VERTEX
  5
11F42
  8
2
 10
18.221754968013549
 20
26.059141837346662
 30
0.0
 42
-0.0158522154451643
  0
VERTEX
  5
11F43
  8
2
 10
18.43560037165582
 20
26.038024662877032
 30
0.0
 42
-0.0256732840078816
 70
     1
  0
VERTEX
  5
11F44
  8
2
 10
18.56615804039745
 20
26.014069131940861
 30
0.0
 42
-0.0030021713197812
  0
VERTEX
  5
11F45
  8
2
 10
18.77593180176234
 20
25.962999095331611
 30
0.0
 42
-0.0099602603123409
 70
     1
  0
VERTEX
  5
11F46
  8
2
 10
18.838746154415269
 20
25.945970484229068
 30
0.0
 42
-0.0263851772827436
  0
VERTEX
  5
11F47
  8
2
 10
19.07383331857579
 20
25.86349606931282
 30
0.0
 42
-0.0239590294118231
 70
     1
  0
VERTEX
  5
11F48
  8
2
 10
19.32225721278769
 20
25.747126173664132
 30
0.0
 42
-0.0168821915884279
  0
VERTEX
  5
11F49
  8
2
 10
19.490050770030049
 20
25.651110454013981
 30
0.0
 42
-0.01762617533088
 70
     1
  0
VERTEX
  5
11F4A
  8
2
 10
19.64404202741332
 20
25.548281863099142
 30
0.0
 42
-0.0177913585156189
  0
VERTEX
  5
11F4B
  8
2
 10
19.80792037585854
 20
25.421204256585611
 30
0.0
 42
-0.0186181085710238
 70
     1
  0
VERTEX
  5
11F4C
  8
2
 10
19.95527715264404
 20
25.288695178097498
 30
0.0
 42
-0.0198367234930261
  0
VERTEX
  5
11F4D
  8
2
 10
20.114496198770102
 20
25.12167861496107
 30
0.0
 42
-0.0216235522334303
 70
     1
  0
VERTEX
  5
11F4E
  8
2
 10
20.247378220113891
 20
24.956881343722898
 30
0.0
 42
-0.0129622502629455
  0
VERTEX
  5
11F4F
  8
2
 10
20.287071761870148
 20
24.900019472883631
 30
0.0
 42
-0.0034970654143249
 70
     1
  0
VERTEX
  5
11F50
  8
2
 10
20.427162110756399
 20
24.684560382233659
 30
0.0
 42
-0.0277211019071754
  0
VERTEX
  5
11F51
  8
2
 10
20.49199554096003
 20
24.56975825371012
 30
0.0
 42
-0.0162837196839507
 70
     1
  0
VERTEX
  5
11F52
  8
2
 10
20.584718282014251
 20
24.365480824346658
 30
0.0
  0
SEQEND
  5
11F53
  8
2
  0
LINE
  5
11F54
  8
2
 10
18.405718282012909
 20
18.82982081526637
 30
0.0
 11
18.405718282012909
 21
23.865480824346658
 31
0.0
  0
LINE
  5
11F55
  8
2
 10
18.784718282014289
 20
18.82982081526637
 30
0.0
 11
18.784718282014289
 21
23.865480824346658
 31
0.0
  0
LINE
  5
11F56
  8
2
 10
15.16371828201568
 20
18.82982081526637
 30
0.0
 11
15.16371828201556
 21
23.865480824346658
 31
0.0
  0
LINE
  5
11F57
  8
2
 10
14.784718282014291
 20
18.82982081526637
 30
0.0
 11
14.784718282014291
 21
23.865480824346719
 31
0.0
  0
LINE
  5
11F62
  8
1
 10
16.784718282014289
 20
9.5090032016488522
 30
0.0
 11
16.784718282014289
 21
28.965480824346681
 31
0.0
  0
LINE
  5
11F63
  8
1
 10
17.276513936711691
 20
27.69234603913878
 30
0.0
 11
17.276513936711691
 21
19.338575061513829
 31
0.0
  0
LINE
  5
11FE0
  8
1
 10
17.276513936711691
 20
50.571937371384109
 30
0.0
 11
17.276513936711691
 21
40.071937371384159
 31
0.0
  0
LINE
  5
11FE1
  8
1
 10
17.276513936711801
 20
50.571937371384109
 30
0.0
 11
17.276513936711801
 21
40.071937371384159
 31
0.0
  0
ARC
  5
139C9
  8
0
 10
16.85264372978861
 20
45.321937371384159
 30
0.0
 40
4.1731965343617823
 50
96.043884220058814
 51
263.95611577994117
  0
ARC
  5
139CA
  8
2
 10
16.85264372978861
 20
45.321937371384159
 30
0.0
 40
2.3447297930768398
 50
96.043884220058814
 51
263.95611577994117
  0
ARC
  5
139CB
  8
0
 10
17.700384143634889
 20
45.321937371384159
 30
0.0
 40
4.1731965343617823
 50
276.04388422005547
 51
83.9561157799412
  0
LINE
  5
139CC
  8
0
 10
16.41324719542683
 20
49.471937371384172
 30
0.0
 11
18.139780677996779
 21
49.471937371384172
 31
0.0
  0
LINE
  5
139CD
  8
0
 10
18.139780677996669
 20
41.171937371384161
 30
0.0
 11
16.41324719542683
 21
41.171937371384161
 31
0.0
  0
ARC
  5
139CE
  8
2
 10
17.700384143635802
 20
45.321937371384251
 30
0.0
 40
2.3447297930768398
 50
276.04388422006542
 51
83.956115779954075
  0
LINE
  5
139CF
  8
2
 10
16.605766752725572
 20
47.65363408423908
 30
0.0
 11
17.947261120698268
 21
47.653634084239222
 31
0.0
  0
LINE
  5
139D0
  8
2
 10
17.947261120699181
 20
42.990240658529373
 30
0.0
 11
16.605766752725678
 21
42.990240658529252
 31
0.0
  0
TEXT
  5
13A34
  8
0
 62
     3
 10
0.0
 20
0.0
 30
0.0
 40
5.0
  1
MBSC04C
  7
STANDARD1
  0
ENDSEC
  0
EOF
