  0
SECTION
  2
HEADER
  9
$ACADVER
  1
AC1009
  9
$INSBASE
 10
0.0
 20
0.0
 30
0.0
  9
$EXTMIN
 10
0.0
 20
-1.4802182810368341
 30
0.0
  9
$EXTMAX
 10
36.493860845839023
 20
45.735621084500423
 30
0.0
  9
$LIMMIN
 10
0.0
 20
0.0
  9
$LIMMAX
 10
187.5
 20
135.0
  9
$ORTHOMODE
 70
     1
  9
$REGENMODE
 70
     1
  9
$FILLMODE
 70
     1
  9
$QTEXTMODE
 70
     0
  9
$MIRRTEXT
 70
     0
  9
$DRAGMODE
 70
     2
  9
$LTSCALE
 40
5.0
  9
$OSMODE
 70
  3071
  9
$ATTMODE
 70
     1
  9
$TEXTSIZE
 40
0.06
  9
$TRACEWID
 40
0.05
  9
$TEXTSTYLE
  7
STANDARD
  9
$CLAYER
  8
0
  9
$CELTYPE
  6
BYLAYER
  9
$CECOLOR
 62
   256
  9
$DIMSCALE
 40
0.5
  9
$DIMASZ
 40
3.0
  9
$DIMEXO
 40
2.0
  9
$DIMDLI
 40
10.0
  9
$DIMRND
 40
0.0
  9
$DIMDLE
 40
0.0
  9
$DIMEXE
 40
2.0
  9
$DIMTP
 40
0.0
  9
$DIMTM
 40
0.0
  9
$DIMTXT
 40
3.0
  9
$DIMCEN
 40
0.0
  9
$DIMTSZ
 40
0.0
  9
$DIMTOL
 70
     0
  9
$DIMLIM
 70
     0
  9
$DIMTIH
 70
     0
  9
$DIMTOH
 70
     0
  9
$DIMSE1
 70
     0
  9
$DIMSE2
 70
     0
  9
$DIMTAD
 70
     1
  9
$DIMZIN
 70
     8
  9
$DIMBLK
  1

  9
$DIMASO
 70
     0
  9
$DIMSHO
 70
     0
  9
$DIMPOST
  1

  9
$DIMAPOST
  1

  9
$DIMALT
 70
     0
  9
$DIMALTD
 70
     2
  9
$DIMALTF
 40
25.399999999999999
  9
$DIMLFAC
 40
1.0
  9
$DIMTOFL
 70
     1
  9
$DIMTVP
 40
1.6000000000000001
  9
$DIMTIX
 70
     1
  9
$DIMSOXD
 70
     0
  9
$DIMSAH
 70
     0
  9
$DIMBLK1
  1

  9
$DIMBLK2
  1

  9
$DIMSTYLE
  2
STANDARD
  9
$DIMCLRD
 70
     0
  9
$DIMCLRE
 70
     0
  9
$DIMCLRT
 70
     0
  9
$DIMTFAC
 40
1.0
  9
$DIMGAP
 40
1.0
  9
$LUNITS
 70
     2
  9
$LUPREC
 70
     4
  9
$SKETCHINC
 40
0.1
  9
$FILLETRAD
 40
1.3
  9
$AUNITS
 70
     0
  9
$AUPREC
 70
     4
  9
$MENU
  1
E:\r13\win\SUPPORT\ACAD
  9
$ELEVATION
 40
0.0
  9
$PELEVATION
 40
0.0
  9
$THICKNESS
 40
0.0
  9
$LIMCHECK
 70
     0
  9
$BLIPMODE
 70
     0
  9
$CHAMFERA
 40
0.0
  9
$CHAMFERB
 40
0.0
  9
$SKPOLY
 70
     0
  9
$TDCREATE
 40
2449840.5914699072
  9
$TDUPDATE
 40
2456597.6352098258
  9
$TDINDWG
 40
4.2631534490999998
  9
$TDUSRTIMER
 40
4.2631534490999998
  9
$USRTIMER
 70
     1
  9
$ANGBASE
 50
0.0
  9
$ANGDIR
 70
     0
  9
$PDMODE
 70
     0
  9
$PDSIZE
 40
0.0
  9
$PLINEWID
 40
0.0
  9
$COORDS
 70
     1
  9
$SPLFRAME
 70
     0
  9
$SPLINETYPE
 70
     6
  9
$SPLINESEGS
 70
     8
  9
$ATTDIA
 70
     0
  9
$ATTREQ
 70
     1
  9
$HANDLING
 70
     1
  9
$HANDSEED
  5
1396C
  9
$SURFTAB1
 70
     6
  9
$SURFTAB2
 70
     6
  9
$SURFTYPE
 70
     6
  9
$SURFU
 70
     6
  9
$SURFV
 70
     6
  9
$UCSNAME
  2

  9
$UCSORG
 10
0.0
 20
0.0
 30
0.0
  9
$UCSXDIR
 10
1.0
 20
0.0
 30
0.0
  9
$UCSYDIR
 10
0.0
 20
1.0
 30
0.0
  9
$PUCSNAME
  2

  9
$PUCSORG
 10
0.0
 20
0.0
 30
0.0
  9
$PUCSXDIR
 10
1.0
 20
0.0
 30
0.0
  9
$PUCSYDIR
 10
0.0
 20
1.0
 30
0.0
  9
$USERI1
 70
     3
  9
$USERI2
 70
     1
  9
$USERI3
 70
     0
  9
$USERI4
 70
     0
  9
$USERI5
 70
     0
  9
$USERR1
 40
0.5
  9
$USERR2
 40
3.0
  9
$USERR3
 40
3.0
  9
$USERR4
 40
3.0
  9
$USERR5
 40
10.0
  9
$WORLDVIEW
 70
     1
  9
$SHADEDGE
 70
     3
  9
$SHADEDIF
 70
    70
  9
$TILEMODE
 70
     1
  9
$MAXACTVP
 70
    16
  9
$PLIMCHECK
 70
     0
  9
$PEXTMIN
 10
1.0000000000000000E+020
 20
1.0000000000000000E+020
 30
1.0000000000000000E+020
  9
$PEXTMAX
 10
-1.0000000000000000E+020
 20
-1.0000000000000000E+020
 30
-1.0000000000000000E+020
  9
$PLIMMIN
 10
0.0
 20
0.0
  9
$PLIMMAX
 10
12.0
 20
9.0
  9
$UNITMODE
 70
     0
  9
$VISRETAIN
 70
     0
  9
$PLINEGEN
 70
     0
  9
$PSLTSCALE
 70
     0
  0
ENDSEC
  0
SECTION
  2
TABLES
  0
TABLE
  2
VPORT
 70
     1
  0
VPORT
  2
*ACTIVE
 70
     0
 10
0.0
 20
0.0
 11
1.0
 21
1.0
 12
93.747139195326156
 22
67.05183146954721
 13
0.0
 23
0.0
 14
5.0
 24
5.0
 15
10.0
 25
10.0
 16
0.0
 26
0.0
 36
1.0
 17
0.0
 27
0.0
 37
0.0
 40
138.6470298934976
 41
2.304913294797688
 42
50.0
 43
0.0
 44
0.0
 50
0.0
 51
0.0
 71
     0
 72
   100
 73
     1
 74
     0
 75
     0
 76
     0
 77
     0
 78
     0
  0
ENDTAB
  0
TABLE
  2
LTYPE
 70
     4
  0
LTYPE
  2
CONTINUOUS
 70
     0
  3
Solid Line
 72
    65
 73
     0
 40
0.0
  0
LTYPE
  2
CENTER
 70
     0
  3
____ _ ____ _ ____ _ ____ _ ____ _ ____ _ ____
 72
    65
 73
     4
 40
2.0
 49
1.25
 49
-0.25
 49
0.25
 49
-0.25
  0
LTYPE
  2
HIDDEN
 70
     0
  3
_ _ _ _ _ _ _ _ _ _ _ _ _ _ _ _ _ _ _ _ _ _ _
 72
    65
 73
     2
 40
0.375
 49
0.25
 49
-0.125
  0
LTYPE
  2
PHANTOM2
 70
     0
  3
___ _ _ ___ _ _ ___ _ _ ___ _ _
 72
    65
 73
     6
 40
1.25
 49
0.625
 49
-0.125
 49
0.125
 49
-0.125
 49
0.125
 49
-0.125
  0
ENDTAB
  0
TABLE
  2
LAYER
 70
     5
  0
LAYER
  2
0
 70
     0
 62
     7
  6
CONTINUOUS
  0
LAYER
  2
1
 70
     0
 62
     1
  6
CENTER
  0
LAYER
  2
2
 70
     0
 62
     2
  6
HIDDEN
  0
LAYER
  2
3
 70
     0
 62
     3
  6
CONTINUOUS
  0
LAYER
  2
DEFPOINTS
 70
     0
 62
     7
  6
CONTINUOUS
  0
ENDTAB
  0
TABLE
  2
STYLE
 70
     2
  0
STYLE
  2
STANDARD
 70
     0
 40
0.0
 41
1.0
 50
0.0
 71
     0
 42
0.06
  3
TXT
  4
BIGFONT
  0
STYLE
  2
STANDARD1
 70
     0
 40
0.0
 41
1.0
 50
0.0
 71
     0
 42
3.0
  3
txt
  4

  0
ENDTAB
  0
TABLE
  2
VIEW
 70
     3
  0
VIEW
  2
OLE1
 70
     0
 40
24.514257897662329
 10
44.901529473115893
 20
103.25177669290009
 41
34.172454060781448
 11
0.0
 21
0.0
 31
1.0
 12
0.0
 22
0.0
 32
0.0
 42
50.0
 43
0.0
 44
0.0
 50
0.0
 71
     0
  0
VIEW
  2
OLE2
 70
     0
 40
111.8251716252055
 10
23.153306359535989
 20
84.753742215946431
 41
155.8823667497492
 11
0.0
 21
0.0
 31
1.0
 12
0.0
 22
0.0
 32
0.0
 42
50.0
 43
0.0
 44
0.0
 50
0.0
 71
     0
  0
VIEW
  2
OLE3
 70
     0
 40
74.608199520119342
 10
-293.62538904716121
 20
-23.174189004697379
 41
90.16357702624461
 11
0.0
 21
0.0
 31
1.0
 12
0.0
 22
0.0
 32
0.0
 42
50.0
 43
0.0
 44
0.0
 50
0.0
 71
     0
  0
ENDTAB
  0
TABLE
  2
UCS
 70
     0
  0
ENDTAB
  0
TABLE
  2
APPID
 70
    42
  0
APPID
  2
ACAD
 70
     0
  0
APPID
  2
ACAD_PSEXT
 70
     0
  0
APPID
  2
ACAD_DSTYLE_DIMJAG
 70
     0
  0
APPID
  2
ACAD_DSTYLE_DIMTALN
 70
     0
  0
APPID
  2
ACAD_EXEMPT_FROM_CAD_STANDARDS
 70
     0
  0
APPID
  2
ACAD_MLEADERVER
 70
     0
  0
APPID
  2
DCO15
 70
     0
  0
APPID
  2
GENIUS_GENOREF_13
 70
     0
  0
APPID
  2
GENIUS_GENOENT_13
 70
     0
  0
APPID
  2
GENIUS_GENBH_13
 70
     0
  0
APPID
  2
GENIUS_GENOBJ_13
 70
     0
  0
APPID
  2
GENIUS_GENODEF_13
 70
     0
  0
APPID
  2
GENIUS_GENOLIS_13
 70
     0
  0
APPID
  2
GENIUS_GENOBJ-NBEHI-BHF_13
 70
     0
  0
APPID
  2
GENIUS_GENOBJ-NBEHI-BHB_13
 70
     0
  0
APPID
  2
GENIUS_GENOBJ-F-PART_13
 70
     0
  0
APPID
  2
GENIUS_GEFSTDP_13
 70
     0
  0
APPID
  2
GENIUS_GENOBJ-N-RSSYM_13
 70
     0
  0
APPID
  2
GENIUS_GENSYMENT_13
 70
     0
  0
APPID
  2
GENIUS_GENOBJ-N-TIT_13
 70
     0
  0
APPID
  2
GENIUS_GENTITLE_13
 70
     0
  0
APPID
  2
GENIUS_GENZVEED_13
 70
     0
  0
APPID
  2
GENIUS_GENOBJ-N-LEADER_13
 70
     0
  0
APPID
  2
GENIUS_GENOBJ-N-FIL_13
 70
     0
  0
APPID
  2
GENIUS_GENOBJ-N-SEC_13
 70
     0
  0
APPID
  2
GENIUS_GENOBJ-N-CRS_13
 70
     0
  0
APPID
  2
GENIUS_GENOBJ-N-ZOO_13
 70
     0
  0
APPID
  2
GENIUS_GENZOO_13
 70
     0
  0
APPID
  2
GENIUS_GENOBJ-F-TOL_13
 70
     0
  0
APPID
  2
GENIUS_GENFIL_13
 70
     0
  0
APPID
  2
GENIUS_GENOBJ-N-CHA_13
 70
     0
  0
APPID
  2
_CALL_MAC$
 70
     0
  0
APPID
  2
ASM_BASE
 70
     0
  0
APPID
  2
ASM_EXPLO_VER_2_00
 70
     0
  0
APPID
  2
ASM_CADM_VER_12_00
 70
     0
  0
APPID
  2
ASM_BASEFORO
 70
     0
  0
APPID
  2
ASM_BASETRAVI
 70
     0
  0
APPID
  2
ASM_BASETRAVI1
 70
     0
  0
APPID
  2
ASM_GRUPPI
 70
     0
  0
APPID
  2
ASM_CADM_ALBERO
 70
     0
  0
APPID
  2
ASM_GOLE
 70
     0
  0
APPID
  2
ACAD_NAV_VCDISPLAY
 70
     0
  0
ENDTAB
  0
TABLE
  2
DIMSTYLE
 70
     1
  0
DIMSTYLE
  2
STANDARD
 70
     0
  3

  4

  5

  6

  7

 40
1.0
 41
0.18
 42
0.0625
 43
0.38
 44
0.18
 45
0.0
 46
0.0
 47
0.0
 48
0.0
140
0.18
141
0.09
142
0.0
143
25.399999999999999
144
1.0
145
0.0
146
1.0
147
0.1
 71
     0
 72
     0
 73
     0
 74
     0
 75
     0
 76
     0
 77
     1
 78
     0
170
     0
171
     2
172
     0
173
     0
174
     0
175
     0
176
     0
177
     0
178
     0
  0
ENDTAB
  0
ENDSEC
  0
SECTION
  2
BLOCKS
  0
BLOCK
  8
0
  2
$MODEL_SPACE
 70
     0
 10
0.0
 20
0.0
 30
0.0
  3
$MODEL_SPACE
  1

  0
ENDBLK
  5
E6
  8
0
  0
BLOCK
 67
     1
  8
0
  2
$PAPER_SPACE
 70
     0
 10
0.0
 20
0.0
 30
0.0
  3
$PAPER_SPACE
  1

  0
ENDBLK
  5
E4
 67
     1
  8
0
  0
ENDSEC
  0
SECTION
  2
ENTITIES
  0
ARC
  5
9BB0
  8
0
 10
19.204468262555679
 20
21.187181808468239
 30
0.0
 40
0.189653333333348
 50
0.0
 51
90.0
  0
ARC
  5
9BB1
  8
0
 10
14.9355749292223
 20
21.187181808468239
 30
0.0
 40
0.189653333333348
 50
90.0
 51
180.0
  0
LINE
  5
9BB2
  8
0
 10
19.394121595889029
 20
20.639109938807369
 30
0.0
 11
19.394121595889029
 21
21.187181808468239
 31
0.0
  0
LINE
  5
9C0A
  8
0
 10
13.270191064967721
 20
20.99973442339493
 30
0.0
 11
13.31060367579977
 21
19.950788904075861
 31
0.0
  0
ARC
  5
9C0B
  8
0
 10
13.49862159566686
 20
21.008535141801438
 30
0.0
 40
0.2286000000000035
 50
84.900359958183586
 51
182.2063371085153
  0
LINE
  5
9C0C
  8
0
 10
21.14176177082868
 20
20.461786410550591
 30
0.0
 11
13.518941401446961
 21
21.23623025701707
 31
0.0
  0
ARC
  5
9C0D
  8
0
 10
21.128941595888929
 20
20.33543514180144
 30
0.0
 40
0.1270000000000084
 50
29.978368948415572
 51
84.206337108516024
  0
LINE
  5
9C0E
  8
0
 10
22.56581962124887
 20
18.04131681078627
 30
0.0
 11
21.238950787680889
 21
20.398893614216831
 31
0.0
  0
ARC
  5
9C0F
  8
0
 10
21.249717752721491
 20
17.28026513939119
 30
0.0
 40
1.520303842945393
 50
260.62705158470999
 51
30.039162387432139
  0
LINE
  5
9C10
  8
0
 10
14.770548999027479
 20
16.713888947456208
 30
0.0
 11
21.00212084900437
 21
15.78025862335727
 31
0.0
  0
ARC
  5
9C11
  8
0
 10
14.91356159588895
 20
17.668435141801471
 30
0.0
 40
0.9652000000000013
 50
187.46470943096961
 51
261.4791750094422
  0
LINE
  5
9C12
  8
0
 10
13.780563699341091
 20
18.96114490133127
 30
0.0
 11
13.95654159913113
 21
17.543040700913821
 31
0.0
  0
ARC
  5
9C13
  8
0
 10
12.016401136452769
 20
18.729791969364751
 30
0.0
 40
1.7792677503473651
 50
7.4711552796962817
 51
43.332860494185098
  0
LINE
  5
9C14
  8
0
 10
19.204468262555679
 20
21.37683514180145
 30
0.0
 11
14.9355749292223
 21
21.37683514180145
 31
0.0
  0
LINE
  5
9C3E
  8
0
 10
19.394121595889029
 20
21.187181808468239
 30
0.0
 11
14.745921595888939
 21
21.187181808468239
 31
0.0
  0
LINE
  5
9C41
  8
2
 10
14.40302159588896
 20
18.53203514180143
 30
0.0
 11
20.499021595888959
 21
18.53203514180143
 31
0.0
  0
LINE
  5
9C6A
  8
2
 10
14.40302159588896
 20
21.14552966672019
 30
0.0
 11
14.40302159588896
 21
18.53203514180143
 31
0.0
  0
LINE
  5
9C6B
  8
2
 10
20.499021595888959
 20
18.53203514180143
 30
0.0
 11
20.499021595888959
 21
20.527001754765589
 31
0.0
  0
LINE
  5
9C6C
  8
2
 10
19.29252159588896
 20
16.036395235947449
 30
0.0
 11
19.29252159588896
 21
18.53203514180143
 31
0.0
  0
LINE
  5
9C6D
  8
2
 10
15.60952159588896
 20
18.53203514180143
 30
0.0
 11
15.60952159588896
 21
16.588191887970201
 31
0.0
  0
LINE
  5
9C6E
  8
2
 10
19.394121595889029
 20
18.53203514180143
 30
0.0
 11
19.394121595889029
 21
20.639109938807369
 31
0.0
  0
LINE
  5
9C6F
  8
2
 10
14.745921595888939
 20
21.110737471672739
 30
0.0
 11
14.745921595888939
 21
18.53203514180143
 31
0.0
  0
LINE
  5
D50E
  8
0
 10
13.270021595666829
 20
45.735621084500423
 30
0.0
 11
13.270021595666829
 21
36.235621084500423
 31
0.0
  0
LINE
  5
D50F
  8
0
 10
22.77002159566689
 20
36.235621084500423
 30
0.0
 11
22.77002159566695
 21
45.735621084500423
 31
0.0
  0
LINE
  5
D510
  8
0
 10
17.068576933860012
 20
39.832479526650282
 30
0.0
 11
16.068576933860069
 21
40.409829795839698
 31
0.0
  0
LINE
  5
D511
  8
0
 10
18.068576933860069
 20
40.409829795839698
 30
0.0
 11
17.068576933860012
 21
39.832479526650282
 31
0.0
  0
LINE
  5
D512
  8
0
 10
18.068576933860069
 20
41.564530334218603
 30
0.0
 11
18.068576933860069
 21
40.409829795839698
 31
0.0
  0
LINE
  5
D513
  8
0
 10
17.068576933860012
 20
42.141880603408019
 30
0.0
 11
18.068576933860069
 21
41.564530334218603
 31
0.0
  0
LINE
  5
D514
  8
0
 10
16.068576933860069
 20
41.564530334218603
 30
0.0
 11
17.068576933860012
 21
42.141880603408019
 31
0.0
  0
LINE
  5
D515
  8
0
 10
16.068576933860069
 20
40.409829795839698
 30
0.0
 11
16.068576933860069
 21
41.564530334218603
 31
0.0
  0
CIRCLE
  5
D517
  8
0
 10
17.070009580983541
 20
40.985621084500423
 30
0.0
 40
2.3241048709076209
  0
ARC
  5
D51C
  8
0
 10
17.832011178002858
 20
40.985621084500423
 30
0.0
 40
2.6670055895661098
 50
270.0
 51
90.0
  0
LINE
  5
D51D
  8
0
 10
17.070009580983541
 20
43.652626674066532
 30
0.0
 11
17.832011178002858
 21
43.652626674066532
 31
0.0
  0
ARC
  5
D51E
  8
0
 10
17.070009580983541
 20
40.985621084500423
 30
0.0
 40
2.6670055895661098
 50
90.0
 51
270.0
  0
LINE
  5
D51F
  8
0
 10
17.832011178002858
 20
38.318615494934278
 30
0.0
 11
17.070009580983541
 21
38.318615494934278
 31
0.0
  0
LINE
  5
E0CE
  8
0
 10
13.270021595666829
 20
45.735621084500423
 30
0.0
 11
22.770021595666829
 21
45.735621084500423
 31
0.0
  0
LINE
  5
E0CF
  8
0
 10
13.270021595666829
 20
36.235621084500423
 30
0.0
 11
22.77002159566689
 21
36.235621084500423
 31
0.0
  0
LINE
  5
E1ED
  8
2
 10
15.82002159566696
 20
15.008556742232511
 30
0.0
 11
15.82002159566696
 21
18.532035141801341
 31
0.0
  0
LINE
  5
E1EE
  8
2
 10
16.070021595666962
 20
15.008556742232511
 30
0.0
 11
16.070021595666731
 21
18.532035141801341
 31
0.0
  0
LINE
  5
E1EF
  8
2
 10
18.07002159566667
 20
15.008556742232511
 30
0.0
 11
18.070021595666731
 21
18.532035141801341
 31
0.0
  0
LINE
  5
E1F0
  8
2
 10
18.320021595666731
 20
15.008556742232511
 30
0.0
 11
18.320021595666731
 21
18.532035141801341
 31
0.0
  0
LINE
  5
E1F1
  8
0
 10
17.820021595666841
 20
10.5320351418014
 30
0.0
 11
16.320021595666841
 21
10.53203514180146
 31
0.0
  0
LINE
  5
E1F2
  8
0
 10
18.320021595666791
 20
15.008556742232511
 30
0.0
 11
18.320021595666841
 21
11.032035141801289
 31
0.0
  0
LINE
  5
E1F3
  8
0
 10
15.82002159566696
 20
15.008556742232511
 30
0.0
 11
15.820021595666841
 21
11.0320351418014
 31
0.0
  0
LINE
  5
E1F4
  8
3
 10
18.070021595666841
 20
10.782035141801231
 30
0.0
 11
18.07002159566678
 21
15.008556742232511
 31
0.0
  0
LINE
  5
E1F5
  8
3
 10
16.070021595666841
 20
10.78203514180151
 30
0.0
 11
16.070021595666841
 21
15.008556742232511
 31
0.0
  0
LINE
  5
E1F6
  8
0
 10
15.820021595666841
 20
11.03203514180146
 30
0.0
 11
16.320021595666841
 21
10.53203514180146
 31
0.0
  0
LINE
  5
E1F7
  8
0
 10
18.320021595666841
 20
11.0320351418014
 30
0.0
 11
17.820021595666841
 21
10.5320351418014
 31
0.0
  0
LINE
  5
E1F8
  8
0
 10
15.820021595666841
 20
11.03203514180146
 30
0.0
 11
18.320021595666841
 21
11.0320351418014
 31
0.0
  0
LINE
  5
E1F9
  8
1
 10
17.070021595666329
 20
8.9051852418014334
 30
0.0
 11
17.070021595666841
 21
23.00368504180145
 31
0.0
  0
LINE
  5
E203
  8
1
 10
11.291421595666799
 20
40.985621084500423
 30
0.0
 11
24.748621595666918
 21
40.985621084500423
 31
0.0
  0
LINE
  5
E212
  8
1
 10
17.070021595902741
 20
37.285621084460502
 30
0.0
 11
17.070021595902741
 21
44.685621084460529
 31
0.0
  0
LINE
  5
E21C
  8
0
 10
14.745921595888939
 20
21.110737471672739
 30
0.0
 11
14.745921595888939
 21
21.187181808468239
 31
0.0
  0
LINE
  5
10DDD
  8
1
 10
17.451010379493201
 20
37.285621084460502
 30
0.0
 11
17.451010379493201
 21
44.685621084460529
 31
0.0
  0
ARC
  5
10DEE
  8
0
 10
18.911521595667072
 20
15.834056742232519
 30
0.0
 40
0.8255000000000023
 50
270.0
 51
9.5860423609142806
  0
LINE
  5
10DEF
  8
0
 10
18.911521595667072
 20
15.008556742232511
 30
0.0
 11
15.22852159566707
 21
15.008556742232511
 31
0.0
  0
ARC
  5
10DF0
  8
0
 10
15.22852159566707
 20
15.834056742232519
 30
0.0
 40
0.8255000000000052
 50
95.105834946841711
 51
270.0
  0
LINE
  5
10FEF
  8
1
 10
17.45102159590277
 20
22.230363799497241
 30
0.0
 11
17.45102159590277
 21
15.44201474942559
 31
0.0
  0
ARC
  5
12373
  8
2
 10
17.832012196230831
 20
40.985621084500423
 30
0.0
 40
1.460493823081781
 50
270.0
 51
90.0
  0
LINE
  5
12374
  8
2
 10
17.07001541897068
 20
42.446114907582192
 30
0.0
 11
17.832012196230831
 21
42.446114907582192
 31
0.0
  0
ARC
  5
12375
  8
2
 10
17.07001541897074
 20
40.985621084500423
 30
0.0
 40
1.460493823081781
 50
90.0
 51
270.0
  0
LINE
  5
12376
  8
2
 10
17.832012196230831
 20
39.525127261418653
 30
0.0
 11
17.07001541897068
 21
39.525127261418653
 31
0.0
  0
TEXT
  5
13904
  8
0
 62
     3
 10
0.0
 20
0.0
 30
0.0
 40
5.0
  1
MBSC025B
  7
STANDARD1
  0
ENDSEC
  0
EOF
