  0
SECTION
  2
HEADER
  9
$ACADVER
  1
AC1009
  9
$INSBASE
 10
0.0
 20
0.0
 30
0.0
  9
$EXTMIN
 10
0.0
 20
-2.960436562073669
 30
0.0
  9
$EXTMAX
 10
275.10000000000002
 20
259.5
 30
0.0
  9
$LIMMIN
 10
0.0
 20
0.0
  9
$LIMMAX
 10
12.0
 20
9.0
  9
$ORTHOMODE
 70
     1
  9
$REGENMODE
 70
     1
  9
$FILLMODE
 70
     1
  9
$QTEXTMODE
 70
     0
  9
$MIRRTEXT
 70
     0
  9
$DRAGMODE
 70
     2
  9
$LTSCALE
 40
1.0
  9
$OSMODE
 70
    37
  9
$ATTMODE
 70
     1
  9
$TEXTSIZE
 40
0.2
  9
$TRACEWID
 40
0.05
  9
$TEXTSTYLE
  7
STANDARD
  9
$CLAYER
  8
0
  9
$CELTYPE
  6
BYLAYER
  9
$CECOLOR
 62
   256
  9
$DIMSCALE
 40
1.0
  9
$DIMASZ
 40
1.0
  9
$DIMEXO
 40
2.54
  9
$DIMDLI
 40
0.38
  9
$DIMRND
 40
0.0
  9
$DIMDLE
 40
0.0
  9
$DIMEXE
 40
2.54
  9
$DIMTP
 40
0.0
  9
$DIMTM
 40
0.0
  9
$DIMTXT
 40
3.2000000000000002
  9
$DIMCEN
 40
0.09
  9
$DIMTSZ
 40
0.0
  9
$DIMTOL
 70
     0
  9
$DIMLIM
 70
     0
  9
$DIMTIH
 70
     0
  9
$DIMTOH
 70
     0
  9
$DIMSE1
 70
     0
  9
$DIMSE2
 70
     0
  9
$DIMTAD
 70
     1
  9
$DIMZIN
 70
     8
  9
$DIMBLK
  1

  9
$DIMASO
 70
     1
  9
$DIMSHO
 70
     0
  9
$DIMPOST
  1

  9
$DIMAPOST
  1

  9
$DIMALT
 70
     0
  9
$DIMALTD
 70
     2
  9
$DIMALTF
 40
25.399999999999999
  9
$DIMLFAC
 40
1.0
  9
$DIMTOFL
 70
     0
  9
$DIMTVP
 40
1.0
  9
$DIMTIX
 70
     0
  9
$DIMSOXD
 70
     0
  9
$DIMSAH
 70
     0
  9
$DIMBLK1
  1

  9
$DIMBLK2
  1

  9
$DIMSTYLE
  2
STANDARD
  9
$DIMCLRD
 70
     0
  9
$DIMCLRE
 70
     0
  9
$DIMCLRT
 70
     0
  9
$DIMTFAC
 40
1.0
  9
$DIMGAP
 40
1.6000000000000001
  9
$LUNITS
 70
     2
  9
$LUPREC
 70
     1
  9
$SKETCHINC
 40
0.1
  9
$FILLETRAD
 40
1.0
  9
$AUNITS
 70
     0
  9
$AUPREC
 70
     0
  9
$MENU
  1
.
  9
$ELEVATION
 40
0.0
  9
$PELEVATION
 40
0.0
  9
$THICKNESS
 40
0.0
  9
$LIMCHECK
 70
     0
  9
$BLIPMODE
 70
     0
  9
$CHAMFERA
 40
0.5
  9
$CHAMFERB
 40
0.5
  9
$SKPOLY
 70
     0
  9
$TDCREATE
 40
2453173.4709223039
  9
$TDUPDATE
 40
2456969.410708704
  9
$TDINDWG
 40
1.4766022916999999
  9
$TDUSRTIMER
 40
1.4766022916999999
  9
$USRTIMER
 70
     1
  9
$ANGBASE
 50
0.0
  9
$ANGDIR
 70
     0
  9
$PDMODE
 70
     0
  9
$PDSIZE
 40
0.0
  9
$PLINEWID
 40
0.0
  9
$COORDS
 70
     1
  9
$SPLFRAME
 70
     0
  9
$SPLINETYPE
 70
     6
  9
$SPLINESEGS
 70
     8
  9
$ATTDIA
 70
     0
  9
$ATTREQ
 70
     1
  9
$HANDLING
 70
     1
  9
$HANDSEED
  5
FAA
  9
$SURFTAB1
 70
     6
  9
$SURFTAB2
 70
     6
  9
$SURFTYPE
 70
     6
  9
$SURFU
 70
     6
  9
$SURFV
 70
     6
  9
$UCSNAME
  2

  9
$UCSORG
 10
0.0
 20
0.0
 30
0.0
  9
$UCSXDIR
 10
1.0
 20
0.0
 30
0.0
  9
$UCSYDIR
 10
0.0
 20
1.0
 30
0.0
  9
$PUCSNAME
  2

  9
$PUCSORG
 10
0.0
 20
0.0
 30
0.0
  9
$PUCSXDIR
 10
1.0
 20
0.0
 30
0.0
  9
$PUCSYDIR
 10
0.0
 20
1.0
 30
0.0
  9
$USERI1
 70
     0
  9
$USERI2
 70
     0
  9
$USERI3
 70
     0
  9
$USERI4
 70
     0
  9
$USERI5
 70
     0
  9
$USERR1
 40
0.0
  9
$USERR2
 40
0.0
  9
$USERR3
 40
0.0
  9
$USERR4
 40
0.0
  9
$USERR5
 40
0.0
  9
$WORLDVIEW
 70
     1
  9
$SHADEDGE
 70
     3
  9
$SHADEDIF
 70
    70
  9
$TILEMODE
 70
     1
  9
$MAXACTVP
 70
    64
  9
$PLIMCHECK
 70
     0
  9
$PEXTMIN
 10
1.0000000000000000E+020
 20
1.0000000000000000E+020
 30
1.0000000000000000E+020
  9
$PEXTMAX
 10
-1.0000000000000000E+020
 20
-1.0000000000000000E+020
 30
-1.0000000000000000E+020
  9
$PLIMMIN
 10
0.0
 20
0.0
  9
$PLIMMAX
 10
12.0
 20
9.0
  9
$UNITMODE
 70
     0
  9
$VISRETAIN
 70
     1
  9
$PLINEGEN
 70
     0
  9
$PSLTSCALE
 70
     1
  0
ENDSEC
  0
SECTION
  2
TABLES
  0
TABLE
  2
VPORT
 70
     1
  0
VPORT
  2
*ACTIVE
 70
     0
 10
0.0
 20
0.0
 11
1.0
 21
1.0
 12
235.63977746870651
 22
135.0
 13
0.0
 23
0.0
 14
1.0
 24
1.0
 15
0.0
 25
0.0
 16
0.0
 26
0.0
 36
1.0
 17
0.0
 27
0.0
 37
0.0
 40
270.0
 41
1.7454798331015291
 42
50.0
 43
0.0
 44
0.0
 50
0.0
 51
0.0
 71
     0
 72
   100
 73
     1
 74
     1
 75
     0
 76
     0
 77
     0
 78
     0
  0
ENDTAB
  0
TABLE
  2
LTYPE
 70
     5
  0
LTYPE
  2
CONTINUOUS
 70
     0
  3
Solid line
 72
    65
 73
     0
 40
0.0
  0
LTYPE
  2
CENTER
 70
     0
  3
Center ____ _ ____ _ ____ _ ____ _ ____ _ ____
 72
    65
 73
     4
 40
12.0
 49
7.5
 49
-1.5
 49
1.5
 49
-1.5
  0
LTYPE
  2
HIDDEN
 70
     0
  3
Hidden __ __ __ __ __ __ __ __ __ __ __ __ __ _
 72
    65
 73
     2
 40
4.5
 49
3.0
 49
-1.5
  0
LTYPE
  2
PHANTOM
 70
     0
  3
Phantom ______  __  __  ______  __  __  ______
 72
    65
 73
     6
 40
15.0
 49
7.5
 49
-1.5
 49
1.5
 49
-1.5
 49
1.5
 49
-1.5
  0
LTYPE
  2
PHANTOM2
 70
     0
  3
___ _ _ ___ _ _ ___ _ _ ___ _ _
 72
    65
 73
     6
 40
1.25
 49
0.625
 49
-0.125
 49
0.125
 49
-0.125
 49
0.125
 49
-0.125
  0
ENDTAB
  0
TABLE
  2
LAYER
 70
     6
  0
LAYER
  2
0
 70
     0
 62
     7
  6
CONTINUOUS
  0
LAYER
  2
1
 70
     0
 62
     1
  6
CENTER
  0
LAYER
  2
2
 70
     0
 62
     2
  6
HIDDEN
  0
LAYER
  2
3
 70
     0
 62
     3
  6
CONTINUOUS
  0
LAYER
  2
DEFPOINTS
 70
     0
 62
     7
  6
CONTINUOUS
  0
LAYER
  2
5
 70
     0
 62
     3
  6
PHANTOM
  0
ENDTAB
  0
TABLE
  2
STYLE
 70
     2
  0
STYLE
  2
STANDARD
 70
     0
 40
0.0
 41
1.0
 50
0.0
 71
     0
 42
0.2
  3
simplex.shx
  4
bigfont.shx
  0
STYLE
  2
STANDARD1
 70
     0
 40
0.0
 41
1.0
 50
0.0
 71
     0
 42
3.0
  3
txt
  4

  0
ENDTAB
  0
TABLE
  2
VIEW
 70
     0
  0
ENDTAB
  0
TABLE
  2
UCS
 70
     0
  0
ENDTAB
  0
TABLE
  2
APPID
 70
     6
  0
APPID
  2
ACAD
 70
     0
  0
APPID
  2
ACAD_DSTYLE_DIMJAG
 70
     0
  0
APPID
  2
ACAD_DSTYLE_DIMTALN
 70
     0
  0
APPID
  2
ACAD_EXEMPT_FROM_CAD_STANDARDS
 70
     0
  0
APPID
  2
ACAD_MLEADERVER
 70
     0
  0
APPID
  2
ACAD_NAV_VCDISPLAY
 70
     0
  0
ENDTAB
  0
TABLE
  2
DIMSTYLE
 70
     1
  0
DIMSTYLE
  2
STANDARD
 70
     0
  3

  4

  5

  6

  7

 40
1.0
 41
0.18
 42
0.0625
 43
0.38
 44
0.18
 45
0.0
 46
0.0
 47
0.0
 48
0.0
140
0.18
141
0.09
142
0.0
143
25.399999999999999
144
1.0
145
0.0
146
1.0
147
0.09
 71
     0
 72
     0
 73
     1
 74
     1
 75
     0
 76
     0
 77
     0
 78
     0
170
     0
171
     2
172
     0
173
     0
174
     0
175
     0
176
     0
177
     0
178
     0
  0
ENDTAB
  0
ENDSEC
  0
SECTION
  2
BLOCKS
  0
BLOCK
  8
0
  2
$MODEL_SPACE
 70
     0
 10
0.0
 20
0.0
 30
0.0
  3
$MODEL_SPACE
  1

  0
ENDBLK
  5
9
  8
0
  0
BLOCK
 67
     1
  8
0
  2
$PAPER_SPACE
 70
     0
 10
0.0
 20
0.0
 30
0.0
  3
$PAPER_SPACE
  1

  0
ENDBLK
  5
E
 67
     1
  8
0
  0
ENDSEC
  0
SECTION
  2
ENTITIES
  0
LINE
  5
46
  8
1
 10
89.799999999999926
 20
238.40000000000009
 30
0.0
 11
111.7999999999999
 21
238.40000000000009
 31
0.0
  0
LINE
  5
49
  8
1
 10
89.799999999999926
 20
197.10000000000011
 30
0.0
 11
111.7999999999999
 21
197.10000000000011
 31
0.0
  0
LINE
  5
4A
  8
1
 10
39.999996999999809
 20
217.75
 30
0.0
 11
161.6000030000001
 21
217.75000000000011
 31
0.0
  0
LINE
  5
4B
  8
0
 10
49.999999999999993
 20
249.5
 30
0.0
 11
151.6000029999999
 21
249.50000000000011
 31
0.0
  0
LINE
  5
4C
  8
0
 10
79.343550103768223
 20
186.00000000000011
 30
0.0
 11
79.343550103768223
 21
249.5
 31
0.0
  0
LINE
  5
4D
  8
0
 10
122.2564498962317
 20
186.0
 30
0.0
 11
122.2564498962318
 21
249.50000000000011
 31
0.0
  0
LINE
  5
4E
  8
0
 10
49.999999999999993
 20
186.0
 30
0.0
 11
151.59999999999999
 21
186.00000000000011
 31
0.0
  0
LINE
  5
4F
  8
0
 10
49.999999999999993
 20
186.0
 30
0.0
 11
49.999999999999993
 21
249.5
 31
0.0
  0
LINE
  5
50
  8
0
 10
70.600002000000003
 20
186.00000000000011
 30
0.0
 11
70.600002000000003
 21
249.5
 31
0.0
  0
LINE
  5
51
  8
0
 10
74.499999999999872
 20
186.00000000000011
 30
0.0
 11
74.499999999999986
 21
249.5
 31
0.0
  0
LINE
  5
52
  8
0
 10
127.10000000000009
 20
186.0
 30
0.0
 11
127.09999999999999
 21
249.5
 31
0.0
  0
LINE
  5
53
  8
0
 10
130.99999799999989
 20
186.0
 30
0.0
 11
130.99999799999989
 21
249.5
 31
0.0
  0
LINE
  5
54
  8
0
 10
151.59999999999999
 20
186.0
 30
0.0
 11
151.59999999999999
 21
249.50000000000011
 31
0.0
  0
LINE
  5
69
  8
0
 10
261.0
 20
66.199997000000025
 30
0.0
 11
266.99999999999989
 21
66.199997000000025
 31
0.0
  0
LINE
  5
6A
  8
0
 10
262.0
 20
65.199997000000025
 30
0.0
 11
261.0
 21
66.199997000000025
 31
0.0
  0
LINE
  5
6B
  8
0
 10
266.99999999999989
 20
66.199997000000025
 30
0.0
 11
265.99999999999989
 21
65.199997000000025
 31
0.0
  0
LINE
  5
6C
  8
0
 10
267.0
 20
74.199997000000053
 30
0.0
 11
266.99999999999989
 21
66.199997000000081
 31
0.0
  0
LINE
  5
6D
  8
3
 10
266.45850000000002
 20
74.199996999999996
 30
0.0
 11
266.45850000000007
 21
65.658497000000153
 31
0.0
  0
LINE
  5
6F
  8
3
 10
261.54149999999981
 20
74.199997000000025
 30
0.0
 11
261.54149999999981
 21
65.658497000000153
 31
0.0
  0
LINE
  5
70
  8
0
 10
261.0
 20
74.199996999999996
 30
0.0
 11
261.0
 21
66.199997000000025
 31
0.0
  0
LINE
  5
71
  8
0
 10
265.99999999999989
 20
65.199997000000025
 30
0.0
 11
262.0
 21
65.199997000000025
 31
0.0
  0
LINE
  5
72
  8
1
 10
264.0
 20
60.199997000000032
 30
0.0
 11
264.0
 21
85.900006200000064
 31
0.0
  0
LINE
  5
73
  8
1
 10
222.69999999999999
 20
60.19999700000006
 30
0.0
 11
222.69999999999999
 21
85.900006200000064
 31
0.0
  0
LINE
  5
74
  8
1
 10
243.34999999999999
 20
40.0
 30
0.0
 11
243.34999999999999
 21
136.0
 31
0.0
  0
LINE
  5
75
  8
0
 10
235.34999999999991
 20
74.199997000000081
 30
0.0
 11
235.34999999999999
 21
52.000000000000142
 31
0.0
  0
LINE
  5
76
  8
3
 10
236.4325
 20
74.199997000000081
 30
0.0
 11
236.4325
 21
50.91750000000016
 31
0.0
  0
LINE
  5
77
  8
3
 10
250.26750000000001
 20
74.199997000000025
 30
0.0
 11
250.26750000000001
 21
50.91749999999999
 31
0.0
  0
LINE
  5
78
  8
0
 10
251.34999999999999
 20
74.199997000000081
 30
0.0
 11
251.34999999999991
 21
51.999999999999801
 31
0.0
  0
LINE
  5
79
  8
0
 10
249.34999999999999
 20
49.999999999999922
 30
0.0
 11
237.34999999999999
 21
50.000000000000078
 31
0.0
  0
LINE
  5
7A
  8
0
 10
251.34999999999999
 20
51.999999999999922
 30
0.0
 11
249.34999999999999
 21
49.999999999999922
 31
0.0
  0
LINE
  5
7B
  8
0
 10
237.34999999999999
 20
50.000000000000078
 30
0.0
 11
235.34999999999999
 21
52.000000000000092
 31
0.0
  0
LINE
  5
7C
  8
0
 10
235.34999999999999
 20
52.000000000000092
 30
0.0
 11
251.34999999999999
 21
51.999999999999922
 31
0.0
  0
LINE
  5
7D
  8
0
 10
224.69999999999999
 20
65.199997000000053
 30
0.0
 11
220.69999999999999
 21
65.199997000000053
 31
0.0
  0
LINE
  5
7E
  8
0
 10
219.69999999999999
 20
74.199997000000025
 30
0.0
 11
219.7000000000001
 21
66.199997000000053
 31
0.0
  0
LINE
  5
7F
  8
3
 10
220.24149999999989
 20
74.199997000000053
 30
0.0
 11
220.24149999999989
 21
65.658497000000182
 31
0.0
  0
LINE
  5
80
  8
3
 10
225.15850000000009
 20
74.199997000000025
 30
0.0
 11
225.15850000000009
 21
65.658497000000182
 31
0.0
  0
LINE
  5
81
  8
0
 10
225.7000000000001
 20
74.199997000000081
 30
0.0
 11
225.69999999999999
 21
66.19999700000011
 31
0.0
  0
LINE
  5
82
  8
0
 10
225.69999999999999
 20
66.199997000000053
 30
0.0
 11
224.69999999999999
 21
65.199997000000053
 31
0.0
  0
LINE
  5
83
  8
0
 10
220.69999999999999
 20
65.199997000000053
 30
0.0
 11
219.69999999999999
 21
66.199997000000053
 31
0.0
  0
LINE
  5
84
  8
0
 10
219.69999999999999
 20
66.199997000000053
 30
0.0
 11
225.69999999999999
 21
66.199997000000053
 31
0.0
  0
LINE
  5
85
  8
0
 10
275.09999999999991
 20
126.0
 30
0.0
 11
275.10000000000002
 21
74.199997000000081
 31
0.0
  0
LINE
  5
86
  8
0
 10
211.59999999999999
 20
126.0
 30
0.0
 11
211.59999999999999
 21
74.199997000000025
 31
0.0
  0
LINE
  5
87
  8
0
 10
211.60000000000011
 20
74.199997000000053
 30
0.0
 11
275.10000000000002
 21
74.199997000000081
 31
0.0
  0
LINE
  5
88
  8
0
 10
211.60000000000011
 20
99.600006000000135
 30
0.0
 11
275.09999999999991
 21
99.600006000000064
 31
0.0
  0
LINE
  5
89
  8
0
 10
211.59999999999999
 20
126.0
 30
0.0
 11
275.09999999999991
 21
126.0
 31
0.0
  0
LINE
  5
8A
  8
0
 10
211.60000000000011
 20
125.0
 30
0.0
 11
275.09999999999991
 21
125.0
 31
0.0
  0
LINE
  5
8B
  8
2
 10
97.79999999999994
 20
77.600006200000109
 30
0.0
 11
97.79999999999994
 21
74.199997000000081
 31
0.0
  0
LINE
  5
8E
  8
2
 10
98.341499999999996
 20
76.662100687701695
 30
0.0
 11
98.341499999999996
 21
74.199997000000081
 31
0.0
  0
LINE
  5
8F
  8
2
 10
103.2585
 20
76.662100687701695
 30
0.0
 11
103.2585
 21
74.199997000000081
 31
0.0
  0
LINE
  5
90
  8
2
 10
103.8
 20
74.199997000000081
 30
0.0
 11
103.8
 21
77.600006200000109
 31
0.0
  0
LINE
  5
91
  8
2
 10
98.341499999999996
 20
76.662100687701695
 30
0.0
 11
97.800000000000011
 21
77.600006200000223
 31
0.0
  0
LINE
  5
92
  8
2
 10
103.2585
 20
76.662100687701695
 30
0.0
 11
103.8
 21
77.600006200000109
 31
0.0
  0
LINE
  5
93
  8
2
 10
97.79999999999994
 20
76.662100687701752
 30
0.0
 11
103.7999999999999
 21
76.662100687701695
 31
0.0
  0
LINE
  5
94
  8
0
 10
97.800000000000026
 20
66.199997000000081
 30
0.0
 11
103.8
 21
66.199997000000081
 31
0.0
  0
LINE
  5
95
  8
0
 10
98.800000000000026
 20
65.199997000000081
 30
0.0
 11
97.800000000000026
 21
66.199997000000081
 31
0.0
  0
LINE
  5
96
  8
0
 10
103.8
 20
66.199997000000081
 30
0.0
 11
102.8
 21
65.199997000000081
 31
0.0
  0
LINE
  5
97
  8
0
 10
103.8
 20
74.19999700000011
 30
0.0
 11
103.8
 21
66.199997000000138
 31
0.0
  0
LINE
  5
98
  8
3
 10
103.2585
 20
74.199997000000053
 30
0.0
 11
103.2585000000001
 21
65.65849700000021
 31
0.0
  0
LINE
  5
99
  8
3
 10
98.341499999999854
 20
74.199997000000081
 30
0.0
 11
98.341499999999897
 21
65.65849700000021
 31
0.0
  0
LINE
  5
9A
  8
0
 10
97.800000000000011
 20
74.199997000000053
 30
0.0
 11
97.800000000000082
 21
66.199997000000081
 31
0.0
  0
LINE
  5
9B
  8
0
 10
102.8
 20
65.199997000000081
 30
0.0
 11
98.800000000000026
 21
65.199997000000081
 31
0.0
  0
LINE
  5
9C
  8
0
 10
106.8
 20
80.900006200000121
 30
0.0
 11
106.8
 21
80.600006200000095
 31
0.0
  0
LINE
  5
9D
  8
2
 10
106.8
 20
80.600006200000095
 30
0.0
 11
94.799999999999997
 21
80.600006200000095
 31
0.0
  0
LINE
  5
9E
  8
0
 10
94.799999999999997
 20
80.600006200000095
 30
0.0
 11
94.799999999999997
 21
80.900006200000121
 31
0.0
  0
LINE
  5
9F
  8
0
 10
94.799999999999997
 20
80.900006200000121
 30
0.0
 11
106.8
 21
80.900006200000121
 31
0.0
  0
LINE
  5
A0
  8
0
 10
106.8
 20
80.900006200000121
 30
0.0
 11
106.8
 21
80.600006200000095
 31
0.0
  0
LINE
  5
A1
  8
2
 10
106.8
 20
80.600006200000095
 30
0.0
 11
103.8
 21
77.600006200000109
 31
0.0
  0
LINE
  5
A2
  8
2
 10
94.799999999999997
 20
80.600006200000095
 30
0.0
 11
97.800000000000011
 21
77.600006200000109
 31
0.0
  0
LINE
  5
A3
  8
2
 10
97.79999999999994
 20
77.600006200000109
 30
0.0
 11
103.7999999999999
 21
77.600006200000053
 31
0.0
  0
LINE
  5
A6
  8
1
 10
100.8
 20
40.000000000000021
 30
0.0
 11
100.8
 21
136.0
 31
0.0
  0
ARC
  5
B9
  8
0
 10
89.599999000000196
 20
95.699997000000096
 30
0.0
 40
1.5
 50
179.9999799999996
 51
270.0000199999987
  0
LINE
  5
BA
  8
0
 10
112.000001
 20
94.199997000000096
 30
0.0
 11
89.599999000000196
 21
94.199997000000096
 31
0.0
  0
LINE
  5
BB
  8
0
 10
88.099999000000182
 20
103.4319488740194
 30
0.0
 11
88.099999000000054
 21
95.699997000000096
 31
0.0
  0
LINE
  5
BC
  8
1
 10
100.8
 20
176.00000000000011
 30
0.0
 11
100.7999999999998
 21
259.5
 31
0.0
  0
LINE
  5
BD
  8
0
 10
80.943550103768231
 20
126.0
 30
0.0
 11
120.65644989623181
 21
126.0
 31
0.0
  0
ARC
  5
BE
  8
0
 10
130.47145910414261
 20
133.73521451551281
 30
0.0
 40
52.0
 50
190.6741055014711
 51
215.25420058929549
  0
ARC
  5
BF
  8
0
 10
80.943550103768231
 20
124.40000000000001
 30
0.0
 40
1.6000000000000001
 50
90.0
 51
190.6741055014711
  0
ARC
  5
C0
  8
0
 10
87.599999000000182
 20
103.4319488740194
 30
0.0
 40
0.5
 50
0.0
 51
35.254200589298662
  0
ARC
  5
C1
  8
0
 10
120.65644989623181
 20
124.40000000000001
 30
0.0
 40
1.6000000000000001
 50
349.3258944985289
 51
90.0
  0
ARC
  5
C2
  8
0
 10
71.128540895857597
 20
133.73521451551281
 30
0.0
 40
52.0
 50
324.74579941070448
 51
349.3258944985289
  0
ARC
  5
C3
  8
0
 10
114.000001
 20
103.4319488740194
 30
0.0
 40
0.5
 50
144.7457994107013
 51
180.0
  0
LINE
  5
C4
  8
0
 10
113.500001
 20
103.4319488740194
 30
0.0
 11
113.500001
 21
95.699997000000096
 31
0.0
  0
ARC
  5
C5
  8
0
 10
112.000001
 20
95.699997000000096
 30
0.0
 40
1.5
 50
270.0
 51
0.0
  0
LINE
  5
C6
  8
0
 10
92.800000000000111
 20
52.000000000000107
 30
0.0
 11
108.8000000000001
 21
51.999999999999943
 31
0.0
  0
LINE
  5
C7
  8
0
 10
94.800000000000111
 20
50.000000000000107
 30
0.0
 11
92.800000000000111
 21
52.000000000000107
 31
0.0
  0
LINE
  5
C8
  8
0
 10
108.8000000000001
 20
51.999999999999943
 30
0.0
 11
106.8000000000001
 21
49.999999999999943
 31
0.0
  0
LINE
  5
C9
  8
0
 10
108.8000000000001
 20
94.199997000000096
 30
0.0
 11
108.8000000000001
 21
80.600006200000095
 31
0.0
  0
LINE
  5
CA
  8
3
 10
107.7175000000001
 20
94.199997000000053
 30
0.0
 11
107.7175000000001
 21
80.600006200000095
 31
0.0
  0
LINE
  5
CB
  8
3
 10
93.882499999999965
 20
94.199997000000096
 30
0.0
 11
93.882500000000093
 21
80.600006200000095
 31
0.0
  0
LINE
  5
CC
  8
0
 10
92.799999999999983
 20
94.199997000000096
 30
0.0
 11
92.800000000000111
 21
80.600006200000095
 31
0.0
  0
LINE
  5
CD
  8
0
 10
106.8000000000001
 20
49.999999999999943
 30
0.0
 11
94.800000000000111
 21
50.000000000000107
 31
0.0
  0
LINE
  5
CE
  8
2
 10
88.800000000000111
 20
125.0000000000001
 30
0.0
 11
90.532050807568936
 21
126.0
 31
0.0
  0
LINE
  5
CF
  8
2
 10
112.8000000000001
 20
125.0
 30
0.0
 11
111.0679491924313
 21
126.0
 31
0.0
  0
LINE
  5
D0
  8
2
 10
88.800000000000111
 20
125.0
 30
0.0
 11
112.8000000000001
 21
125.0
 31
0.0
  0
LINE
  5
D1
  8
2
 10
90.532050807568936
 20
126.0
 30
0.0
 11
111.0679491924313
 21
126.0
 31
0.0
  0
LINE
  5
D2
  8
2
 10
88.800000000000111
 20
110.0
 30
0.0
 11
88.800000000000111
 21
125.0
 31
0.0
  0
LINE
  5
D3
  8
2
 10
112.8000000000001
 20
110.0
 30
0.0
 11
88.800000000000111
 21
110.0
 31
0.0
  0
LINE
  5
D4
  8
2
 10
112.8000000000001
 20
125.0000000000001
 30
0.0
 11
112.8000000000001
 21
110.0
 31
0.0
  0
LINE
  5
D5
  8
0
 10
108.8
 20
74.19999700000011
 30
0.0
 11
108.8
 21
51.999999999999829
 31
0.0
  0
LINE
  5
D6
  8
3
 10
107.7175000000001
 20
74.199997000000053
 30
0.0
 11
107.7175000000001
 21
50.917500000000011
 31
0.0
  0
LINE
  5
D7
  8
3
 10
93.882500000000149
 20
74.19999700000011
 30
0.0
 11
93.882500000000093
 21
50.917500000000182
 31
0.0
  0
LINE
  5
D8
  8
0
 10
92.799999999999983
 20
74.19999700000011
 30
0.0
 11
92.800000000000111
 21
52.000000000000171
 31
0.0
  0
LINE
  5
D9
  8
2
 10
108.8000000000001
 20
94.199997000000096
 30
0.0
 11
108.8000000000001
 21
110.0
 31
0.0
  0
LINE
  5
DA
  8
2
 10
107.7175000000001
 20
94.199997000000053
 30
0.0
 11
107.7175000000001
 21
110.0
 31
0.0
  0
LINE
  5
DB
  8
2
 10
93.882499999999965
 20
94.199997000000096
 30
0.0
 11
93.882499999999965
 21
110.0
 31
0.0
  0
LINE
  5
DC
  8
2
 10
92.799999999999983
 20
94.199997000000096
 30
0.0
 11
92.799999999999983
 21
110.0
 31
0.0
  0
CIRCLE
  5
DD
  8
0
 10
100.7999999999999
 20
217.74999999999929
 30
0.0
 40
10.26794919243113
  0
LINE
  5
DE
  8
0
 10
104.8414518843267
 20
210.75000000000011
 30
0.0
 11
108.8829037686542
 21
217.75000000000011
 31
0.0
  0
LINE
  5
DF
  8
0
 10
108.8829037686542
 20
217.75000000000011
 30
0.0
 11
104.8414518843267
 21
224.74999999999929
 31
0.0
  0
LINE
  5
E0
  8
0
 10
104.8414518843267
 20
224.74999999999929
 30
0.0
 11
96.758548115670763
 21
224.74999999999929
 31
0.0
  0
LINE
  5
E1
  8
0
 10
96.758548115670763
 20
224.74999999999929
 30
0.0
 11
92.717096231344826
 21
217.74999999999929
 31
0.0
  0
LINE
  5
E2
  8
0
 10
92.717096231344826
 20
217.74999999999929
 30
0.0
 11
96.758548115673165
 21
210.74999999999849
 31
0.0
  0
LINE
  5
E3
  8
0
 10
96.758548115673165
 20
210.74999999999849
 30
0.0
 11
104.8414518843267
 21
210.75000000000011
 31
0.0
  0
CIRCLE
  5
E4
  8
0
 10
100.7999999999999
 20
217.74999999999929
 30
0.0
 40
12.0
  0
ARC
  5
158
  8
0
 10
79.150003000000012
 20
98.600006000000135
 30
0.0
 40
1.0
 50
359.99999000000059
 51
89.999997000002296
  0
ARC
  5
159
  8
0
 10
85.728224923115846
 20
100.100004
 30
0.0
 40
0.5
 50
270.0
 51
0.0000000000007124
  0
ARC
  5
15A
  8
0
 10
84.350002999999944
 20
98.600004000000069
 30
0.0
 40
1.0
 50
90.0
 51
180.0
  0
LINE
  5
15B
  8
0
 10
84.350002999999944
 20
99.600004000000069
 30
0.0
 11
85.728224923115846
 21
99.600004000000069
 31
0.0
  0
ARC
  5
15C
  8
0
 10
85.228224923115746
 20
104.14620803039909
 30
0.0
 40
1.0
 50
0.0000000000016284
 51
21.999902275978549
  0
LINE
  5
15D
  8
0
 10
86.22822492311586
 20
100.100004
 30
0.0
 11
86.228224923115746
 21
104.14620803039909
 31
0.0
  0
LINE
  5
15E
  8
0
 10
79.152002998995812
 20
99.600004000000126
 30
0.0
 11
50.0
 21
99.600004000000126
 31
0.0
  0
ARC
  5
15F
  8
0
 10
77.206811675499154
 20
124.0000000000001
 30
0.0
 40
1.0
 50
21.999902275978421
 51
90.0
  0
LINE
  5
160
  8
0
 10
78.133996168995893
 20
124.3746050120052
 30
0.0
 11
86.155409416612343
 21
104.5208130424042
 31
0.0
  0
LINE
  5
161
  8
0
 10
74.800000000000068
 20
122.6000019999999
 30
0.0
 11
74.5
 21
125.0000000000001
 31
0.0
  0
LINE
  5
162
  8
0
 10
74.5
 20
125.0000000000001
 30
0.0
 11
77.206811675499154
 21
125.0000000000001
 31
0.0
  0
LINE
  5
163
  8
0
 10
70.600002000000003
 20
122.60000600000011
 30
0.0
 11
70.600002000000003
 21
125.0000000000001
 31
0.0
  0
LINE
  5
164
  8
0
 10
70.600000000000023
 20
122.600002
 30
0.0
 11
74.800000000000068
 21
122.6000019999999
 31
0.0
  0
LINE
  5
165
  8
0
 10
50.0
 20
125.0000000000001
 30
0.0
 11
70.600002000000003
 21
125.0000000000001
 31
0.0
  0
ARC
  5
192
  8
0
 10
80.950003000000066
 20
74.999997000000093
 30
0.0
 40
0.8
 50
180.0
 51
270.0
  0
LINE
  5
193
  8
1
 10
100.8
 20
40.000000000000021
 30
0.0
 11
100.8
 21
136.0
 31
0.0
  0
LINE
  5
194
  8
0
 10
80.950003000000066
 20
74.199997000000081
 30
0.0
 11
120.6499969999998
 21
74.199997000000081
 31
0.0
  0
LINE
  5
196
  8
0
 10
80.150003000000027
 20
74.999997000000093
 30
0.0
 11
80.150003000000027
 21
98.600006000000135
 31
0.0
  0
LINE
  5
197
  8
0
 10
84.999996999999937
 20
80.60000010000013
 30
0.0
 11
116.600003
 21
80.60000010000013
 31
0.0
  0
LINE
  5
198
  8
0
 10
83.350003000000058
 20
82.250000100000136
 30
0.0
 11
83.350003000000058
 21
98.600004000000069
 31
0.0
  0
ARC
  5
1A1
  8
0
 10
84.999996999999937
 20
82.250000100000136
 30
0.0
 40
1.649999999999999
 50
179.99999000000059
 51
270.0
  0
LINE
  5
1C9
  8
0
 10
50.0
 20
125.0000000000001
 30
0.0
 11
50.0
 21
99.600004000000126
 31
0.0
  0
ARC
  5
3A6
  8
0
 10
122.4499969999998
 20
98.600006000000135
 30
0.0
 40
1.0
 50
90.00000299999769
 51
180.00000999999941
  0
ARC
  5
3A7
  8
0
 10
115.87177507688411
 20
100.100004
 30
0.0
 40
0.5
 50
179.99999999999929
 51
270.0
  0
ARC
  5
3A8
  8
0
 10
117.24999699999989
 20
98.600004000000069
 30
0.0
 40
1.0
 50
0.0
 51
90.0
  0
LINE
  5
3A9
  8
0
 10
117.24999699999989
 20
99.600004000000069
 30
0.0
 11
115.87177507688411
 21
99.600004000000069
 31
0.0
  0
ARC
  5
3AA
  8
0
 10
116.37177507688421
 20
104.14620803039909
 30
0.0
 40
1.0
 50
158.0000977240224
 51
179.99999999999841
  0
LINE
  5
3AB
  8
0
 10
115.37177507688411
 20
100.100004
 30
0.0
 11
115.37177507688421
 21
104.14620803039909
 31
0.0
  0
LINE
  5
3AC
  8
0
 10
122.4479970010038
 20
99.600004000000126
 30
0.0
 11
151.59999999999999
 21
99.600004000000126
 31
0.0
  0
ARC
  5
3AD
  8
0
 10
124.3931883245008
 20
124.0000000000001
 30
0.0
 40
1.0
 50
90.0
 51
158.00009772402251
  0
LINE
  5
3AE
  8
0
 10
123.4660038310041
 20
124.3746050120052
 30
0.0
 11
115.44459058338759
 21
104.5208130424042
 31
0.0
  0
LINE
  5
3AF
  8
0
 10
126.7999999999999
 20
122.6000019999999
 30
0.0
 11
127.09999999999999
 21
125.0000000000001
 31
0.0
  0
LINE
  5
3B0
  8
0
 10
127.09999999999999
 20
125.0000000000001
 30
0.0
 11
124.3931883245008
 21
125.0000000000001
 31
0.0
  0
LINE
  5
3B1
  8
0
 10
130.99999800000001
 20
122.60000600000011
 30
0.0
 11
130.99999800000001
 21
125.0000000000001
 31
0.0
  0
LINE
  5
3B2
  8
0
 10
131.0
 20
122.600002
 30
0.0
 11
126.7999999999999
 21
122.6000019999999
 31
0.0
  0
LINE
  5
3B3
  8
0
 10
151.59999999999999
 20
125.0000000000001
 30
0.0
 11
130.99999800000001
 21
125.0000000000001
 31
0.0
  0
ARC
  5
3B4
  8
0
 10
120.6499969999999
 20
74.999997000000093
 30
0.0
 40
0.8
 50
270.0
 51
0.0
  0
LINE
  5
3B5
  8
0
 10
121.449997
 20
74.999997000000093
 30
0.0
 11
121.449997
 21
98.600006000000135
 31
0.0
  0
LINE
  5
3B6
  8
0
 10
118.24999699999989
 20
82.250000100000136
 30
0.0
 11
118.24999699999989
 21
98.600004000000069
 31
0.0
  0
ARC
  5
3B7
  8
0
 10
116.600003
 20
82.250000100000136
 30
0.0
 40
1.649999999999999
 50
270.0
 51
0.000009999999378
  0
LINE
  5
3B8
  8
0
 10
151.59999999999999
 20
125.0000000000001
 30
0.0
 11
151.59999999999999
 21
99.600004000000126
 31
0.0
  0
ARC
  5
C69
  8
5
 10
77.917839963860203
 20
98.477691011630398
 30
0.0
 40
1.0
 50
2.8999900000002219
 51
92.899997000002287
  0
ARC
  5
C6A
  8
5
 10
84.411748225400174
 20
100.3085796375354
 30
0.0
 40
0.5
 50
272.89999999999998
 51
2.8999999999999009
  0
ARC
  5
C6B
  8
5
 10
83.111180722403788
 20
98.740772302590543
 30
0.0
 40
1.0
 50
92.899999999999991
 51
182.89999999999989
  0
LINE
  5
C6C
  8
5
 10
83.060587782327062
 20
99.739491659774714
 30
0.0
 11
84.437044695438544
 21
99.809219958943345
 31
0.0
  0
ARC
  5
C6D
  8
5
 10
83.707679188759855
 20
104.3243054557733
 30
0.0
 40
1.0
 50
2.9000000000015271
 51
24.899902275978722
  0
LINE
  5
C6E
  8
5
 10
84.911107903992288
 20
100.3338761075738
 30
0.0
 11
84.70639854594404
 21
104.37489839585
 31
0.0
  0
LINE
  5
C6F
  8
5
 10
77.869244562680805
 20
99.476509557205219
 30
0.0
 11
48.754574866892249
 21
98.001624016360864
 31
0.0
  0
ARC
  5
C70
  8
5
 10
74.692076798977951
 20
123.7468449295545
 30
0.0
 40
1.0
 50
24.899902275978722
 51
92.899999999999991
  0
LINE
  5
C71
  8
5
 10
75.599121531389343
 20
124.1678791958617
 30
0.0
 11
84.614723921171134
 21
104.7453397220805
 31
0.0
  0
LINE
  5
C72
  8
5
 10
72.359177404481613
 20
122.22687214806071
 30
0.0
 11
71.938138642328056
 21
124.6086187258412
 31
0.0
  0
LINE
  5
C73
  8
5
 10
71.93813864232807
 20
124.6086187258412
 30
0.0
 11
74.641483858901239
 21
124.7455642867387
 31
0.0
  0
LINE
  5
C74
  8
5
 10
68.164557899374941
 20
122.01438589580199
 30
0.0
 11
68.043135146748469
 21
124.41130636072791
 31
0.0
  0
LINE
  5
C75
  8
5
 10
68.164556104307991
 20
122.0143817997387
 30
0.0
 11
72.359177404481613
 21
122.22687214806071
 31
0.0
  0
LINE
  5
C76
  8
5
 10
47.469514391315492
 20
123.36909169396171
 30
0.0
 11
68.043135146748469
 21
124.41130636072791
 31
0.0
  0
LINE
  5
C7F
  8
5
 10
47.469514391315492
 20
123.36909169396171
 30
0.0
 11
48.754574866892249
 21
98.001624016360864
 31
0.0
  0
ARC
  5
C80
  8
5
 10
123.68216003613971
 20
98.477691011630398
 30
0.0
 40
0.9999999999999998
 50
87.100002999997599
 51
177.1000099999998
  0
ARC
  5
C81
  8
5
 10
117.18825177459981
 20
100.3085796375354
 30
0.0
 40
0.5
 50
177.10000000000011
 51
267.10000000000002
  0
ARC
  5
C82
  8
5
 10
118.48881927759609
 20
98.740772302590543
 30
0.0
 40
0.9999999999999998
 50
357.10000000000008
 51
87.099999999999994
  0
LINE
  5
C83
  8
5
 10
118.5394122176728
 20
99.739491659774714
 30
0.0
 11
117.16295530456139
 21
99.809219958943345
 31
0.0
  0
ARC
  5
C84
  8
5
 10
117.8923208112401
 20
104.3243054557732
 30
0.0
 40
0.9999999999999998
 50
155.10009772402131
 51
177.0999999999984
  0
LINE
  5
C85
  8
5
 10
116.68889209600771
 20
100.3338761075738
 30
0.0
 11
116.893601454056
 21
104.37489839585
 31
0.0
  0
LINE
  5
C86
  8
5
 10
123.73075543731881
 20
99.476509557205233
 30
0.0
 11
152.84542513310771
 21
98.001624016360836
 31
0.0
  0
ARC
  5
C87
  8
5
 10
126.907923201022
 20
123.7468449295545
 30
0.0
 40
0.9999999999999998
 50
87.099999999999994
 51
155.10009772402131
  0
LINE
  5
C88
  8
5
 10
126.00087846861059
 20
124.1678791958617
 30
0.0
 11
116.9852760788289
 21
104.7453397220805
 31
0.0
  0
LINE
  5
C89
  8
5
 10
129.24082259551841
 20
122.22687214806071
 30
0.0
 11
129.66186135767191
 21
124.6086187258412
 31
0.0
  0
LINE
  5
C8A
  8
5
 10
129.66186135767191
 20
124.6086187258412
 30
0.0
 11
126.9585161410988
 21
124.7455642867387
 31
0.0
  0
LINE
  5
C8B
  8
5
 10
133.4354421006251
 20
122.01438589580199
 30
0.0
 11
133.5568648532516
 21
124.41130636072791
 31
0.0
  0
LINE
  5
C8C
  8
5
 10
133.435443895692
 20
122.0143817997386
 30
0.0
 11
129.24082259551841
 21
122.22687214806071
 31
0.0
  0
LINE
  5
C8D
  8
5
 10
154.13048560868461
 20
123.36909169396171
 30
0.0
 11
133.5568648532516
 21
124.41130636072791
 31
0.0
  0
LINE
  5
C92
  8
5
 10
154.13048560868461
 20
123.36909169396171
 30
0.0
 11
152.84542513310771
 21
98.001624016360822
 31
0.0
  0
TEXT
  5
D3A
  8
0
 62
     3
 10
0.0
 20
0.0
 30
0.0
 40
10.0
  1
MBDES16
  7
STANDARD1
  0
ARC
  5
DFE
  8
5
 10
89.599999000000196
 20
90.899994000000149
 30
0.0
 40
1.5
 50
179.9999799999996
 51
270.0000199999987
  0
LINE
  5
DFF
  8
5
 10
112.000001
 20
89.399994000000163
 30
0.0
 11
89.599999000000196
 21
89.399994000000163
 31
0.0
  0
LINE
  5
E00
  8
5
 10
88.099999000000182
 20
98.631945874019436
 30
0.0
 11
88.099999000000054
 21
90.899994000000149
 31
0.0
  0
LINE
  5
E01
  8
5
 10
80.943550103768231
 20
121.1999970000001
 30
0.0
 11
120.65644989623181
 21
121.1999970000001
 31
0.0
  0
ARC
  5
E02
  8
5
 10
130.47145910414261
 20
128.93521151551289
 30
0.0
 40
52.0
 50
190.67410550147119
 51
215.2542005892951
  0
ARC
  5
E03
  8
5
 10
80.943550103768231
 20
119.5999970000001
 30
0.0
 40
1.6000000000000001
 50
90.0
 51
190.67410550147119
  0
ARC
  5
E04
  8
5
 10
87.599999000000182
 20
98.631945874019436
 30
0.0
 40
0.5
 50
0.0
 51
35.254200589298023
  0
ARC
  5
E05
  8
5
 10
120.65644989623181
 20
119.5999970000001
 30
0.0
 40
1.6000000000000001
 50
349.32589449852861
 51
90.0
  0
ARC
  5
E06
  8
5
 10
71.128540895857597
 20
128.93521151551289
 30
0.0
 40
52.0
 50
324.74579941070482
 51
349.32589449852861
  0
ARC
  5
E07
  8
5
 10
114.000001
 20
98.631945874019436
 30
0.0
 40
0.5
 50
144.74579941070181
 51
180.0
  0
LINE
  5
E08
  8
5
 10
113.500001
 20
98.631945874019436
 30
0.0
 11
113.500001
 21
90.899994000000149
 31
0.0
  0
ARC
  5
E09
  8
5
 10
112.000001
 20
90.899994000000149
 30
0.0
 40
1.5
 50
270.0
 51
0.0
  0
LINE
  5
E0A
  8
5
 10
92.800000000000111
 20
47.19999700000016
 30
0.0
 11
108.8000000000001
 21
47.199996999999989
 31
0.0
  0
LINE
  5
E0B
  8
5
 10
94.800000000000111
 20
45.19999700000016
 30
0.0
 11
92.800000000000111
 21
47.19999700000016
 31
0.0
  0
LINE
  5
E0C
  8
5
 10
108.8000000000001
 20
47.199996999999989
 30
0.0
 11
106.8000000000001
 21
45.199996999999989
 31
0.0
  0
LINE
  5
E11
  8
5
 10
106.8000000000001
 20
45.199996999999989
 30
0.0
 11
94.800000000000111
 21
45.19999700000016
 31
0.0
  0
LINE
  5
E19
  8
5
 10
108.8
 20
51.999999999999851
 30
0.0
 11
108.8
 21
47.199996999999883
 31
0.0
  0
LINE
  5
E1A
  8
5
 10
107.7175000000001
 20
50.917499999999961
 30
0.0
 11
107.7175000000001
 21
46.117497000000057
 31
0.0
  0
LINE
  5
E1B
  8
5
 10
93.882500000000107
 20
50.917500000000111
 30
0.0
 11
93.882500000000093
 21
46.117497000000242
 31
0.0
  0
LINE
  5
E1C
  8
5
 10
92.800000000000082
 20
52.000000000000142
 30
0.0
 11
92.800000000000111
 21
47.199997000000216
 31
0.0
  0
ENDSEC
  0
EOF
