  0
SECTION
  2
HEADER
  9
$ACADVER
  1
AC1009
  9
$INSBASE
 10
0.0
 20
0.0
 30
0.0
  9
$EXTMIN
 10
0.0
 20
-1.4802182810368341
 30
0.0
  9
$EXTMAX
 10
107.9472552029268
 20
77.651795024820146
 30
0.0
  9
$LIMMIN
 10
0.0
 20
0.0
  9
$LIMMAX
 10
187.5
 20
135.0
  9
$ORTHOMODE
 70
     0
  9
$REGENMODE
 70
     1
  9
$FILLMODE
 70
     1
  9
$QTEXTMODE
 70
     0
  9
$MIRRTEXT
 70
     0
  9
$DRAGMODE
 70
     2
  9
$LTSCALE
 40
2.0
  9
$OSMODE
 70
  3071
  9
$ATTMODE
 70
     1
  9
$TEXTSIZE
 40
2.0
  9
$TRACEWID
 40
0.05
  9
$TEXTSTYLE
  7
STANDARD
  9
$CLAYER
  8
0
  9
$CELTYPE
  6
BYLAYER
  9
$CECOLOR
 62
   256
  9
$DIMSCALE
 40
0.5
  9
$DIMASZ
 40
3.0
  9
$DIMEXO
 40
2.0
  9
$DIMDLI
 40
10.0
  9
$DIMRND
 40
0.0
  9
$DIMDLE
 40
0.0
  9
$DIMEXE
 40
2.0
  9
$DIMTP
 40
0.0
  9
$DIMTM
 40
0.0
  9
$DIMTXT
 40
3.2000000000000002
  9
$DIMCEN
 40
0.09
  9
$DIMTSZ
 40
0.0
  9
$DIMTOL
 70
     0
  9
$DIMLIM
 70
     0
  9
$DIMTIH
 70
     0
  9
$DIMTOH
 70
     0
  9
$DIMSE1
 70
     0
  9
$DIMSE2
 70
     0
  9
$DIMTAD
 70
     1
  9
$DIMZIN
 70
     0
  9
$DIMBLK
  1

  9
$DIMASO
 70
     1
  9
$DIMSHO
 70
     0
  9
$DIMPOST
  1

  9
$DIMAPOST
  1

  9
$DIMALT
 70
     0
  9
$DIMALTD
 70
     2
  9
$DIMALTF
 40
25.399999999999999
  9
$DIMLFAC
 40
1.0
  9
$DIMTOFL
 70
     1
  9
$DIMTVP
 40
1.6000000000000001
  9
$DIMTIX
 70
     0
  9
$DIMSOXD
 70
     0
  9
$DIMSAH
 70
     0
  9
$DIMBLK1
  1

  9
$DIMBLK2
  1

  9
$DIMSTYLE
  2
STANDARD
  9
$DIMCLRD
 70
     0
  9
$DIMCLRE
 70
     0
  9
$DIMCLRT
 70
     0
  9
$DIMTFAC
 40
1.0
  9
$DIMGAP
 40
0.09
  9
$LUNITS
 70
     2
  9
$LUPREC
 70
     4
  9
$SKETCHINC
 40
0.1
  9
$FILLETRAD
 40
0.5
  9
$AUNITS
 70
     0
  9
$AUPREC
 70
     0
  9
$MENU
  1
E:\r13\win\SUPPORT\ACAD
  9
$ELEVATION
 40
0.0
  9
$PELEVATION
 40
0.0
  9
$THICKNESS
 40
0.0
  9
$LIMCHECK
 70
     0
  9
$BLIPMODE
 70
     0
  9
$CHAMFERA
 40
0.0
  9
$CHAMFERB
 40
0.0
  9
$SKPOLY
 70
     0
  9
$TDCREATE
 40
2449840.6184027782
  9
$TDUPDATE
 40
2456597.587695648
  9
$TDINDWG
 40
0.0352375231
  9
$TDUSRTIMER
 40
0.0352375231
  9
$USRTIMER
 70
     1
  9
$ANGBASE
 50
0.0
  9
$ANGDIR
 70
     0
  9
$PDMODE
 70
     0
  9
$PDSIZE
 40
0.0
  9
$PLINEWID
 40
0.0
  9
$COORDS
 70
     1
  9
$SPLFRAME
 70
     0
  9
$SPLINETYPE
 70
     6
  9
$SPLINESEGS
 70
     8
  9
$ATTDIA
 70
     0
  9
$ATTREQ
 70
     1
  9
$HANDLING
 70
     1
  9
$HANDSEED
  5
342
  9
$SURFTAB1
 70
     6
  9
$SURFTAB2
 70
     6
  9
$SURFTYPE
 70
     6
  9
$SURFU
 70
     6
  9
$SURFV
 70
     6
  9
$UCSNAME
  2

  9
$UCSORG
 10
0.0
 20
0.0
 30
0.0
  9
$UCSXDIR
 10
1.0
 20
0.0
 30
0.0
  9
$UCSYDIR
 10
0.0
 20
1.0
 30
0.0
  9
$PUCSNAME
  2

  9
$PUCSORG
 10
0.0
 20
0.0
 30
0.0
  9
$PUCSXDIR
 10
1.0
 20
0.0
 30
0.0
  9
$PUCSYDIR
 10
0.0
 20
1.0
 30
0.0
  9
$USERI1
 70
     0
  9
$USERI2
 70
     1
  9
$USERI3
 70
     1
  9
$USERI4
 70
     0
  9
$USERI5
 70
     0
  9
$USERR1
 40
0.0
  9
$USERR2
 40
0.0
  9
$USERR3
 40
0.0
  9
$USERR4
 40
0.0
  9
$USERR5
 40
0.0
  9
$WORLDVIEW
 70
     1
  9
$SHADEDGE
 70
     3
  9
$SHADEDIF
 70
    70
  9
$TILEMODE
 70
     1
  9
$MAXACTVP
 70
    16
  9
$PLIMCHECK
 70
     0
  9
$PEXTMIN
 10
1.0000000000000000E+020
 20
1.0000000000000000E+020
 30
1.0000000000000000E+020
  9
$PEXTMAX
 10
-1.0000000000000000E+020
 20
-1.0000000000000000E+020
 30
-1.0000000000000000E+020
  9
$PLIMMIN
 10
0.0
 20
0.0
  9
$PLIMMAX
 10
12.0
 20
9.0
  9
$UNITMODE
 70
     0
  9
$VISRETAIN
 70
     0
  9
$PLINEGEN
 70
     0
  9
$PSLTSCALE
 70
     0
  0
ENDSEC
  0
SECTION
  2
TABLES
  0
TABLE
  2
VPORT
 70
     1
  0
VPORT
  2
*ACTIVE
 70
     0
 10
0.0
 20
0.0
 11
1.0
 21
1.0
 12
93.747139195326156
 22
67.05183146954721
 13
0.0
 23
0.0
 14
5.0
 24
5.0
 15
5.0
 25
5.0
 16
0.0
 26
0.0
 36
1.0
 17
0.0
 27
0.0
 37
0.0
 40
138.6470298934976
 41
2.304913294797688
 42
50.0
 43
0.0
 44
0.0
 50
0.0
 51
0.0
 71
     0
 72
   100
 73
     1
 74
     0
 75
     0
 76
     0
 77
     0
 78
     0
  0
ENDTAB
  0
TABLE
  2
LTYPE
 70
     4
  0
LTYPE
  2
CONTINUOUS
 70
     0
  3
Solid Line
 72
    65
 73
     0
 40
0.0
  0
LTYPE
  2
CENTER
 70
     0
  3
____ _ ____ _ ____ _ ____ _ ____ _ ____ _ ____
 72
    65
 73
     4
 40
2.0
 49
1.25
 49
-0.25
 49
0.25
 49
-0.25
  0
LTYPE
  2
HIDDEN
 70
     0
  3
_ _ _ _ _ _ _ _ _ _ _ _ _ _ _ _ _ _ _ _ _ _ _
 72
    65
 73
     2
 40
0.375
 49
0.25
 49
-0.125
  0
LTYPE
  2
PHANTOM2
 70
     0
  3
___ _ _ ___ _ _ ___ _ _ ___ _ _
 72
    65
 73
     6
 40
1.25
 49
0.625
 49
-0.125
 49
0.125
 49
-0.125
 49
0.125
 49
-0.125
  0
ENDTAB
  0
TABLE
  2
LAYER
 70
     5
  0
LAYER
  2
0
 70
     0
 62
     7
  6
CONTINUOUS
  0
LAYER
  2
1
 70
     0
 62
     1
  6
CENTER
  0
LAYER
  2
2
 70
     0
 62
     2
  6
HIDDEN
  0
LAYER
  2
3
 70
     0
 62
     3
  6
CONTINUOUS
  0
LAYER
  2
DEFPOINTS
 70
     0
 62
     7
  6
CONTINUOUS
  0
ENDTAB
  0
TABLE
  2
STYLE
 70
     2
  0
STYLE
  2
STANDARD
 70
     0
 40
0.0
 41
1.0
 50
0.0
 71
     0
 42
2.0
  3
ROMANS
  4
BIGFONT
  0
STYLE
  2
STANDARD1
 70
     0
 40
0.0
 41
1.0
 50
0.0
 71
     0
 42
3.0
  3
txt
  4

  0
ENDTAB
  0
TABLE
  2
VIEW
 70
     1
  0
VIEW
  2
ALL
 70
     0
 40
135.0
 10
110.29971
 20
67.5
 41
220.59942000000001
 11
0.0
 21
0.0
 31
1.0
 12
0.0
 22
0.0
 32
0.0
 42
0.0
 43
0.0
 44
0.0
 50
0.0
 71
     0
  0
ENDTAB
  0
TABLE
  2
UCS
 70
     0
  0
ENDTAB
  0
TABLE
  2
APPID
 70
     3
  0
APPID
  2
ACAD
 70
     0
  0
APPID
  2
ACAD_MLEADERVER
 70
     0
  0
APPID
  2
ACAD_NAV_VCDISPLAY
 70
     0
  0
ENDTAB
  0
TABLE
  2
DIMSTYLE
 70
     1
  0
DIMSTYLE
  2
STANDARD
 70
     0
  3

  4

  5

  6

  7

 40
1.0
 41
0.18
 42
0.0625
 43
0.38
 44
0.18
 45
0.0
 46
0.0
 47
0.0
 48
0.0
140
0.18
141
0.09
142
0.0
143
25.399999999999999
144
1.0
145
0.0
146
1.0
147
0.09
 71
     0
 72
     0
 73
     1
 74
     1
 75
     0
 76
     0
 77
     0
 78
     0
170
     0
171
     2
172
     0
173
     0
174
     0
175
     0
176
     0
177
     0
178
     0
  0
ENDTAB
  0
ENDSEC
  0
SECTION
  2
BLOCKS
  0
BLOCK
  8
0
  2
$MODEL_SPACE
 70
     0
 10
0.0
 20
0.0
 30
0.0
  3
$MODEL_SPACE
  1

  0
ENDBLK
  5
DE
  8
0
  0
BLOCK
 67
     1
  8
0
  2
$PAPER_SPACE
 70
     0
 10
0.0
 20
0.0
 30
0.0
  3
$PAPER_SPACE
  1

  0
ENDBLK
  5
DC
 67
     1
  8
0
  0
ENDSEC
  0
SECTION
  2
ENTITIES
  0
LINE
  5
37
  8
1
 10
41.997820202926818
 20
44.845075024820162
 30
0.0
 11
71.997820202926832
 21
44.845075024820162
 31
0.0
  0
LINE
  5
38
  8
0
 10
65.097820202926826
 20
49.845075024820162
 30
0.0
 11
45.897820202926823
 21
49.845075024820162
 31
0.0
  0
LINE
  5
39
  8
3
 10
65.909820202926824
 20
49.033075024820143
 30
0.0
 11
45.085820202926818
 21
49.033075024820143
 31
0.0
  0
LINE
  5
3A
  8
3
 10
65.909820202926824
 20
40.657075024820152
 30
0.0
 11
45.085820202926818
 21
40.657075024820152
 31
0.0
  0
LINE
  5
3B
  8
0
 10
65.097820202926826
 20
39.845075024820162
 30
0.0
 11
45.897820202926823
 21
39.845075024820162
 31
0.0
  0
ARC
  5
3C
  8
0
 10
100.4472552029268
 20
44.845075024820162
 30
0.0
 40
5.0
 50
93.49034300000001
 51
86.509656999999976
  0
CIRCLE
  5
3D
  8
0
 10
15.57524220292682
 20
44.845075024820162
 30
0.0
 40
5.0
  0
CIRCLE
  5
3E
  8
3
 10
15.57524220292682
 20
44.845075024820162
 30
0.0
 40
4.1879999999999988
  0
LINE
  5
3F
  8
0
 10
44.497820202926818
 20
48.445075024820163
 30
0.0
 11
44.497820202926818
 21
41.245075024820153
 31
0.0
  0
LINE
  5
40
  8
0
 10
66.497820202926832
 20
48.445075024820163
 30
0.0
 11
66.497820202926832
 21
45.645075024820152
 31
0.0
  0
LINE
  5
41
  8
0
 10
66.497820202926832
 20
46.845075024820147
 30
0.0
 11
67.497820202926832
 21
46.845075024820147
 31
0.0
  0
LINE
  5
42
  8
0
 10
66.497820202926832
 20
42.845075024820162
 30
0.0
 11
67.497820202926832
 21
42.845075024820162
 31
0.0
  0
ARC
  5
43
  8
0
 10
67.497820202926832
 20
44.845075024820162
 30
0.0
 40
2.0
 50
270.0
 51
90.0
  0
LINE
  5
44
  8
0
 10
14.07524220292682
 20
45.711100024820148
 30
0.0
 11
14.07524220292682
 21
43.979050024820147
 31
0.0
  0
LINE
  5
45
  8
0
 10
15.57524220292682
 20
46.57712602482016
 30
0.0
 11
14.07524220292682
 21
45.711100024820148
 31
0.0
  0
LINE
  5
46
  8
0
 10
17.07524220292682
 20
45.711100024820148
 30
0.0
 11
15.57524220292682
 21
46.57712602482016
 31
0.0
  0
LINE
  5
47
  8
0
 10
17.07524220292682
 20
43.979050024820147
 30
0.0
 11
17.07524220292682
 21
45.711100024820148
 31
0.0
  0
LINE
  5
48
  8
0
 10
15.57524220292682
 20
43.113024024820149
 30
0.0
 11
17.07524220292682
 21
43.979050024820147
 31
0.0
  0
LINE
  5
49
  8
0
 10
14.07524220292682
 20
43.979050024820147
 30
0.0
 11
15.57524220292682
 21
43.113024024820149
 31
0.0
  0
CIRCLE
  5
4A
  8
0
 10
100.4472552029268
 20
44.845075024820162
 30
0.0
 40
2.0
  0
CIRCLE
  5
4B
  8
3
 10
15.57524220292682
 20
44.845075024820162
 30
0.0
 40
3.0
  0
CIRCLE
  5
4C
  8
0
 10
15.57524220292682
 20
44.845075024820162
 30
0.0
 40
2.458499999999999
  0
LINE
  5
4D
  8
0
 10
66.497820202926832
 20
48.445075024820163
 30
0.0
 11
65.097820202926826
 21
49.845075024820162
 31
0.0
  0
LINE
  5
4E
  8
0
 10
65.097820202926826
 20
39.845075024820162
 30
0.0
 11
66.497820202926832
 21
41.245075024820153
 31
0.0
  0
LINE
  5
4F
  8
0
 10
45.897820202926823
 20
39.845075024820162
 30
0.0
 11
44.497820202926818
 21
41.245075024820153
 31
0.0
  0
LINE
  5
50
  8
0
 10
44.497820202926818
 20
48.445075024820163
 30
0.0
 11
45.897820202926823
 21
49.845075024820162
 31
0.0
  0
LINE
  5
51
  8
0
 10
95.511670202926794
 20
45.645075024820152
 30
0.0
 11
98.614224202926835
 21
45.645075024820152
 31
0.0
  0
LINE
  5
52
  8
0
 10
95.511670202926794
 20
44.045075024820143
 30
0.0
 11
98.614224202926835
 21
44.045075024820143
 31
0.0
  0
LINE
  5
53
  8
0
 10
102.28028520292681
 20
45.645075024820152
 30
0.0
 11
105.3828402029268
 21
45.645075024820152
 31
0.0
  0
LINE
  5
54
  8
0
 10
102.28028520292681
 20
44.045075024820143
 30
0.0
 11
105.3828402029268
 21
44.045075024820143
 31
0.0
  0
LINE
  5
55
  8
0
 10
45.897820202926823
 20
49.845075024820162
 30
0.0
 11
45.897820202926823
 21
39.845075024820162
 31
0.0
  0
ARC
  5
56
  8
2
 10
64.497820202926832
 20
44.845075024820162
 30
0.0
 40
2.0
 50
270.0
 51
90.0
  0
LINE
  5
57
  8
1
 10
23.07524220292682
 20
44.845075024820162
 30
0.0
 11
8.0752422029268232
 21
44.845075024820162
 31
0.0
  0
LINE
  5
58
  8
1
 10
15.57524220292682
 20
52.345075024820162
 30
0.0
 11
15.57524220292682
 21
37.345075024820162
 31
0.0
  0
LINE
  5
59
  8
1
 10
100.4472552029268
 20
52.345075024820162
 30
0.0
 11
100.4472552029268
 21
37.345075024820162
 31
0.0
  0
LINE
  5
5A
  8
1
 10
92.947255202926826
 20
44.845075024820162
 30
0.0
 11
107.9472552029268
 21
44.845075024820162
 31
0.0
  0
LINE
  5
5B
  8
2
 10
66.297820202926829
 20
48.645075024820159
 30
0.0
 11
53.397820202926823
 21
48.645075024820159
 31
0.0
  0
LINE
  5
5C
  8
2
 10
52.897820202926823
 20
49.145075024820159
 30
0.0
 11
52.897820202926823
 21
49.845075024820162
 31
0.0
  0
LINE
  5
5D
  8
0
 10
53.909820202926817
 20
49.845075024820162
 30
0.0
 11
53.909820202926817
 21
49.945075024820149
 31
0.0
  0
LINE
  5
5E
  8
0
 10
53.909820202926817
 20
49.945075024820149
 30
0.0
 11
62.909820202926817
 21
49.945075024820149
 31
0.0
  0
LINE
  5
5F
  8
0
 10
62.909820202926817
 20
49.945075024820149
 30
0.0
 11
62.909820202926817
 21
49.845075024820162
 31
0.0
  0
LINE
  5
60
  8
2
 10
53.909820202926817
 20
49.845075024820162
 30
0.0
 11
53.909820202926817
 21
48.645075024820159
 31
0.0
  0
LINE
  5
61
  8
2
 10
62.909820202926817
 20
49.845075024820162
 30
0.0
 11
62.909820202926817
 21
48.645075024820159
 31
0.0
  0
LINE
  5
62
  8
0
 10
66.497820202926832
 20
45.645075024820152
 30
0.0
 11
65.097820202926826
 21
45.645075024820152
 31
0.0
  0
LINE
  5
63
  8
0
 10
66.497820202926832
 20
44.045075024820143
 30
0.0
 11
65.097820202926826
 21
44.045075024820143
 31
0.0
  0
LINE
  5
64
  8
0
 10
65.097820202926826
 20
49.845075024820162
 30
0.0
 11
65.097820202926826
 21
39.845075024820162
 31
0.0
  0
LINE
  5
65
  8
0
 10
66.497820202926832
 20
44.045075024820143
 30
0.0
 11
66.497820202926832
 21
41.245075024820153
 31
0.0
  0
LINE
  5
66
  8
0
 10
99.897255202926829
 20
48.645075024820159
 30
0.0
 11
100.99725520292679
 21
48.645075024820159
 31
0.0
  0
LINE
  5
67
  8
0
 10
99.897255202926829
 20
49.81473302482015
 30
0.0
 11
99.897255202926829
 21
48.645075024820159
 31
0.0
  0
LINE
  5
68
  8
0
 10
100.99725520292679
 20
49.81473302482015
 30
0.0
 11
100.99725520292679
 21
48.645075024820159
 31
0.0
  0
POLYLINE
  5
69
  8
0
 66
     1
 10
0.0
 20
0.0
 30
0.0
 70
     1
  0
VERTEX
  5
6A
  8
0
 10
99.897255202926829
 20
49.29507502482015
 30
0.0
 42
0.084478
  0
VERTEX
  5
6B
  8
0
 10
99.940383202926824
 20
49.041634024820162
 30
0.0
 42
0.091541
  0
VERTEX
  5
6C
  8
0
 10
100.0583462029268
 20
48.835456024820161
 30
0.0
 42
0.103696
 70
     2
 50
310.236358
  0
VERTEX
  5
6D
  8
0
 10
100.24153720292681
 20
48.692725024820163
 30
0.0
 42
0.114302
 50
310.236358
  0
VERTEX
  5
6E
  8
0
 10
100.4472552029268
 20
48.645075024820159
 30
0.0
 42
0.114302
  0
VERTEX
  5
6F
  8
0
 10
100.6529722029268
 20
48.692725024820163
 30
0.0
 42
0.103696
  0
VERTEX
  5
70
  8
0
 10
100.8361632029268
 20
48.835456024820161
 30
0.0
 42
0.091541
 70
     2
 50
49.763641999999997
  0
VERTEX
  5
71
  8
0
 10
100.9541272029268
 20
49.041634024820162
 30
0.0
 42
0.084478
 50
49.76364199999999
  0
VERTEX
  5
72
  8
0
 10
100.99725520292679
 20
49.29507502482015
 30
0.0
 42
0.084478
  0
VERTEX
  5
73
  8
0
 10
100.9541272029268
 20
49.548516024820152
 30
0.0
 42
0.091541
  0
VERTEX
  5
74
  8
0
 10
100.8361632029268
 20
49.754694024820161
 30
0.0
 42
0.103696
 70
     2
 50
130.236358
  0
VERTEX
  5
75
  8
0
 10
100.6529722029268
 20
49.897425024820151
 30
0.0
 42
0.114302
 50
130.236358
  0
VERTEX
  5
76
  8
0
 10
100.4472552029268
 20
49.945075024820149
 30
0.0
 42
0.114302
  0
VERTEX
  5
77
  8
0
 10
100.24153720292681
 20
49.897425024820151
 30
0.0
 42
0.103696
  0
VERTEX
  5
78
  8
0
 10
100.0583462029268
 20
49.754694024820161
 30
0.0
 42
0.091541
 70
     2
 50
229.763642
  0
VERTEX
  5
79
  8
0
 10
99.940383202926824
 20
49.548516024820152
 30
0.0
 42
0.084478
 50
229.763642
  0
SEQEND
  5
7A
  8
0
  0
ARC
  5
7B
  8
2
 10
53.397820202926823
 20
49.145075024820159
 30
0.0
 40
0.5
 50
180.0
 51
270.0
  0
POLYLINE
  5
7C
  8
0
 66
     1
 10
0.0
 20
0.0
 30
0.0
  0
VERTEX
  5
7D
  8
0
 10
15.879644202926819
 20
49.835800024820159
 30
0.0
 42
0.051534
 70
     2
 50
130.236358
  0
VERTEX
  5
7E
  8
0
 10
15.78095920292682
 20
49.897425024820151
 30
0.0
 42
0.114302
 50
130.236358
  0
VERTEX
  5
7F
  8
0
 10
15.57524220292682
 20
49.945075024820149
 30
0.0
 42
0.114302
  0
VERTEX
  5
80
  8
0
 10
15.369525202926811
 20
49.897425024820151
 30
0.0
 42
0.051534
  0
VERTEX
  5
81
  8
0
 10
15.270841202926819
 20
49.835800024820159
 30
0.0
 42
0.091541
 70
     2
 50
229.763642
  0
SEQEND
  5
82
  8
0
  0
CIRCLE
  5
83
  8
3
 10
100.4472552029268
 20
44.845075024820162
 30
0.0
 40
4.1879999999999988
  0
LINE
  5
84
  8
0
 10
66.497820202926832
 20
76.251795024820154
 30
0.0
 11
66.497820202926832
 21
69.051795024820152
 31
0.0
  0
LINE
  5
85
  8
0
 10
65.097820202926826
 20
77.651795024820146
 30
0.0
 11
65.097820202926826
 21
73.301795024820152
 31
0.0
  0
LINE
  5
86
  8
0
 10
62.909820202926817
 20
73.301795024820152
 30
0.0
 11
62.909820202926817
 21
72.001795024820154
 31
0.0
  0
LINE
  5
87
  8
0
 10
53.909820202926817
 20
72.001795024820154
 30
0.0
 11
53.909820202926817
 21
73.301795024820152
 31
0.0
  0
LINE
  5
88
  8
0
 10
52.897820202926823
 20
72.001795024820154
 30
0.0
 11
52.897820202926823
 21
73.301795024820152
 31
0.0
  0
LINE
  5
89
  8
0
 10
66.297820202926829
 20
72.001795024820154
 30
0.0
 11
52.897820202926823
 21
72.001795024820154
 31
0.0
  0
ARC
  5
8A
  8
2
 10
64.497820202926832
 20
72.651795024820146
 30
0.0
 40
2.0
 50
270.0
 51
90.0
  0
LINE
  5
8B
  8
0
 10
45.897820202926823
 20
77.651795024820146
 30
0.0
 11
45.897820202926823
 21
67.651795024820146
 31
0.0
  0
LINE
  5
8C
  8
0
 10
44.497820202926818
 20
76.251795024820154
 30
0.0
 11
45.897820202926823
 21
77.651795024820146
 31
0.0
  0
LINE
  5
8D
  8
0
 10
45.897820202926823
 20
67.651795024820146
 30
0.0
 11
44.497820202926818
 21
69.051795024820152
 31
0.0
  0
LINE
  5
8E
  8
0
 10
65.097820202926826
 20
67.651795024820146
 30
0.0
 11
66.497820202926832
 21
69.051795024820152
 31
0.0
  0
LINE
  5
8F
  8
0
 10
66.497820202926832
 20
76.251795024820154
 30
0.0
 11
65.097820202926826
 21
77.651795024820146
 31
0.0
  0
ARC
  5
90
  8
0
 10
67.497820202926832
 20
72.651795024820146
 30
0.0
 40
2.0
 50
270.0
 51
90.0
  0
LINE
  5
91
  8
0
 10
66.497820202926832
 20
70.651795024820146
 30
0.0
 11
67.497820202926832
 21
70.651795024820146
 31
0.0
  0
LINE
  5
92
  8
0
 10
66.497820202926832
 20
74.651795024820146
 30
0.0
 11
67.497820202926832
 21
74.651795024820146
 31
0.0
  0
LINE
  5
93
  8
0
 10
44.497820202926818
 20
76.251795024820154
 30
0.0
 11
44.497820202926818
 21
69.051795024820152
 31
0.0
  0
LINE
  5
94
  8
0
 10
65.097820202926826
 20
67.651795024820146
 30
0.0
 11
45.897820202926823
 21
67.651795024820146
 31
0.0
  0
LINE
  5
95
  8
3
 10
65.909820202926824
 20
68.463795024820143
 30
0.0
 11
45.085820202926818
 21
68.463795024820143
 31
0.0
  0
LINE
  5
96
  8
3
 10
65.909820202926824
 20
76.839795024820148
 30
0.0
 11
45.085820202926818
 21
76.839795024820148
 31
0.0
  0
LINE
  5
97
  8
0
 10
65.097820202926826
 20
77.651795024820146
 30
0.0
 11
45.897820202926823
 21
77.651795024820146
 31
0.0
  0
LINE
  5
98
  8
1
 10
41.997820202926818
 20
72.651795024820146
 30
0.0
 11
71.997820202926832
 21
72.651795024820146
 31
0.0
  0
LINE
  5
99
  8
0
 10
66.297820202926829
 20
73.301795024820152
 30
0.0
 11
52.897820202926823
 21
73.301795024820152
 31
0.0
  0
LINE
  5
9A
  8
0
 10
65.097820202926826
 20
72.001795024820154
 30
0.0
 11
65.097820202926826
 21
67.651795024820146
 31
0.0
  0
LINE
  5
9B
  8
0
 10
65.097820202926826
 20
20.118377024820148
 30
0.0
 11
65.097820202926826
 21
10.11837702482015
 31
0.0
  0
LINE
  5
9C
  8
1
 10
41.997820202926818
 20
15.11837702482015
 30
0.0
 11
71.997820202926832
 21
15.11837702482015
 31
0.0
  0
LINE
  5
9D
  8
0
 10
65.097820202926826
 20
20.118377024820148
 30
0.0
 11
45.897820202926823
 21
20.118377024820148
 31
0.0
  0
LINE
  5
9E
  8
3
 10
65.909820202926824
 20
19.306377024820161
 30
0.0
 11
45.085820202926818
 21
19.306377024820161
 31
0.0
  0
LINE
  5
9F
  8
3
 10
65.909820202926824
 20
10.93037702482016
 30
0.0
 11
45.085820202926818
 21
10.93037702482016
 31
0.0
  0
LINE
  5
A0
  8
0
 10
65.097820202926826
 20
10.11837702482015
 30
0.0
 11
45.897820202926823
 21
10.11837702482015
 31
0.0
  0
LINE
  5
A1
  8
0
 10
44.497820202926818
 20
18.71837702482016
 30
0.0
 11
44.497820202926818
 21
11.518377024820159
 31
0.0
  0
LINE
  5
A2
  8
0
 10
66.497820202926832
 20
17.118377024820148
 30
0.0
 11
67.497820202926832
 21
17.118377024820148
 31
0.0
  0
LINE
  5
A3
  8
0
 10
66.497820202926832
 20
13.11837702482015
 30
0.0
 11
67.497820202926832
 21
13.11837702482015
 31
0.0
  0
ARC
  5
A4
  8
0
 10
67.497820202926832
 20
15.11837702482015
 30
0.0
 40
2.0
 50
270.0
 51
90.0
  0
LINE
  5
A5
  8
0
 10
66.497820202926832
 20
18.71837702482016
 30
0.0
 11
65.097820202926826
 21
20.118377024820148
 31
0.0
  0
LINE
  5
A6
  8
0
 10
65.097820202926826
 20
10.11837702482015
 30
0.0
 11
66.497820202926832
 21
11.518377024820159
 31
0.0
  0
LINE
  5
A7
  8
0
 10
45.897820202926823
 20
10.11837702482015
 30
0.0
 11
44.497820202926818
 21
11.518377024820159
 31
0.0
  0
LINE
  5
A8
  8
0
 10
44.497820202926818
 20
18.71837702482016
 30
0.0
 11
45.897820202926823
 21
20.118377024820148
 31
0.0
  0
LINE
  5
A9
  8
0
 10
45.897820202926823
 20
20.118377024820148
 30
0.0
 11
45.897820202926823
 21
10.11837702482015
 31
0.0
  0
ARC
  5
AA
  8
2
 10
64.497820202926832
 20
15.11837702482015
 30
0.0
 40
2.0
 50
270.0
 51
90.0
  0
LINE
  5
AB
  8
0
 10
66.497820202926832
 20
18.71837702482016
 30
0.0
 11
66.497820202926832
 21
11.518377024820159
 31
0.0
  0
LINE
  5
AC
  8
0
 10
66.297820202926829
 20
72.001795024820154
 30
0.0
 11
66.297820202926829
 21
73.301795024820152
 31
0.0
  0
LINE
  5
210
  8
2
 10
47.997820202926832
 20
43.113024024820163
 30
0.0
 11
47.997820202926832
 21
46.577125637138508
 31
0.0
  0
LINE
  5
211
  8
2
 10
44.497820202926818
 20
43.113024024820149
 30
0.0
 11
47.997820202926832
 21
43.11302402482017
 31
0.0
  0
LINE
  5
212
  8
2
 10
44.497820202926818
 20
43.979049427900279
 30
0.0
 11
47.997820202926832
 21
43.9790494279003
 31
0.0
  0
LINE
  5
213
  8
2
 10
44.497820202926818
 20
45.711100234058321
 30
0.0
 11
47.997820202926832
 21
45.711100234058307
 31
0.0
  0
LINE
  5
214
  8
2
 10
44.497820202926818
 20
46.577125637138487
 30
0.0
 11
47.997820202926832
 21
46.577125637138529
 31
0.0
  0
LINE
  5
21A
  8
2
 10
47.997820202926832
 20
71.151795024820203
 30
0.0
 11
47.997820202926839
 21
74.151795024820203
 31
0.0
  0
LINE
  5
21B
  8
2
 10
44.497820202926818
 20
71.15179502482016
 30
0.0
 11
47.997820202926832
 21
71.151795024820188
 31
0.0
  0
LINE
  5
21D
  8
2
 10
44.497820202926818
 20
72.65179502482016
 30
0.0
 11
47.997820202926832
 21
72.651795024820146
 31
0.0
  0
LINE
  5
21E
  8
2
 10
44.497820202926818
 20
74.15179502482016
 30
0.0
 11
47.997820202926832
 21
74.151795024820174
 31
0.0
  0
LINE
  5
279
  8
2
 10
47.997820202926832
 20
13.6183770248202
 30
0.0
 11
47.997820202926839
 21
16.618377024820202
 31
0.0
  0
LINE
  5
27A
  8
2
 10
44.497820202926818
 20
13.618377024820161
 30
0.0
 11
47.997820202926832
 21
13.618377024820189
 31
0.0
  0
LINE
  5
27B
  8
2
 10
44.497820202926818
 20
15.118377024820161
 30
0.0
 11
47.997820202926832
 21
15.11837702482015
 31
0.0
  0
LINE
  5
27C
  8
2
 10
44.497820202926818
 20
16.618377024820159
 30
0.0
 11
47.997820202926832
 21
16.618377024820191
 31
0.0
  0
TEXT
  5
2DC
  8
0
 62
     3
 10
0.0
 20
0.0
 30
0.0
 40
5.0
  1
LPLH10
  7
STANDARD1
  0
ENDSEC
  0
EOF
