  0
SECTION
  2
HEADER
  9
$ACADVER
  1
AC1009
  9
$INSBASE
 10
0.0
 20
0.0
 30
0.0
  9
$EXTMIN
 10
0.0
 20
-1.4802182810368341
 30
0.0
  9
$EXTMAX
 10
133.60956100000001
 20
104.422313
 30
0.0
  9
$LIMMIN
 10
0.0
 20
0.0
  9
$LIMMAX
 10
187.5
 20
135.0
  9
$ORTHOMODE
 70
     1
  9
$REGENMODE
 70
     1
  9
$FILLMODE
 70
     1
  9
$QTEXTMODE
 70
     0
  9
$MIRRTEXT
 70
     0
  9
$DRAGMODE
 70
     2
  9
$LTSCALE
 40
2.0
  9
$OSMODE
 70
  3071
  9
$ATTMODE
 70
     1
  9
$TEXTSIZE
 40
2.0
  9
$TRACEWID
 40
0.05
  9
$TEXTSTYLE
  7
STANDARD
  9
$CLAYER
  8
0
  9
$CELTYPE
  6
BYLAYER
  9
$CECOLOR
 62
   256
  9
$DIMSCALE
 40
0.5
  9
$DIMASZ
 40
3.0
  9
$DIMEXO
 40
2.0
  9
$DIMDLI
 40
10.0
  9
$DIMRND
 40
0.0
  9
$DIMDLE
 40
0.0
  9
$DIMEXE
 40
2.0
  9
$DIMTP
 40
0.0
  9
$DIMTM
 40
0.0
  9
$DIMTXT
 40
3.2000000000000002
  9
$DIMCEN
 40
0.09
  9
$DIMTSZ
 40
0.0
  9
$DIMTOL
 70
     0
  9
$DIMLIM
 70
     0
  9
$DIMTIH
 70
     0
  9
$DIMTOH
 70
     0
  9
$DIMSE1
 70
     0
  9
$DIMSE2
 70
     0
  9
$DIMTAD
 70
     1
  9
$DIMZIN
 70
     0
  9
$DIMBLK
  1

  9
$DIMASO
 70
     1
  9
$DIMSHO
 70
     0
  9
$DIMPOST
  1

  9
$DIMAPOST
  1

  9
$DIMALT
 70
     0
  9
$DIMALTD
 70
     2
  9
$DIMALTF
 40
25.399999999999999
  9
$DIMLFAC
 40
1.0
  9
$DIMTOFL
 70
     1
  9
$DIMTVP
 40
1.6000000000000001
  9
$DIMTIX
 70
     0
  9
$DIMSOXD
 70
     0
  9
$DIMSAH
 70
     0
  9
$DIMBLK1
  1

  9
$DIMBLK2
  1

  9
$DIMSTYLE
  2
STANDARD
  9
$DIMCLRD
 70
     0
  9
$DIMCLRE
 70
     0
  9
$DIMCLRT
 70
     0
  9
$DIMTFAC
 40
1.0
  9
$DIMGAP
 40
0.09
  9
$LUNITS
 70
     2
  9
$LUPREC
 70
     4
  9
$SKETCHINC
 40
0.1
  9
$FILLETRAD
 40
0.5
  9
$AUNITS
 70
     0
  9
$AUPREC
 70
     0
  9
$MENU
  1
E:\r13\win\SUPPORT\ACAD
  9
$ELEVATION
 40
0.0
  9
$PELEVATION
 40
0.0
  9
$THICKNESS
 40
0.0
  9
$LIMCHECK
 70
     0
  9
$BLIPMODE
 70
     0
  9
$CHAMFERA
 40
0.0
  9
$CHAMFERB
 40
0.0
  9
$SKPOLY
 70
     0
  9
$TDCREATE
 40
2449840.6190856481
  9
$TDUPDATE
 40
2456597.5721556372
  9
$TDINDWG
 40
0.0001394792
  9
$TDUSRTIMER
 40
0.0001394792
  9
$USRTIMER
 70
     1
  9
$ANGBASE
 50
0.0
  9
$ANGDIR
 70
     0
  9
$PDMODE
 70
     0
  9
$PDSIZE
 40
0.0
  9
$PLINEWID
 40
0.0
  9
$COORDS
 70
     1
  9
$SPLFRAME
 70
     0
  9
$SPLINETYPE
 70
     6
  9
$SPLINESEGS
 70
     8
  9
$ATTDIA
 70
     0
  9
$ATTREQ
 70
     1
  9
$HANDLING
 70
     1
  9
$HANDSEED
  5
263
  9
$SURFTAB1
 70
     6
  9
$SURFTAB2
 70
     6
  9
$SURFTYPE
 70
     6
  9
$SURFU
 70
     6
  9
$SURFV
 70
     6
  9
$UCSNAME
  2

  9
$UCSORG
 10
0.0
 20
0.0
 30
0.0
  9
$UCSXDIR
 10
1.0
 20
0.0
 30
0.0
  9
$UCSYDIR
 10
0.0
 20
1.0
 30
0.0
  9
$PUCSNAME
  2

  9
$PUCSORG
 10
0.0
 20
0.0
 30
0.0
  9
$PUCSXDIR
 10
1.0
 20
0.0
 30
0.0
  9
$PUCSYDIR
 10
0.0
 20
1.0
 30
0.0
  9
$USERI1
 70
     0
  9
$USERI2
 70
     1
  9
$USERI3
 70
     1
  9
$USERI4
 70
     0
  9
$USERI5
 70
     0
  9
$USERR1
 40
0.0
  9
$USERR2
 40
0.0
  9
$USERR3
 40
0.0
  9
$USERR4
 40
0.0
  9
$USERR5
 40
0.0
  9
$WORLDVIEW
 70
     1
  9
$SHADEDGE
 70
     3
  9
$SHADEDIF
 70
    70
  9
$TILEMODE
 70
     1
  9
$MAXACTVP
 70
    16
  9
$PLIMCHECK
 70
     0
  9
$PEXTMIN
 10
1.0000000000000000E+020
 20
1.0000000000000000E+020
 30
1.0000000000000000E+020
  9
$PEXTMAX
 10
-1.0000000000000000E+020
 20
-1.0000000000000000E+020
 30
-1.0000000000000000E+020
  9
$PLIMMIN
 10
0.0
 20
0.0
  9
$PLIMMAX
 10
12.0
 20
9.0
  9
$UNITMODE
 70
     0
  9
$VISRETAIN
 70
     0
  9
$PLINEGEN
 70
     0
  9
$PSLTSCALE
 70
     0
  0
ENDSEC
  0
SECTION
  2
TABLES
  0
TABLE
  2
VPORT
 70
     1
  0
VPORT
  2
*ACTIVE
 70
     0
 10
0.0
 20
0.0
 11
1.0
 21
1.0
 12
93.74713919532617
 22
81.430819429735848
 13
0.0
 23
0.0
 14
5.0
 24
5.0
 15
5.0
 25
5.0
 16
0.0
 26
0.0
 36
1.0
 17
0.0
 27
0.0
 37
0.0
 40
167.40500581387491
 41
1.9089595375722539
 42
50.0
 43
0.0
 44
0.0
 50
0.0
 51
0.0
 71
     0
 72
   100
 73
     1
 74
     0
 75
     0
 76
     0
 77
     0
 78
     0
  0
ENDTAB
  0
TABLE
  2
LTYPE
 70
     4
  0
LTYPE
  2
CONTINUOUS
 70
     0
  3
Solid Line
 72
    65
 73
     0
 40
0.0
  0
LTYPE
  2
CENTER
 70
     0
  3
____ _ ____ _ ____ _ ____ _ ____ _ ____ _ ____
 72
    65
 73
     4
 40
2.0
 49
1.25
 49
-0.25
 49
0.25
 49
-0.25
  0
LTYPE
  2
HIDDEN
 70
     0
  3
_ _ _ _ _ _ _ _ _ _ _ _ _ _ _ _ _ _ _ _ _ _ _
 72
    65
 73
     2
 40
0.375
 49
0.25
 49
-0.125
  0
LTYPE
  2
PHANTOM2
 70
     0
  3
___ _ _ ___ _ _ ___ _ _ ___ _ _
 72
    65
 73
     6
 40
1.25
 49
0.625
 49
-0.125
 49
0.125
 49
-0.125
 49
0.125
 49
-0.125
  0
ENDTAB
  0
TABLE
  2
LAYER
 70
     4
  0
LAYER
  2
0
 70
     0
 62
     7
  6
CONTINUOUS
  0
LAYER
  2
1
 70
     0
 62
     1
  6
CENTER
  0
LAYER
  2
2
 70
     0
 62
     2
  6
HIDDEN
  0
LAYER
  2
3
 70
     0
 62
     3
  6
CONTINUOUS
  0
ENDTAB
  0
TABLE
  2
STYLE
 70
     2
  0
STYLE
  2
STANDARD
 70
     0
 40
0.0
 41
1.0
 50
0.0
 71
     0
 42
2.0
  3
ROMANS
  4
BIGFONT
  0
STYLE
  2
STANDARD1
 70
     0
 40
0.0
 41
1.0
 50
0.0
 71
     0
 42
3.0
  3
txt
  4

  0
ENDTAB
  0
TABLE
  2
VIEW
 70
     1
  0
VIEW
  2
ALL
 70
     0
 40
135.0
 10
110.29971
 20
67.5
 41
220.59942000000001
 11
0.0
 21
0.0
 31
1.0
 12
0.0
 22
0.0
 32
0.0
 42
0.0
 43
0.0
 44
0.0
 50
0.0
 71
     0
  0
ENDTAB
  0
TABLE
  2
UCS
 70
     0
  0
ENDTAB
  0
TABLE
  2
APPID
 70
     3
  0
APPID
  2
ACAD
 70
     0
  0
APPID
  2
ACAD_MLEADERVER
 70
     0
  0
APPID
  2
ACAD_NAV_VCDISPLAY
 70
     0
  0
ENDTAB
  0
TABLE
  2
DIMSTYLE
 70
     1
  0
DIMSTYLE
  2
STANDARD
 70
     0
  3

  4

  5

  6

  7

 40
1.0
 41
0.18
 42
0.0625
 43
0.38
 44
0.18
 45
0.0
 46
0.0
 47
0.0
 48
0.0
140
0.18
141
0.09
142
0.0
143
25.399999999999999
144
1.0
145
0.0
146
1.0
147
0.09
 71
     0
 72
     0
 73
     1
 74
     1
 75
     0
 76
     0
 77
     0
 78
     0
170
     0
171
     2
172
     0
173
     0
174
     0
175
     0
176
     0
177
     0
178
     0
  0
ENDTAB
  0
ENDSEC
  0
SECTION
  2
BLOCKS
  0
BLOCK
  8
0
  2
$MODEL_SPACE
 70
     0
 10
0.0
 20
0.0
 30
0.0
  3
$MODEL_SPACE
  1

  0
ENDBLK
  5
E0
  8
0
  0
BLOCK
 67
     1
  8
0
  2
$PAPER_SPACE
 70
     0
 10
0.0
 20
0.0
 30
0.0
  3
$PAPER_SPACE
  1

  0
ENDBLK
  5
DE
 67
     1
  8
0
  0
ENDSEC
  0
SECTION
  2
ENTITIES
  0
LINE
  5
39
  8
1
 10
76.81468000000001
 20
70.736816000000005
 30
0.0
 11
99.314680000000024
 21
70.736816000000005
 31
0.0
  0
ARC
  5
3A
  8
0
 10
127.109561
 20
70.736816000000005
 30
0.0
 40
4.0
 50
93.906460999999993
 51
86.093539000000007
  0
CIRCLE
  5
3B
  8
3
 10
127.109561
 20
70.736816000000005
 30
0.0
 40
3.3235000000000001
  0
CIRCLE
  5
3C
  8
0
 10
48.139707999999992
 20
70.736816000000005
 30
0.0
 40
4.0
  0
CIRCLE
  5
3D
  8
3
 10
48.139707999999992
 20
70.736816000000005
 30
0.0
 40
3.3235000000000001
  0
LINE
  5
3E
  8
0
 10
93.164680000000004
 20
74.736816000000005
 30
0.0
 11
80.514679999999984
 21
74.736816000000005
 31
0.0
  0
LINE
  5
3F
  8
3
 10
93.841179999999994
 20
74.060316
 30
0.0
 11
79.838180000000008
 21
74.060316
 31
0.0
  0
LINE
  5
40
  8
3
 10
93.841179999999994
 20
67.413316000000009
 30
0.0
 11
79.838180000000008
 21
67.413316000000009
 31
0.0
  0
LINE
  5
41
  8
0
 10
93.164680000000004
 20
66.736816000000005
 30
0.0
 11
80.514679999999984
 21
66.736816000000005
 31
0.0
  0
LINE
  5
42
  8
0
 10
79.31468000000001
 20
73.536816000000002
 30
0.0
 11
79.31468000000001
 21
71.336815999999999
 31
0.0
  0
LINE
  5
43
  8
0
 10
95.314680000000024
 20
73.586815999999999
 30
0.0
 11
95.314680000000024
 21
67.88681600000001
 31
0.0
  0
LINE
  5
44
  8
0
 10
94.314679999999996
 20
73.586815999999999
 30
0.0
 11
94.314679999999996
 21
67.88681600000001
 31
0.0
  0
ARC
  5
45
  8
0
 10
94.314679999999996
 20
70.736816000000005
 30
0.0
 40
2.5
 50
293.57817799999998
 51
66.421821999999992
  0
CIRCLE
  5
46
  8
0
 10
127.109561
 20
70.736816000000005
 30
0.0
 40
2.5
  0
LINE
  5
47
  8
2
 10
81.31468000000001
 20
71.336815999999999
 30
0.0
 11
81.31468000000001
 21
70.13681600000001
 31
0.0
  0
LINE
  5
48
  8
0
 10
79.31468000000001
 20
71.336815999999999
 30
0.0
 11
81.05968
 21
71.336815999999999
 31
0.0
  0
LINE
  5
49
  8
0
 10
79.31468000000001
 20
70.13681600000001
 30
0.0
 11
81.05968
 21
70.13681600000001
 31
0.0
  0
LINE
  5
4A
  8
0
 10
44.184964000000001
 20
71.336815999999999
 30
0.0
 11
52.094452000000011
 21
71.336815999999999
 31
0.0
  0
LINE
  5
4B
  8
0
 10
44.184964000000001
 20
70.13681600000001
 30
0.0
 11
52.094452000000011
 21
70.13681600000001
 31
0.0
  0
LINE
  5
4C
  8
0
 10
81.05968
 20
71.336815999999999
 30
0.0
 11
81.05968
 21
70.13681600000001
 31
0.0
  0
LINE
  5
4D
  8
0
 10
79.31468000000001
 20
70.13681600000001
 30
0.0
 11
79.31468000000001
 21
67.936816000000007
 31
0.0
  0
LINE
  5
4E
  8
0
 10
79.31468000000001
 20
73.536816000000002
 30
0.0
 11
80.514679999999984
 21
74.736816000000005
 31
0.0
  0
LINE
  5
4F
  8
0
 10
79.31468000000001
 20
67.936816000000007
 30
0.0
 11
80.514679999999984
 21
66.736816000000005
 31
0.0
  0
LINE
  5
50
  8
0
 10
80.514679999999984
 20
74.736816000000005
 30
0.0
 11
80.514679999999984
 21
71.336815999999999
 31
0.0
  0
LINE
  5
51
  8
0
 10
80.514679999999984
 20
70.13681600000001
 30
0.0
 11
80.514679999999984
 21
66.736816000000005
 31
0.0
  0
LINE
  5
52
  8
0
 10
94.314679999999996
 20
73.586815999999999
 30
0.0
 11
95.314680000000024
 21
73.586815999999999
 31
0.0
  0
LINE
  5
53
  8
0
 10
94.314679999999996
 20
67.88681600000001
 30
0.0
 11
95.314680000000024
 21
67.88681600000001
 31
0.0
  0
LINE
  5
54
  8
0
 10
94.314679999999996
 20
73.586815999999999
 30
0.0
 11
93.164680000000004
 21
74.736816000000005
 31
0.0
  0
LINE
  5
55
  8
0
 10
94.314679999999996
 20
67.88681600000001
 30
0.0
 11
93.164680000000004
 21
66.736816000000005
 31
0.0
  0
LINE
  5
56
  8
0
 10
93.164680000000004
 20
66.736816000000005
 30
0.0
 11
93.164680000000004
 21
74.736816000000005
 31
0.0
  0
CIRCLE
  5
57
  8
0
 10
127.109561
 20
70.736816000000005
 30
0.0
 40
2.8500000000000001
  0
LINE
  5
58
  8
2
 10
81.05968
 20
71.336815999999999
 30
0.0
 11
81.31468000000001
 21
71.336815999999999
 31
0.0
  0
LINE
  5
59
  8
2
 10
81.05968
 20
70.13681600000001
 30
0.0
 11
81.31468000000001
 21
70.13681600000001
 31
0.0
  0
ARC
  5
5A
  8
2
 10
92.814680000000024
 20
70.736816000000005
 30
0.0
 40
2.5
 50
293.57817799999998
 51
66.421821999999992
  0
LINE
  5
5B
  8
1
 10
54.639707999999999
 20
70.736816000000005
 30
0.0
 11
41.639707999999999
 21
70.736816000000005
 31
0.0
  0
LINE
  5
5C
  8
1
 10
48.139707999999992
 20
77.236816000000005
 30
0.0
 11
48.139707999999992
 21
64.236816000000005
 31
0.0
  0
LINE
  5
5D
  8
1
 10
133.60956100000001
 20
70.736816000000005
 30
0.0
 11
120.609561
 21
70.736816000000005
 31
0.0
  0
LINE
  5
5E
  8
1
 10
127.109561
 20
77.236816000000005
 30
0.0
 11
127.109561
 21
64.236816000000005
 31
0.0
  0
LINE
  5
5F
  8
2
 10
94.264679999999984
 20
73.63681600000001
 30
0.0
 11
82.31468000000001
 21
73.63681600000001
 31
0.0
  0
LINE
  5
60
  8
2
 10
82.31468000000001
 20
73.63681600000001
 30
0.0
 11
82.31468000000001
 21
74.736816000000005
 31
0.0
  0
LINE
  5
61
  8
0
 10
83.341180000000008
 20
74.736816000000005
 30
0.0
 11
83.341180000000008
 21
74.836815999999999
 31
0.0
  0
LINE
  5
62
  8
0
 10
83.341180000000008
 20
74.836815999999999
 30
0.0
 11
91.341179999999994
 21
74.836815999999999
 31
0.0
  0
LINE
  5
63
  8
0
 10
91.341179999999994
 20
74.836815999999999
 30
0.0
 11
91.341179999999994
 21
74.736816000000005
 31
0.0
  0
LINE
  5
64
  8
2
 10
83.341180000000008
 20
74.736816000000005
 30
0.0
 11
83.341180000000008
 21
73.63681600000001
 31
0.0
  0
LINE
  5
65
  8
2
 10
91.341179999999994
 20
74.736816000000005
 30
0.0
 11
91.341179999999994
 21
73.63681600000001
 31
0.0
  0
LINE
  5
66
  8
0
 10
126.63456100000001
 20
73.63681600000001
 30
0.0
 11
127.58456099999999
 21
73.63681600000001
 31
0.0
  0
LINE
  5
67
  8
0
 10
126.63456100000001
 20
74.708511999999999
 30
0.0
 11
126.63456100000001
 21
73.63681600000001
 31
0.0
  0
LINE
  5
68
  8
0
 10
127.58456099999999
 20
74.708511999999999
 30
0.0
 11
127.58456099999999
 21
73.63681600000001
 31
0.0
  0
POLYLINE
  5
69
  8
0
 66
     1
 10
0.0
 20
0.0
 30
0.0
 70
     1
  0
VERTEX
  5
6A
  8
0
 10
126.63456100000001
 20
74.236816000000005
 30
0.0
 42
0.079384
  0
VERTEX
  5
6B
  8
0
 10
126.672178
 20
74.001374999999996
 30
0.0
 42
0.088422
  0
VERTEX
  5
6C
  8
0
 10
126.773685
 20
73.812551999999997
 30
0.0
 42
0.105162
 70
     2
 50
308.36748499999999
  0
VERTEX
  5
6D
  8
0
 10
126.933719
 20
73.680037999999996
 30
0.0
 42
0.121099
 50
308.36748499999999
  0
VERTEX
  5
6E
  8
0
 10
127.109561
 20
73.63681600000001
 30
0.0
 42
0.121099
  0
VERTEX
  5
6F
  8
0
 10
127.285402
 20
73.680037999999996
 30
0.0
 42
0.105162
  0
VERTEX
  5
70
  8
0
 10
127.445436
 20
73.812551999999997
 30
0.0
 42
0.088422
 70
     2
 50
51.632515000000012
  0
VERTEX
  5
71
  8
0
 10
127.546943
 20
74.001374999999996
 30
0.0
 42
0.079384
 50
51.632515000000012
  0
VERTEX
  5
72
  8
0
 10
127.58456099999999
 20
74.236816000000005
 30
0.0
 42
0.079384
  0
VERTEX
  5
73
  8
0
 10
127.546943
 20
74.472256000000002
 30
0.0
 42
0.088422
  0
VERTEX
  5
74
  8
0
 10
127.445436
 20
74.661079999999998
 30
0.0
 42
0.105162
 70
     2
 50
128.36748499999999
  0
VERTEX
  5
75
  8
0
 10
127.285402
 20
74.793593000000001
 30
0.0
 42
0.121099
 50
128.36748499999999
  0
VERTEX
  5
76
  8
0
 10
127.109561
 20
74.836815999999999
 30
0.0
 42
0.121099
  0
VERTEX
  5
77
  8
0
 10
126.933719
 20
74.793593000000001
 30
0.0
 42
0.105162
  0
VERTEX
  5
78
  8
0
 10
126.773685
 20
74.661079999999998
 30
0.0
 42
0.088422
 70
     2
 50
231.63251500000001
  0
VERTEX
  5
79
  8
0
 10
126.672178
 20
74.472256000000002
 30
0.0
 42
0.079384
 50
231.63251500000001
  0
SEQEND
  5
7A
  8
0
  0
POLYLINE
  5
7B
  8
0
 66
     1
 10
0.0
 20
0.0
 30
0.0
  0
VERTEX
  5
7C
  8
0
 10
48.412219999999998
 20
74.727521999999993
 30
0.0
 42
0.058818
 70
     2
 50
128.36748499999999
  0
VERTEX
  5
7D
  8
0
 10
48.315550000000002
 20
74.793593000000001
 30
0.0
 42
0.121099
 50
128.36748499999999
  0
VERTEX
  5
7E
  8
0
 10
48.139707999999992
 20
74.836815999999999
 30
0.0
 42
0.121099
  0
VERTEX
  5
7F
  8
0
 10
47.963867
 20
74.793593000000001
 30
0.0
 42
0.058818
  0
VERTEX
  5
80
  8
0
 10
47.86719699999999
 20
74.727521999999993
 30
0.0
 42
0.088422
 70
     2
 50
231.63251500000001
  0
SEQEND
  5
81
  8
0
  0
LINE
  5
82
  8
0
 10
91.341179999999994
 20
101.022313
 30
0.0
 11
91.341179999999994
 21
99.822312999999994
 31
0.0
  0
LINE
  5
83
  8
0
 10
83.341180000000008
 20
99.822312999999994
 30
0.0
 11
83.341180000000008
 21
101.022313
 31
0.0
  0
LINE
  5
84
  8
0
 10
82.31468000000001
 20
99.822312999999994
 30
0.0
 11
82.31468000000001
 21
101.022313
 31
0.0
  0
LINE
  5
85
  8
0
 10
94.264679999999984
 20
99.822312999999994
 30
0.0
 11
82.31468000000001
 21
99.822312999999994
 31
0.0
  0
ARC
  5
86
  8
2
 10
92.814680000000024
 20
100.422313
 30
0.0
 40
2.5
 50
293.57817799999998
 51
66.421821999999992
  0
LINE
  5
87
  8
0
 10
93.164680000000004
 20
96.422313000000003
 30
0.0
 11
93.164680000000004
 21
99.822312999999994
 31
0.0
  0
LINE
  5
88
  8
0
 10
94.314679999999996
 20
97.572312999999994
 30
0.0
 11
93.164680000000004
 21
96.422313000000003
 31
0.0
  0
LINE
  5
89
  8
0
 10
94.314679999999996
 20
103.272313
 30
0.0
 11
93.164680000000004
 21
104.422313
 31
0.0
  0
LINE
  5
8A
  8
0
 10
94.314679999999996
 20
97.572312999999994
 30
0.0
 11
95.314680000000024
 21
97.572312999999994
 31
0.0
  0
LINE
  5
8B
  8
0
 10
94.314679999999996
 20
103.272313
 30
0.0
 11
95.314680000000024
 21
103.272313
 31
0.0
  0
LINE
  5
8C
  8
0
 10
80.514679999999984
 20
104.422313
 30
0.0
 11
80.514679999999984
 21
96.422313000000003
 31
0.0
  0
LINE
  5
8D
  8
0
 10
79.31468000000001
 20
97.622313000000005
 30
0.0
 11
80.514679999999984
 21
96.422313000000003
 31
0.0
  0
LINE
  5
8E
  8
0
 10
79.31468000000001
 20
103.222313
 30
0.0
 11
80.514679999999984
 21
104.422313
 31
0.0
  0
LINE
  5
8F
  8
0
 10
79.31468000000001
 20
103.222313
 30
0.0
 11
79.31468000000001
 21
97.622313000000005
 31
0.0
  0
ARC
  5
90
  8
0
 10
94.314679999999996
 20
100.422313
 30
0.0
 40
2.5
 50
293.57817799999998
 51
66.421821999999992
  0
LINE
  5
91
  8
0
 10
94.314679999999996
 20
103.272313
 30
0.0
 11
94.314679999999996
 21
97.572312999999994
 31
0.0
  0
LINE
  5
92
  8
0
 10
95.314680000000024
 20
103.272313
 30
0.0
 11
95.314680000000024
 21
97.572312999999994
 31
0.0
  0
LINE
  5
93
  8
0
 10
93.164680000000004
 20
96.422313000000003
 30
0.0
 11
80.514679999999984
 21
96.422313000000003
 31
0.0
  0
LINE
  5
94
  8
3
 10
93.841179999999994
 20
97.098813000000007
 30
0.0
 11
79.838180000000008
 21
97.098813000000007
 31
0.0
  0
LINE
  5
95
  8
3
 10
93.841179999999994
 20
103.745813
 30
0.0
 11
79.838180000000008
 21
103.745813
 31
0.0
  0
LINE
  5
96
  8
0
 10
93.164680000000004
 20
104.422313
 30
0.0
 11
80.514679999999984
 21
104.422313
 31
0.0
  0
LINE
  5
97
  8
1
 10
76.81468000000001
 20
100.422313
 30
0.0
 11
99.314680000000024
 21
100.422313
 31
0.0
  0
LINE
  5
98
  8
0
 10
94.264679999999984
 20
101.022313
 30
0.0
 11
82.31468000000001
 21
101.022313
 31
0.0
  0
LINE
  5
99
  8
0
 10
94.264679999999984
 20
99.822312999999994
 30
0.0
 11
94.264679999999984
 21
101.022313
 31
0.0
  0
LINE
  5
9A
  8
0
 10
93.164680000000004
 20
101.022313
 30
0.0
 11
93.164680000000004
 21
104.422313
 31
0.0
  0
LINE
  5
9B
  8
1
 10
76.81468000000001
 20
41.071919000000001
 30
0.0
 11
99.314680000000024
 21
41.071919000000001
 31
0.0
  0
LINE
  5
9C
  8
0
 10
95.314680000000024
 20
43.921919000000003
 30
0.0
 11
95.314680000000024
 21
38.221919
 31
0.0
  0
LINE
  5
9D
  8
0
 10
94.314679999999996
 20
43.921919000000003
 30
0.0
 11
94.314679999999996
 21
38.221919
 31
0.0
  0
ARC
  5
9E
  8
0
 10
94.314679999999996
 20
41.071919000000001
 30
0.0
 40
2.5
 50
293.57817799999998
 51
66.421821999999992
  0
LINE
  5
9F
  8
0
 10
79.31468000000001
 20
43.871918999999998
 30
0.0
 11
79.31468000000001
 21
38.271918999999997
 31
0.0
  0
LINE
  5
A0
  8
0
 10
79.31468000000001
 20
38.271918999999997
 30
0.0
 11
80.514679999999984
 21
37.071919000000001
 31
0.0
  0
LINE
  5
A1
  8
0
 10
80.514679999999984
 20
45.071919000000001
 30
0.0
 11
80.514679999999984
 21
37.071919000000001
 31
0.0
  0
LINE
  5
A2
  8
0
 10
94.314679999999996
 20
38.221919
 30
0.0
 11
95.314680000000024
 21
38.221919
 31
0.0
  0
LINE
  5
A3
  8
0
 10
94.314679999999996
 20
38.221919
 30
0.0
 11
93.164680000000004
 21
37.071919000000001
 31
0.0
  0
LINE
  5
A4
  8
0
 10
93.164680000000004
 20
37.071919000000001
 30
0.0
 11
93.164680000000004
 21
45.071919000000001
 31
0.0
  0
ARC
  5
A5
  8
2
 10
92.814680000000024
 20
41.071919000000001
 30
0.0
 40
2.5
 50
293.57817799999998
 51
66.421821999999992
  0
LINE
  5
A6
  8
0
 10
93.164680000000004
 20
45.071919000000001
 30
0.0
 11
80.514679999999984
 21
45.071919000000001
 31
0.0
  0
LINE
  5
A7
  8
3
 10
93.841179999999994
 20
44.395418999999997
 30
0.0
 11
79.838180000000008
 21
44.395418999999997
 31
0.0
  0
LINE
  5
A8
  8
3
 10
93.841179999999994
 20
37.748418999999998
 30
0.0
 11
79.838180000000008
 21
37.748418999999998
 31
0.0
  0
LINE
  5
A9
  8
0
 10
93.164680000000004
 20
37.071919000000001
 30
0.0
 11
80.514679999999984
 21
37.071919000000001
 31
0.0
  0
LINE
  5
AA
  8
0
 10
79.31468000000001
 20
43.871918999999998
 30
0.0
 11
80.514679999999984
 21
45.071919000000001
 31
0.0
  0
LINE
  5
AB
  8
0
 10
94.314679999999996
 20
43.921919000000003
 30
0.0
 11
95.314680000000024
 21
43.921919000000003
 31
0.0
  0
LINE
  5
AC
  8
0
 10
94.314679999999996
 20
43.921919000000003
 30
0.0
 11
93.164680000000004
 21
45.071919000000001
 31
0.0
  0
TEXT
  5
1D4
  8
0
 62
     3
 10
0.0
 20
0.0
 30
0.0
 40
5.0
  1
LBSU8
  7
STANDARD1
  0
ENDSEC
  0
EOF
