  0
SECTION
  2
HEADER
  9
$ACADVER
  1
AC1009
  9
$INSBASE
 10
0.0
 20
0.0
 30
0.0
  9
$EXTMIN
 10
0.0
 20
-2.960436562073669
 30
0.0
  9
$EXTMAX
 10
139.2000018357663
 20
94.247599320971418
 30
0.0
  9
$LIMMIN
 10
0.0
 20
0.0
  9
$LIMMAX
 10
375.0
 20
270.0
  9
$ORTHOMODE
 70
     1
  9
$REGENMODE
 70
     1
  9
$FILLMODE
 70
     1
  9
$QTEXTMODE
 70
     0
  9
$MIRRTEXT
 70
     0
  9
$DRAGMODE
 70
     2
  9
$LTSCALE
 40
5.0
  9
$OSMODE
 70
    37
  9
$ATTMODE
 70
     1
  9
$TEXTSIZE
 40
0.2
  9
$TRACEWID
 40
0.05
  9
$TEXTSTYLE
  7
STANDARD
  9
$CLAYER
  8
0
  9
$CELTYPE
  6
BYLAYER
  9
$CECOLOR
 62
   256
  9
$DIMSCALE
 40
1.0
  9
$DIMASZ
 40
3.0
  9
$DIMEXO
 40
2.0
  9
$DIMDLI
 40
10.0
  9
$DIMRND
 40
0.0
  9
$DIMDLE
 40
0.0
  9
$DIMEXE
 40
2.0
  9
$DIMTP
 40
0.0
  9
$DIMTM
 40
0.0
  9
$DIMTXT
 40
3.2000000000000002
  9
$DIMCEN
 40
0.09
  9
$DIMTSZ
 40
0.0
  9
$DIMTOL
 70
     0
  9
$DIMLIM
 70
     0
  9
$DIMTIH
 70
     0
  9
$DIMTOH
 70
     0
  9
$DIMSE1
 70
     0
  9
$DIMSE2
 70
     0
  9
$DIMTAD
 70
     1
  9
$DIMZIN
 70
     0
  9
$DIMBLK
  1

  9
$DIMASO
 70
     0
  9
$DIMSHO
 70
     0
  9
$DIMPOST
  1

  9
$DIMAPOST
  1

  9
$DIMALT
 70
     0
  9
$DIMALTD
 70
     2
  9
$DIMALTF
 40
25.399999999999999
  9
$DIMLFAC
 40
1.0
  9
$DIMTOFL
 70
     1
  9
$DIMTVP
 40
1.6000000000000001
  9
$DIMTIX
 70
     0
  9
$DIMSOXD
 70
     0
  9
$DIMSAH
 70
     0
  9
$DIMBLK1
  1

  9
$DIMBLK2
  1

  9
$DIMSTYLE
  2
STANDARD
  9
$DIMCLRD
 70
     0
  9
$DIMCLRE
 70
     0
  9
$DIMCLRT
 70
     0
  9
$DIMTFAC
 40
1.0
  9
$DIMGAP
 40
0.09
  9
$LUNITS
 70
     2
  9
$LUPREC
 70
     4
  9
$SKETCHINC
 40
0.1
  9
$FILLETRAD
 40
0.0
  9
$AUNITS
 70
     0
  9
$AUPREC
 70
     0
  9
$MENU
  1
E:\r13\win\SUPPORT\ACAD
  9
$ELEVATION
 40
0.0
  9
$PELEVATION
 40
0.0
  9
$THICKNESS
 40
0.0
  9
$LIMCHECK
 70
     0
  9
$BLIPMODE
 70
     0
  9
$CHAMFERA
 40
0.0
  9
$CHAMFERB
 40
0.0
  9
$SKPOLY
 70
     0
  9
$TDCREATE
 40
2449840.6171180559
  9
$TDUPDATE
 40
2457176.4476044681
  9
$TDINDWG
 40
0.1946988657
  9
$TDUSRTIMER
 40
0.1946988657
  9
$USRTIMER
 70
     1
  9
$ANGBASE
 50
0.0
  9
$ANGDIR
 70
     0
  9
$PDMODE
 70
     0
  9
$PDSIZE
 40
0.0
  9
$PLINEWID
 40
0.0
  9
$COORDS
 70
     1
  9
$SPLFRAME
 70
     0
  9
$SPLINETYPE
 70
     6
  9
$SPLINESEGS
 70
     8
  9
$ATTDIA
 70
     0
  9
$ATTREQ
 70
     1
  9
$HANDLING
 70
     1
  9
$HANDSEED
  5
139B
  9
$SURFTAB1
 70
     6
  9
$SURFTAB2
 70
     6
  9
$SURFTYPE
 70
     6
  9
$SURFU
 70
     6
  9
$SURFV
 70
     6
  9
$UCSNAME
  2

  9
$UCSORG
 10
0.0
 20
0.0
 30
0.0
  9
$UCSXDIR
 10
1.0
 20
0.0
 30
0.0
  9
$UCSYDIR
 10
0.0
 20
1.0
 30
0.0
  9
$PUCSNAME
  2

  9
$PUCSORG
 10
0.0
 20
0.0
 30
0.0
  9
$PUCSXDIR
 10
1.0
 20
0.0
 30
0.0
  9
$PUCSYDIR
 10
0.0
 20
1.0
 30
0.0
  9
$USERI1
 70
     0
  9
$USERI2
 70
     1
  9
$USERI3
 70
     0
  9
$USERI4
 70
     0
  9
$USERI5
 70
     0
  9
$USERR1
 40
0.0
  9
$USERR2
 40
0.0
  9
$USERR3
 40
0.0
  9
$USERR4
 40
0.0
  9
$USERR5
 40
0.0
  9
$WORLDVIEW
 70
     1
  9
$SHADEDGE
 70
     3
  9
$SHADEDIF
 70
    70
  9
$TILEMODE
 70
     1
  9
$MAXACTVP
 70
    16
  9
$PLIMCHECK
 70
     0
  9
$PEXTMIN
 10
1.0000000000000000E+020
 20
1.0000000000000000E+020
 30
1.0000000000000000E+020
  9
$PEXTMAX
 10
-1.0000000000000000E+020
 20
-1.0000000000000000E+020
 30
-1.0000000000000000E+020
  9
$PLIMMIN
 10
0.0
 20
0.0
  9
$PLIMMAX
 10
12.0
 20
9.0
  9
$UNITMODE
 70
     0
  9
$VISRETAIN
 70
     0
  9
$PLINEGEN
 70
     0
  9
$PSLTSCALE
 70
     0
  0
ENDSEC
  0
SECTION
  2
TABLES
  0
TABLE
  2
VPORT
 70
     1
  0
VPORT
  2
*ACTIVE
 70
     0
 10
0.0
 20
0.0
 11
1.0
 21
1.0
 12
99.765271613608235
 22
45.647730092040547
 13
0.0
 23
0.0
 14
10.0
 24
10.0
 15
10.0
 25
10.0
 16
0.0
 26
0.0
 36
1.0
 17
0.0
 27
0.0
 37
0.0
 40
98.085913204459061
 41
2.6019575856443709
 42
50.0
 43
0.0
 44
0.0
 50
0.0
 51
0.0
 71
     0
 72
   100
 73
     1
 74
     0
 75
     0
 76
     0
 77
     0
 78
     0
  0
ENDTAB
  0
TABLE
  2
LTYPE
 70
     4
  0
LTYPE
  2
CONTINUOUS
 70
     0
  3
Solid Line
 72
    65
 73
     0
 40
0.0
  0
LTYPE
  2
CENTER
 70
     0
  3
____ _ ____ _ ____ _ ____ _ ____ _ ____ _ ____
 72
    65
 73
     4
 40
2.0
 49
1.25
 49
-0.25
 49
0.25
 49
-0.25
  0
LTYPE
  2
HIDDEN
 70
     0
  3
Hidden __ __ __ __ __ __ __ __ __ __ __ __ __ _
 72
    65
 73
     2
 40
0.375
 49
0.25
 49
-0.125
  0
LTYPE
  2
PHANTOM2
 70
     0
  3
___ _ _ ___ _ _ ___ _ _ ___ _ _
 72
    65
 73
     6
 40
1.25
 49
0.625
 49
-0.125
 49
0.125
 49
-0.125
 49
0.125
 49
-0.125
  0
ENDTAB
  0
TABLE
  2
LAYER
 70
     4
  0
LAYER
  2
0
 70
     0
 62
     7
  6
CONTINUOUS
  0
LAYER
  2
1
 70
     0
 62
     1
  6
CENTER
  0
LAYER
  2
3
 70
     0
 62
     3
  6
CONTINUOUS
  0
LAYER
  2
2
 70
     0
 62
     2
  6
HIDDEN
  0
ENDTAB
  0
TABLE
  2
STYLE
 70
     2
  0
STYLE
  2
STANDARD
 70
     0
 40
0.0
 41
1.0
 50
0.0
 71
     0
 42
0.2
  3
TXT
  4
BIGFONT
  0
STYLE
  2
STANDARD1
 70
     0
 40
0.0
 41
1.0
 50
0.0
 71
     0
 42
3.0
  3
txt
  4

  0
ENDTAB
  0
TABLE
  2
VIEW
 70
     1
  0
VIEW
  2
ALL
 70
     0
 40
270.0
 10
220.99159700000001
 20
135.0
 41
0.0
 11
0.0
 21
0.0
 31
1.0
 12
0.0
 22
0.0
 32
0.0
 42
0.0
 43
0.0
 44
0.0
 50
0.0
 71
     0
  0
ENDTAB
  0
TABLE
  2
UCS
 70
     0
  0
ENDTAB
  0
TABLE
  2
APPID
 70
     4
  0
APPID
  2
ACAD
 70
     0
  0
APPID
  2
ACAD_EXEMPT_FROM_CAD_STANDARDS
 70
     0
  0
APPID
  2
ACAD_MLEADERVER
 70
     0
  0
APPID
  2
ACAD_NAV_VCDISPLAY
 70
     0
  0
ENDTAB
  0
TABLE
  2
DIMSTYLE
 70
     1
  0
DIMSTYLE
  2
STANDARD
 70
     0
  3

  4

  5

  6

  7

 40
1.0
 41
0.18
 42
0.0625
 43
0.38
 44
0.18
 45
0.0
 46
0.0
 47
0.0
 48
0.0
140
0.18
141
0.09
142
0.0
143
25.399999999999999
144
1.0
145
0.0
146
1.0
147
0.09
 71
     0
 72
     0
 73
     1
 74
     1
 75
     0
 76
     0
 77
     0
 78
     0
170
     0
171
     2
172
     0
173
     0
174
     0
175
     0
176
     0
177
     0
178
     0
  0
ENDTAB
  0
ENDSEC
  0
SECTION
  2
BLOCKS
  0
BLOCK
  8
0
  2
$MODEL_SPACE
 70
     0
 10
0.0
 20
0.0
 30
0.0
  3
$MODEL_SPACE
  1

  0
ENDBLK
  5
E8
  8
0
  0
BLOCK
 67
     1
  8
0
  2
$PAPER_SPACE
 70
     0
 10
0.0
 20
0.0
 30
0.0
  3
$PAPER_SPACE
  1

  0
ENDBLK
  5
E6
 67
     1
  8
0
  0
ENDSEC
  0
SECTION
  2
ENTITIES
  0
TEXT
  5
E87
  8
0
 62
     3
 10
0.0
 20
0.0
 30
0.0
 40
10.0
  1
KCLS03
  7
STANDARD1
  0
LINE
  5
F79
  8
0
 10
94.017455261223446
 20
38.899999812300003
 30
0.0
 11
94.005328044323434
 21
38.205235499899999
 31
0.0
  0
LINE
  5
F7A
  8
0
 10
105.9946719557234
 20
38.205235499899999
 30
0.0
 11
105.98254473882341
 21
38.899999812300003
 31
0.0
  0
ARC
  5
F7B
  8
0
 10
105.6947177821234
 20
38.199999612600003
 30
0.0
 40
0.3000000000006705
 50
270.0
 51
1.0000000035002059
  0
ARC
  5
F7C
  8
0
 10
94.305282217923448
 20
38.199999612600003
 30
0.0
 40
0.3000000000000114
 50
178.9999999999998
 51
270.0
  0
ARC
  5
F7F
  8
0
 10
104.9000000000234
 20
36.799999738499992
 30
0.0
 40
1.1000000000000001
 50
270.0
 51
0.0
  0
ARC
  5
F80
  8
0
 10
95.100000000023456
 20
36.799999738499992
 30
0.0
 40
1.0999999999999941
 50
180.0
 51
270.0
  0
LINE
  5
F81
  8
0
 10
93.999999947923456
 20
37.899999648399998
 30
0.0
 11
93.999999947923456
 21
36.800000119999993
 31
0.0
  0
LINE
  5
F82
  8
0
 10
106.0000000522234
 20
36.800000119999993
 30
0.0
 11
106.0000000522234
 21
37.899999648399998
 31
0.0
  0
LINE
  5
F83
  8
0
 10
96.985037345523466
 20
38.899999812300003
 30
0.0
 11
94.017455261223446
 21
38.899999812300003
 31
0.0
  0
LINE
  5
F85
  8
0
 10
105.98254473882341
 20
38.899999812300003
 30
0.0
 11
103.0883955769234
 21
38.899999812300003
 31
0.0
  0
LINE
  5
F89
  8
0
 10
95.099999941923457
 20
35.70000012589999
 30
0.0
 11
104.9000000581234
 21
35.70000012589999
 31
0.0
  0
LINE
  5
F8A
  8
0
 10
106.0000000522234
 20
37.899999648399998
 30
0.0
 11
93.999999947923456
 21
37.899999648399998
 31
0.0
  0
CIRCLE
  5
F8C
  8
0
 10
100.00000000002341
 20
44.4999996126
 30
0.0
 40
3.0000000000000062
  0
LINE
  5
F8E
  8
0
 10
127.3000001908234
 20
44.613538893899992
 30
0.0
 11
129.40000034872341
 21
44.3501277206
 31
0.0
  0
LINE
  5
F8F
  8
0
 10
126.0000005365235
 20
44.750356291899998
 30
0.0
 11
127.3000001908234
 21
44.613538893899992
 31
0.0
  0
POLYLINE
  5
F92
  8
0
 66
     1
 10
0.0
 20
0.0
 30
0.0
 70
   128
  0
VERTEX
  5
133A
  8
0
 10
126.0000005365235
 20
48.363135198199998
 30
0.0
  0
VERTEX
  5
133B
  8
0
 10
127.7044158429235
 20
48.190890580500003
 30
0.0
  0
VERTEX
  5
133C
  8
0
 10
129.40000034872341
 20
47.949849862700013
 30
0.0
  0
SEQEND
  5
133D
  8
0
  0
POLYLINE
  5
F94
  8
0
 66
     1
 10
0.0
 20
0.0
 30
0.0
 70
   128
  0
VERTEX
  5
133E
  8
0
 10
121.9999998808234
 20
44.8953481701
 30
0.0
  0
VERTEX
  5
133F
  8
0
 10
123.98807927972349
 20
44.875098015900001
 30
0.0
  0
VERTEX
  5
1340
  8
0
 10
126.0000005365235
 20
44.750356291899998
 30
0.0
  0
SEQEND
  5
1341
  8
0
  0
POLYLINE
  5
F95
  8
0
 66
     1
 10
0.0
 20
0.0
 30
0.0
 70
   128
  0
VERTEX
  5
1342
  8
0
 10
121.9999998808234
 20
48.495744124099993
 30
0.0
  0
VERTEX
  5
1343
  8
0
 10
123.9882096648234
 20
48.477214064499982
 30
0.0
  0
VERTEX
  5
1344
  8
0
 10
126.0000005365235
 20
48.363135198199998
 30
0.0
  0
SEQEND
  5
1345
  8
0
  0
ARC
  5
F97
  8
0
 10
122.60000198242339
 20
6.1999535964000074
 30
0.0
 40
38.700046043050001
 50
90.888344304800029
 51
95.113287263499757
  0
POLYLINE
  5
F98
  8
0
 66
     1
 10
0.0
 20
0.0
 30
0.0
 70
   128
  0
VERTEX
  5
1346
  8
0
 10
119.1508494318235
 20
48.359142851099989
 30
0.0
  0
VERTEX
  5
1347
  8
0
 10
120.5508638174235
 20
48.450337491999981
 30
0.0
  0
VERTEX
  5
1348
  8
0
 10
121.9999998808234
 20
48.495744124099993
 30
0.0
  0
SEQEND
  5
1349
  8
0
  0
ARC
  5
F9A
  8
0
 10
134.80000282142339
 20
44.431021756299991
 30
0.0
 40
0.9999917361353228
 50
258.46282777939962
 51
323.13038115009982
  0
LINE
  5
F9B
  8
0
 10
135.5050861836234
 20
46.483355809099997
 30
0.0
 11
135.5999991298234
 21
46.447545757600011
 31
0.0
  0
ARC
  5
F9C
  8
0
 10
118.4274805801234
 20
-34.6149029125
 30
0.0
 40
79.72372453013827
 50
78.295918026599821
 51
82.089168155099898
  0
ARC
  5
F9D
  8
0
 10
122.5990269342234
 20
6.1959366872000032
 30
0.0
 40
42.304166518753739
 50
72.237159385800226
 51
80.74877439549995
  0
ARC
  5
F9F
  8
0
 10
106.4143178792234
 20
96.579903723099989
 30
0.0
 40
49.70000973123723
 50
277.61458314649991
 51
283.48037275509978
  0
LINE
  5
FA0
  8
0
 10
114.8000000045234
 20
43.499999565099991
 30
0.0
 11
113.0000002682234
 21
43.175015716900013
 31
0.0
  0
ARC
  5
FA1
  8
0
 10
122.69854893712341
 20
25.343656102600001
 30
0.0
 40
19.799997049752079
 50
102.5386675199999
 51
113.5104718785001
  0
LINE
  5
FA2
  8
0
 10
118.40000040832339
 20
44.671417579699998
 30
0.0
 11
119.1508494318235
 21
44.745989844300013
 31
0.0
  0
LINE
  5
FA3
  8
0
 10
117.99999922522341
 20
48.2491375898
 30
0.0
 11
119.1508494318235
 21
48.359142851099989
 31
0.0
  0
ARC
  5
FA4
  8
0
 10
109.4130702488234
 20
36.050777271599998
 30
0.0
 40
6.4000000000000217
 50
125.4623053106999
 51
143.02682913059971
  0
ARC
  5
FA5
  8
0
 10
110.4960669944234
 20
66.739475909600003
 30
0.0
 40
20.000000000000611
 50
245.8075178616003
 51
257.30251695589999
  0
ARC
  5
FA6
  8
0
 10
109.1000000000234
 20
66.799999612600004
 30
0.0
 40
19.7999999999995
 50
261.2852579813997
 51
275.7973395407999
  0
ARC
  5
FA8
  8
0
 10
111.3000000000234
 20
32.499999612599993
 30
0.0
 40
10.39999999999991
 50
100.5266185501001
 51
122.5789703927999
  0
ARC
  5
FA9
  8
0
 10
100.1647897445234
 20
43.676245915899997
 30
0.0
 40
5.599999999999997
 50
291.31101888769967
 51
317.59788106140007
  0
ARC
  5
FAA
  8
0
 10
104.9644747955234
 20
92.829021941800008
 30
0.0
 40
50.299999999996921
 50
275.05899387229999
 51
279.19250125659988
  0
POLYLINE
  5
FAB
  8
0
 66
     1
 10
0.0
 20
0.0
 30
0.0
 70
   128
  0
VERTEX
  5
134A
  8
0
 10
102.19999998812339
 20
38.459166187800008
 30
0.0
  0
VERTEX
  5
134B
  8
0
 10
101.7241258174234
 20
38.277223475300012
 30
0.0
  0
VERTEX
  5
134C
  8
0
 10
101.5475737164234
 20
38.222214441800013
 30
0.0
  0
SEQEND
  5
134D
  8
0
  0
ARC
  5
FAC
  8
0
 10
100.00000000002341
 20
43.499999612599993
 30
0.0
 40
5.4999999999999973
 50
65.280148817099871
 51
286.34244809404152
  0
ARC
  5
FAD
  8
0
 10
106.4143229178234
 20
96.579894683300012
 30
0.0
 40
49.7000000000019
 50
275.40983578769999
 51
277.61457847389983
  0
POLYLINE
  5
FAE
  8
0
 66
     1
 10
0.0
 20
0.0
 30
0.0
 70
   128
  0
VERTEX
  5
134E
  8
0
 10
135.73979437352341
 20
44.089287550500003
 30
0.0
  0
VERTEX
  5
134F
  8
0
 10
135.87415441872341
 20
44.458780396000009
 30
0.0
  0
VERTEX
  5
1350
  8
0
 10
135.98586842422341
 20
44.765990520400003
 30
0.0
  0
VERTEX
  5
1351
  8
0
 10
136.07452288272339
 20
45.009791038000003
 30
0.0
  0
VERTEX
  5
1352
  8
0
 10
136.13979369402341
 20
45.189287573599998
 30
0.0
  0
SEQEND
  5
1353
  8
0
  0
ARC
  5
FAF
  8
0
 10
135.19987295472339
 20
45.530945064699992
 30
0.0
 40
1.0001288848059799
 50
0.004901889900056
 51
66.417157110900263
  0
ARC
  5
FB0
  8
0
 10
135.19928104002341
 20
45.531161930700009
 30
0.0
 40
1.00072080444247
 50
340.02390158869991
 51
359.99248242939979
  0
LINE
  5
FB1
  8
0
 10
135.73979437352341
 20
44.089287550500003
 30
0.0
 11
135.5999991298234
 21
43.831030607300001
 31
0.0
  0
LINE
  5
FB2
  8
3
 10
98.511553497503385
 20
38.205235499899999
 30
0.0
 11
94.005328044323434
 21
38.205235499899999
 31
0.0
  0
LINE
  5
FB3
  8
3
 10
101.4884465025435
 20
38.205235499899999
 30
0.0
 11
105.9946719557234
 21
38.205235499899999
 31
0.0
  0
LINE
  5
FB4
  8
3
 10
106.0000000522234
 20
36.800000119999993
 30
0.0
 11
93.999999947923456
 21
36.800000119999993
 31
0.0
  0
LINE
  5
FBA
  8
0
 10
103.0000000260553
 20
83.397599384671366
 30
0.0
 11
103.0000000260553
 21
87.597599234871396
 31
0.0
  0
LINE
  5
FBB
  8
0
 10
96.999999973855267
 20
87.597599234871396
 30
0.0
 11
96.999999973855267
 21
83.397599384671366
 31
0.0
  0
LINE
  5
FBC
  8
0
 10
94.500000029755284
 20
91.247599320971389
 30
0.0
 11
94.500000029755284
 21
87.597599234871396
 31
0.0
  0
LINE
  5
FBD
  8
0
 10
94.500000029755284
 20
83.397599384671366
 30
0.0
 11
94.500000029755284
 21
79.747599298571387
 31
0.0
  0
CIRCLE
  5
FCF
  8
0
 10
99.999999999955264
 20
85.497599309771374
 30
0.0
 40
1.2294999999653551
  0
LINE
  5
FD1
  8
0
 10
94.500000029755284
 20
87.597599234871396
 30
0.0
 11
103.49999999755531
 21
87.597599234871396
 31
0.0
  0
LINE
  5
FD2
  8
0
 10
113.00000026611001
 20
91.247599320971389
 30
0.0
 11
94.500000029755284
 21
91.247599320971389
 31
0.0
  0
LINE
  5
FD3
  8
0
 10
94.500000029755284
 20
79.747599298571387
 30
0.0
 11
113.0000002665458
 21
79.747599298571387
 31
0.0
  0
LINE
  5
FD4
  8
0
 10
103.5000004861552
 20
83.397599384671395
 30
0.0
 11
94.500000029755284
 21
83.397599384671366
 31
0.0
  0
POLYLINE
  5
FD6
  8
0
 66
     1
 10
0.0
 20
0.0
 30
0.0
 70
   128
  0
VERTEX
  5
1354
  8
0
 10
129.40000034865531
 20
92.397599230071378
 30
0.0
  0
VERTEX
  5
1355
  8
0
 10
127.7103353291553
 20
92.584189707871403
 30
0.0
  0
VERTEX
  5
1356
  8
0
 10
126.0000005364553
 20
92.697599186071415
 30
0.0
  0
SEQEND
  5
1357
  8
0
  0
ARC
  5
FD7
  8
0
 10
127.2990826454552
 20
82.620040282371392
 30
0.0
 40
10.000725682219789
 50
34.861032534700669
 51
77.873163132700157
  0
ARC
  5
FD9
  8
0
 10
127.2991313877553
 20
88.375085065471396
 30
0.0
 40
10.00064380597245
 50
282.12665203189988
 51
325.13915230080039
  0
POLYLINE
  5
FDA
  8
0
 66
     1
 10
0.0
 20
0.0
 30
0.0
 70
   128
  0
VERTEX
  5
1358
  8
0
 10
126.0000005364553
 20
78.297599433471376
 30
0.0
  0
VERTEX
  5
1359
  8
0
 10
127.7044158428553
 20
78.410486439671402
 30
0.0
  0
VERTEX
  5
135A
  8
0
 10
129.40000034865531
 20
78.597599389471384
 30
0.0
  0
SEQEND
  5
135B
  8
0
  0
POLYLINE
  5
FDB
  8
0
 66
     1
 10
0.0
 20
0.0
 30
0.0
 70
   128
  0
VERTEX
  5
135C
  8
0
 10
121.9999998807552
 20
78.597599389471384
 30
0.0
  0
VERTEX
  5
135D
  8
0
 10
123.9882096647553
 20
78.373681037271396
 30
0.0
  0
VERTEX
  5
135E
  8
0
 10
126.0000005364553
 20
78.297599433471376
 30
0.0
  0
SEQEND
  5
135F
  8
0
  0
POLYLINE
  5
FDC
  8
0
 66
     1
 10
0.0
 20
0.0
 30
0.0
 70
   128
  0
VERTEX
  5
1360
  8
0
 10
119.1508494317552
 20
79.397599427471405
 30
0.0
  0
VERTEX
  5
1361
  8
0
 10
120.55086381735531
 20
78.937485563071405
 30
0.0
  0
VERTEX
  5
1362
  8
0
 10
121.9999998807552
 20
78.597599389471384
 30
0.0
  0
SEQEND
  5
1363
  8
0
  0
LINE
  5
FDD
  8
0
 10
117.99999922515519
 20
79.541646158771385
 30
0.0
 11
119.1508494317552
 21
79.397599427471405
 31
0.0
  0
LINE
  5
FDF
  8
0
 10
119.1508494317552
 20
91.597599192071385
 30
0.0
 11
117.99999922515519
 21
91.453552460771405
 31
0.0
  0
POLYLINE
  5
FE0
  8
0
 66
     1
 10
0.0
 20
0.0
 30
0.0
 70
   128
  0
VERTEX
  5
1364
  8
0
 10
121.9999998807552
 20
92.397599230071378
 30
0.0
  0
VERTEX
  5
1365
  8
0
 10
120.56309394535521
 20
92.061148239771413
 30
0.0
  0
VERTEX
  5
1366
  8
0
 10
119.1508494317552
 20
91.597599192071385
 30
0.0
  0
SEQEND
  5
1367
  8
0
  0
POLYLINE
  5
FE1
  8
0
 66
     1
 10
0.0
 20
0.0
 30
0.0
 70
   128
  0
VERTEX
  5
1368
  8
0
 10
126.0000005364553
 20
92.697599186071415
 30
0.0
  0
VERTEX
  5
1369
  8
0
 10
124.0037720650553
 20
92.622684063871404
 30
0.0
  0
VERTEX
  5
136A
  8
0
 10
121.9999998807552
 20
92.397599230071378
 30
0.0
  0
SEQEND
  5
136B
  8
0
  0
ARC
  5
FE3
  8
0
 10
103.5000004861552
 20
83.597598899571395
 30
0.0
 40
0.1999995149041519
 50
269.99989165900001
 51
0.0001083409995516
  0
LINE
  5
FE4
  8
0
 10
103.7000000010553
 20
83.597599277771394
 30
0.0
 11
103.7000000010553
 21
87.397599341771397
 31
0.0
  0
ARC
  5
FE5
  8
0
 10
103.49999999755531
 20
87.397599231371387
 30
0.0
 40
0.2000000035157562
 50
0.0000316363010016
 51
89.999968363699793
  0
ARC
  5
FEB
  8
0
 10
113.98072150215521
 20
42.760554611471392
 30
0.0
 40
37.000044443588273
 50
83.763710700800289
 51
91.518856806099961
  0
ARC
  5
FEC
  8
0
 10
113.9807233760552
 20
128.23459851457139
 30
0.0
 40
36.999999015753353
 50
268.48113842579983
 51
276.23629406730032
  0
ARC
  5
FF1
  8
0
 10
129.69966449785531
 20
85.469740725271393
 30
0.0
 40
6.5003970345949451
 50
0.2455518018003197
 51
24.812172430700588
  0
ARC
  5
FF2
  8
0
 10
129.69710831365521
 20
85.526025937871395
 30
0.0
 40
6.5029556537112621
 50
335.19273587929962
 51
359.74953988810012
  0
LINE
  5
FF3
  8
0
 10
135.50508618355519
 20
82.658864073971387
 30
0.0
 11
135.59999912975519
 21
82.797599239771401
 31
0.0
  0
LINE
  5
FF4
  8
0
 10
135.50508618355519
 20
88.336334545671406
 30
0.0
 11
135.59999912975519
 21
88.197599379771404
 31
0.0
  0
ARC
  5
FF5
  8
0
 10
55.694717782123433
 20
38.200000000000003
 30
0.0
 40
0.3000000000000114
 50
270.0
 51
318.40541978459993
  0
ARC
  5
FF6
  8
0
 10
44.305282217923427
 20
38.200000000000003
 30
0.0
 40
0.3000000000000114
 50
221.611464184
 51
270.0
  0
ARC
  5
FF9
  8
0
 10
54.900000000021869
 20
36.800000000000011
 30
0.0
 40
1.1000000000000041
 50
270.0
 51
0.0
  0
ARC
  5
FFA
  8
0
 10
45.100000000021879
 20
36.800000000000011
 30
0.0
 40
1.0999999999999981
 50
180.0
 51
270.0
  0
LINE
  5
FFB
  8
0
 10
44.000000000021878
 20
37.900000000000013
 30
0.0
 11
44.000000000021878
 21
36.800000000000011
 31
0.0
  0
LINE
  5
FFC
  8
0
 10
56.000000000021892
 20
36.800000000000011
 30
0.0
 11
56.000000000021892
 21
37.900000000000013
 31
0.0
  0
LINE
  5
FFD
  8
0
 10
48.500000000021878
 20
47.500000000000007
 30
0.0
 11
47.900000000023432
 21
47.500000000000007
 31
0.0
  0
LINE
  5
FFE
  8
0
 10
52.100000000023442
 20
47.500000000000007
 30
0.0
 11
51.500000000021871
 21
47.500000000000007
 31
0.0
  0
LINE
  5
FFF
  8
0
 10
51.500000000021871
 20
41.5
 30
0.0
 11
52.100000000023442
 21
41.5
 31
0.0
  0
LINE
  5
1000
  8
0
 10
47.900000000023432
 20
41.5
 30
0.0
 11
48.500000000021863
 21
41.5
 31
0.0
  0
LINE
  5
1001
  8
0
 10
47.900000000023432
 20
49.000000000000021
 30
0.0
 11
44.250000000023441
 21
49.000000000000021
 31
0.0
  0
LINE
  5
1002
  8
0
 10
55.750000000023441
 20
49.000000000000021
 30
0.0
 11
52.100000000023442
 21
49.000000000000021
 31
0.0
  0
LINE
  5
1003
  8
0
 10
57.03028668312345
 20
48.500000000000007
 30
0.0
 11
55.750000000023441
 21
48.500000000000007
 31
0.0
  0
LINE
  5
1004
  8
0
 10
52.100000000023442
 20
48.500000000000007
 30
0.0
 11
47.900000000023432
 21
48.500000000000007
 31
0.0
  0
LINE
  5
1005
  8
0
 10
44.250000000023441
 20
48.500000000000007
 30
0.0
 11
42.968623356923437
 21
48.500000000000007
 31
0.0
  0
POLYLINE
  5
1006
  8
0
 66
     1
 10
0.0
 20
0.0
 30
0.0
 70
   128
  0
VERTEX
  5
136C
  8
0
 10
44.182460686123449
 20
38.205235722000012
 30
0.0
  0
VERTEX
  5
136D
  8
0
 10
44.126856646423448
 20
38.131167587800007
 30
0.0
  0
VERTEX
  5
136E
  8
0
 10
44.096707185923442
 20
38.072249675800009
 30
0.0
  0
VERTEX
  5
136F
  8
0
 10
44.082831887123447
 20
38.020270228400008
 30
0.0
  0
VERTEX
  5
1370
  8
0
 10
44.081672193523438
 20
38.000215597700013
 30
0.0
  0
VERTEX
  5
1371
  8
0
 10
44.08170145572344
 20
38.001485981800002
 30
0.0
  0
SEQEND
  5
1372
  8
0
  0
LINE
  5
1007
  8
3
 10
55.817539313823438
 20
38.205235722000012
 30
0.0
 11
44.182460686123449
 21
38.205235722000012
 31
0.0
  0
ARC
  5
1008
  8
0
 10
55.58376758892345
 20
37.962841229100007
 30
0.0
 40
0.3367555634901896
 50
6.5893703498000891
 51
46.037440712699933
  0
LINE
  5
100A
  8
0
 10
55.219276185423439
 20
38.899999999999999
 30
0.0
 11
44.780723814523441
 21
38.899999999999999
 31
0.0
  0
LINE
  5
100B
  8
0
 10
55.817539313823438
 20
38.205235722000012
 30
0.0
 11
55.219276185423439
 21
38.899999999999999
 31
0.0
  0
LINE
  5
100C
  8
0
 10
44.780723814523441
 20
38.899999999999999
 30
0.0
 11
44.182460686123449
 21
38.205235722000012
 31
0.0
  0
LINE
  5
100D
  8
0
 10
45.100000000021879
 20
35.700000000000003
 30
0.0
 11
54.900000000021869
 21
35.700000000000003
 31
0.0
  0
LINE
  5
100E
  8
0
 10
56.000000000021892
 20
37.900000000000013
 30
0.0
 11
44.000000000021878
 21
37.900000000000013
 31
0.0
  0
ARC
  5
100F
  8
0
 10
49.999999633193617
 20
51.751325380386469
 30
0.0
 40
4.5081888147496061
 50
250.56557579472559
 51
289.43443409287852
  0
LINE
  5
1015
  8
0
 10
44.250000000023441
 20
49.000000000000021
 30
0.0
 11
44.250000000023441
 21
38.283669274781118
 31
0.0
  0
LINE
  5
1016
  8
0
 10
47.900000000023432
 20
38.899999999999999
 30
0.0
 11
47.900000000023432
 21
49.000000000000021
 31
0.0
  0
LINE
  5
1017
  8
0
 10
52.100000000023442
 20
49.000000000000021
 30
0.0
 11
52.100000000023442
 21
38.899999999999999
 31
0.0
  0
LINE
  5
1018
  8
0
 10
55.750000000023441
 20
38.283669274664973
 30
0.0
 11
55.750000000023441
 21
49.000000000000021
 31
0.0
  0
ARC
  5
101F
  8
3
 10
42.248332550423427
 20
47.327341749300011
 30
0.0
 40
2.0184888815781941
 50
7.4021520156999454
 51
27.172846723400149
  0
ARC
  5
1023
  8
3
 10
57.758812399023441
 20
47.32511977170001
 30
0.0
 40
2.0258603966884081
 50
152.86352942000011
 51
172.56168462299979
  0
LINE
  5
1024
  8
3
 10
55.955953335123439
 20
48.249137922200013
 30
0.0
 11
56.100000000023442
 21
48.35914329000002
 31
0.0
  0
LINE
  5
1026
  8
3
 10
56.001867337123443
 20
44.671417961899998
 30
0.0
 11
56.100000000023442
 21
44.745990231800022
 31
0.0
  0
ARC
  5
1027
  8
3
 10
58.497029012523441
 20
43.522093770300017
 30
0.0
 40
2.7471399460956771
 50
155.26820384140001
 51
172.2499770367327
  0
LINE
  5
1028
  8
3
 10
43.900000000023439
 20
48.35914329000002
 30
0.0
 11
44.044046664823441
 21
48.249137922200013
 31
0.0
  0
ARC
  5
1029
  8
3
 10
41.497094701223453
 20
43.520771154400009
 30
0.0
 40
2.753030868211463
 50
7.7661838930103126
 51
24.705632106400191
  0
LINE
  5
102A
  8
3
 10
43.99813266282343
 20
44.671417961899998
 30
0.0
 11
43.900000000023439
 21
44.745990231800022
 31
0.0
  0
POLYLINE
  5
102C
  8
0
 66
     1
 10
0.0
 20
0.0
 30
0.0
 70
   128
  0
VERTEX
  5
1373
  8
0
 10
57.03028668312345
 20
48.500000000000007
 30
0.0
  0
VERTEX
  5
1374
  8
0
 10
57.123918335223429
 20
48.477214574200019
 30
0.0
  0
VERTEX
  5
1375
  8
0
 10
57.180705059723437
 20
48.432252052900012
 30
0.0
  0
VERTEX
  5
1376
  8
0
 10
57.200000000023429
 20
48.363135557000007
 30
0.0
  0
SEQEND
  5
1377
  8
0
  0
POLYLINE
  5
102D
  8
3
 66
     1
 10
0.0
 20
0.0
 30
0.0
 70
   128
  0
VERTEX
  5
1378
  8
3
 10
56.100000000023442
 20
48.35914329000002
 30
0.0
  0
VERTEX
  5
1379
  8
3
 10
56.560113965223451
 20
48.450337768200022
 30
0.0
  0
VERTEX
  5
137A
  8
3
 10
56.900000000023439
 20
48.495744466800012
 30
0.0
  0
SEQEND
  5
137B
  8
3
  0
POLYLINE
  5
102E
  8
3
 66
     1
 10
0.0
 20
0.0
 30
0.0
 70
   128
  0
VERTEX
  5
137C
  8
3
 10
43.100000000023442
 20
48.495744466800012
 30
0.0
  0
VERTEX
  5
137D
  8
3
 10
43.436450998423432
 20
48.450929185199989
 30
0.0
  0
VERTEX
  5
137E
  8
3
 10
43.900000000023439
 20
48.35914329000002
 30
0.0
  0
SEQEND
  5
137F
  8
3
  0
POLYLINE
  5
102F
  8
0
 66
     1
 10
0.0
 20
0.0
 30
0.0
 70
   128
  0
VERTEX
  5
1380
  8
0
 10
42.800000000023452
 20
48.363135557000007
 30
0.0
  0
VERTEX
  5
1381
  8
0
 10
42.818928410123448
 20
48.431699260400009
 30
0.0
  0
VERTEX
  5
1382
  8
0
 10
42.874915388323437
 20
48.47670069740002
 30
0.0
  0
VERTEX
  5
1383
  8
0
 10
42.968623356923437
 20
48.500000000000007
 30
0.0
  0
SEQEND
  5
1384
  8
0
  0
POLYLINE
  5
1030
  8
3
 66
     1
 10
0.0
 20
0.0
 30
0.0
 70
   128
  0
VERTEX
  5
1385
  8
3
 10
56.100000000023442
 20
44.745990231800022
 30
0.0
  0
VERTEX
  5
1386
  8
3
 10
56.560020837223448
 20
44.845694255200002
 30
0.0
  0
VERTEX
  5
1387
  8
3
 10
56.900000000023439
 20
44.895348557699997
 30
0.0
  0
SEQEND
  5
1388
  8
3
  0
POLYLINE
  5
1031
  8
3
 66
     1
 10
0.0
 20
0.0
 30
0.0
 70
   128
  0
VERTEX
  5
1389
  8
3
 10
56.900000000023439
 20
44.895348557699997
 30
0.0
  0
VERTEX
  5
138A
  8
3
 10
57.12390848652344
 20
44.875098391500018
 30
0.0
  0
VERTEX
  5
138B
  8
3
 10
57.200000000023429
 20
44.750356678000003
 30
0.0
  0
SEQEND
  5
138C
  8
3
  0
LINE
  5
1032
  8
0
 10
57.200000000023429
 20
44.750356678000003
 30
0.0
 11
57.12068927332345
 21
44.613539279800008
 31
0.0
  0
LINE
  5
1033
  8
0
 10
42.879310726623437
 20
44.613539279800008
 30
0.0
 11
42.800000000023452
 21
44.750356678000003
 31
0.0
  0
POLYLINE
  5
1034
  8
3
 66
     1
 10
0.0
 20
0.0
 30
0.0
 70
   128
  0
VERTEX
  5
138D
  8
3
 10
42.800000000023452
 20
44.750356678000003
 30
0.0
  0
VERTEX
  5
138E
  8
3
 10
42.874859824723437
 20
44.874504925300002
 30
0.0
  0
VERTEX
  5
138F
  8
3
 10
43.100000000023442
 20
44.895348557699997
 30
0.0
  0
SEQEND
  5
1390
  8
3
  0
POLYLINE
  5
1035
  8
3
 66
     1
 10
0.0
 20
0.0
 30
0.0
 70
   128
  0
VERTEX
  5
1391
  8
3
 10
43.100000000023442
 20
44.895348557699997
 30
0.0
  0
VERTEX
  5
1392
  8
3
 10
43.43646834252344
 20
44.846355133000003
 30
0.0
  0
VERTEX
  5
1393
  8
3
 10
43.900000000023439
 20
44.745990231800022
 30
0.0
  0
SEQEND
  5
1394
  8
3
  0
LINE
  5
1038
  8
0
 10
57.200000000023429
 20
48.363135557000007
 30
0.0
 11
57.200000000023429
 21
44.750356678000003
 31
0.0
  0
LINE
  5
1039
  8
0
 10
42.800000000023452
 20
48.363135557000007
 30
0.0
 11
42.800000000023452
 21
44.750356678000003
 31
0.0
  0
ARC
  5
103A
  8
0
 10
54.544417809123438
 20
48.529845957600017
 30
0.0
 40
4.7977920729964882
 50
284.86162541618842
 51
299.40449686989979
  0
ARC
  5
103B
  8
0
 10
45.532948587223437
 20
48.722195589700007
 30
0.0
 40
5.0034201211315477
 50
240.90513256589981
 51
254.84470990112121
  0
LINE
  5
103C
  8
0
 10
57.12068927332345
 20
44.613539279800008
 30
0.0
 11
56.900000000023439
 21
44.350128106200003
 31
0.0
  0
LINE
  5
103D
  8
0
 10
43.100000000023442
 20
44.350128106200003
 30
0.0
 11
42.879310726623437
 21
44.613539279800008
 31
0.0
  0
LINE
  5
103E
  8
3
 10
56.000000000021892
 20
36.800000000000011
 30
0.0
 11
44.000000000021878
 21
36.800000000000011
 31
0.0
  0
ARC
  5
1096
  8
0
 10
99.999999999955264
 20
85.497599309771374
 30
0.0
 40
6.000000052200007
 50
73.40215656622145
 51
106.59784343377849
  0
ARC
  5
1097
  8
0
 10
99.999999999955264
 20
85.497599309771374
 30
0.0
 40
6.000000052200007
 50
253.40215656622141
 51
286.59784343377851
  0
ARC
  5
1098
  8
0
 10
99.999999999955264
 20
85.497599309771374
 30
0.0
 40
6.0000000521999928
 50
156.44353383552999
 51
203.55646616447001
  0
ARC
  5
109A
  8
0
 10
99.999999999955264
 20
85.497599309771374
 30
0.0
 40
5.2192761854499992
 50
156.2745396312049
 51
203.7254603687951
  0
LINE
  5
10A0
  8
1
 10
90.999999947755285
 20
85.497599309771374
 30
0.0
 11
139.2000018357663
 21
85.497599309771374
 31
0.0
  0
LINE
  5
10A1
  8
1
 10
99.999999999955264
 20
94.247599320971418
 30
0.0
 11
99.999999999955307
 21
76.747599298571373
 31
0.0
  0
CIRCLE
  5
10A8
  8
3
 10
99.999999999955264
 20
85.497599309771374
 30
0.0
 40
1.5
  0
LINE
  5
10B2
  8
2
 10
51.500000000021871
 20
41.5
 30
0.0
 11
51.500000000021871
 21
47.500000000000007
 31
0.0
  0
LINE
  5
10B3
  8
2
 10
51.229500000021872
 20
41.585966040719747
 30
0.0
 11
51.229500000021879
 21
47.414034147669597
 31
0.0
  0
LINE
  5
10B4
  8
2
 10
48.770500000021869
 20
41.585966040719761
 30
0.0
 11
48.770500000021883
 21
47.414033939698633
 31
0.0
  0
LINE
  5
10B5
  8
2
 10
48.500000000021878
 20
41.5
 30
0.0
 11
48.500000000021878
 21
47.500000000000007
 31
0.0
  0
LINE
  5
10BE
  8
1
 10
49.999999999871079
 20
52.000000000000007
 30
0.0
 11
50.000000000021878
 21
32.70000012589999
 31
0.0
  0
LINE
  5
10BF
  8
1
 10
39.800000000023452
 20
44.500000000000007
 30
0.0
 11
60.200000000023437
 21
44.500000000000007
 31
0.0
  0
POLYLINE
  5
10C1
  8
3
 66
     1
 10
0.0
 20
0.0
 30
0.0
 70
   128
  0
VERTEX
  5
1395
  8
3
 10
56.900000000023439
 20
48.495744466800012
 30
0.0
  0
VERTEX
  5
1396
  8
3
 10
57.03028668312345
 20
48.500000000000007
 30
0.0
  0
SEQEND
  5
1397
  8
3
  0
POLYLINE
  5
10C3
  8
3
 66
     1
 10
0.0
 20
0.0
 30
0.0
 70
   128
  0
VERTEX
  5
1398
  8
3
 10
42.968623356923437
 20
48.500000000000007
 30
0.0
  0
VERTEX
  5
1399
  8
3
 10
43.100000000023442
 20
48.495744466800012
 30
0.0
  0
SEQEND
  5
139A
  8
3
  0
LINE
  5
10C7
  8
1
 10
100.00000000002341
 20
32.70000012589999
 30
0.0
 11
100.00000000002341
 21
51.999999612599979
 31
0.0
  0
LINE
  5
10C9
  8
1
 10
108.50000000002341
 20
43.499999612599993
 30
0.0
 11
91.500000000023448
 21
43.499999612599993
 31
0.0
  0
LINE
  5
10CB
  8
1
 10
108.50000000002341
 20
44.4999996126
 30
0.0
 11
91.500000000023448
 21
44.4999996126
 31
0.0
  0
LINE
  5
10CD
  8
2
 10
47.850000000023442
 20
35.70000012589999
 30
0.0
 11
47.850000000023442
 21
38.899999999999999
 31
0.0
  0
LINE
  5
10CE
  8
2
 10
52.150000000023439
 20
35.70000012589999
 30
0.0
 11
52.150000000023439
 21
38.899999999999999
 31
0.0
  0
LINE
  5
10CF
  8
2
 10
97.850000000023456
 20
35.70000012589999
 30
0.0
 11
97.850000000023485
 21
38.437638503394119
 31
0.0
  0
LINE
  5
10D0
  8
2
 10
102.1500000000234
 20
35.70000012589999
 30
0.0
 11
102.1500000000234
 21
38.440049509442581
 31
0.0
  0
ARC
  5
10D6
  8
0
 10
58.497029012523441
 20
43.522093770300017
 30
0.0
 40
2.7471399460956771
 50
172.2499770367327
 51
179.48509124979989
  0
ARC
  5
10D8
  8
0
 10
41.497094701223453
 20
43.520771154400009
 30
0.0
 40
2.753030868211463
 50
0.5472372592998126
 51
7.7661838930103109
  0
ARC
  5
1216
  8
0
 10
50.000000000021871
 20
37.248672477392667
 30
0.0
 40
4.5081909569669483
 50
70.565580457104687
 51
109.4344195428951
  0
ENDSEC
  0
EOF
