  0
SECTION
  2
HEADER
  9
$ACADVER
  1
AC1009
  9
$INSBASE
 10
0.0
 20
0.0
 30
0.0
  9
$EXTMIN
 10
0.0
 20
-1.4802182810368341
 30
0.0
  9
$EXTMAX
 10
150.64958100000001
 20
99.635541000000003
 30
0.0
  9
$LIMMIN
 10
0.0
 20
0.0
  9
$LIMMAX
 10
187.5
 20
135.0
  9
$ORTHOMODE
 70
     1
  9
$REGENMODE
 70
     1
  9
$FILLMODE
 70
     1
  9
$QTEXTMODE
 70
     0
  9
$MIRRTEXT
 70
     0
  9
$DRAGMODE
 70
     2
  9
$LTSCALE
 40
5.0
  9
$OSMODE
 70
    55
  9
$ATTMODE
 70
     1
  9
$TEXTSIZE
 40
1.6000000000000001
  9
$TRACEWID
 40
0.05
  9
$TEXTSTYLE
  7
STANDARD
  9
$CLAYER
  8
0
  9
$CELTYPE
  6
BYLAYER
  9
$CECOLOR
 62
   256
  9
$DIMSCALE
 40
0.5
  9
$DIMASZ
 40
3.0
  9
$DIMEXO
 40
2.0
  9
$DIMDLI
 40
10.0
  9
$DIMRND
 40
0.0
  9
$DIMDLE
 40
0.0
  9
$DIMEXE
 40
2.0
  9
$DIMTP
 40
0.0
  9
$DIMTM
 40
0.0
  9
$DIMTXT
 40
3.2000000000000002
  9
$DIMCEN
 40
0.09
  9
$DIMTSZ
 40
0.0
  9
$DIMTOL
 70
     0
  9
$DIMLIM
 70
     0
  9
$DIMTIH
 70
     0
  9
$DIMTOH
 70
     0
  9
$DIMSE1
 70
     0
  9
$DIMSE2
 70
     0
  9
$DIMTAD
 70
     1
  9
$DIMZIN
 70
     0
  9
$DIMBLK
  1

  9
$DIMASO
 70
     0
  9
$DIMSHO
 70
     0
  9
$DIMPOST
  1

  9
$DIMAPOST
  1

  9
$DIMALT
 70
     0
  9
$DIMALTD
 70
     2
  9
$DIMALTF
 40
25.399999999999999
  9
$DIMLFAC
 40
1.0
  9
$DIMTOFL
 70
     1
  9
$DIMTVP
 40
1.6000000000000001
  9
$DIMTIX
 70
     1
  9
$DIMSOXD
 70
     0
  9
$DIMSAH
 70
     0
  9
$DIMBLK1
  1

  9
$DIMBLK2
  1

  9
$DIMSTYLE
  2
STANDARD
  9
$DIMCLRD
 70
     0
  9
$DIMCLRE
 70
     0
  9
$DIMCLRT
 70
     0
  9
$DIMTFAC
 40
1.0
  9
$DIMGAP
 40
0.09
  9
$LUNITS
 70
     2
  9
$LUPREC
 70
     4
  9
$SKETCHINC
 40
0.1
  9
$FILLETRAD
 40
0.0
  9
$AUNITS
 70
     0
  9
$AUPREC
 70
     0
  9
$MENU
  1
E:\r13\win\SUPPORT\ACAD
  9
$ELEVATION
 40
0.0
  9
$PELEVATION
 40
0.0
  9
$THICKNESS
 40
0.0
  9
$LIMCHECK
 70
     0
  9
$BLIPMODE
 70
     0
  9
$CHAMFERA
 40
0.0
  9
$CHAMFERB
 40
0.0
  9
$SKPOLY
 70
     0
  9
$TDCREATE
 40
2449840.5946875
  9
$TDUPDATE
 40
2456598.6921847458
  9
$TDINDWG
 40
0.0003600463
  9
$TDUSRTIMER
 40
0.0003600463
  9
$USRTIMER
 70
     1
  9
$ANGBASE
 50
0.0
  9
$ANGDIR
 70
     0
  9
$PDMODE
 70
     0
  9
$PDSIZE
 40
0.0
  9
$PLINEWID
 40
0.0
  9
$COORDS
 70
     1
  9
$SPLFRAME
 70
     0
  9
$SPLINETYPE
 70
     6
  9
$SPLINESEGS
 70
     8
  9
$ATTDIA
 70
     0
  9
$ATTREQ
 70
     1
  9
$HANDLING
 70
     1
  9
$HANDSEED
  5
261
  9
$SURFTAB1
 70
     6
  9
$SURFTAB2
 70
     6
  9
$SURFTYPE
 70
     6
  9
$SURFU
 70
     6
  9
$SURFV
 70
     6
  9
$UCSNAME
  2

  9
$UCSORG
 10
0.0
 20
0.0
 30
0.0
  9
$UCSXDIR
 10
1.0
 20
0.0
 30
0.0
  9
$UCSYDIR
 10
0.0
 20
1.0
 30
0.0
  9
$PUCSNAME
  2

  9
$PUCSORG
 10
0.0
 20
0.0
 30
0.0
  9
$PUCSXDIR
 10
1.0
 20
0.0
 30
0.0
  9
$PUCSYDIR
 10
0.0
 20
1.0
 30
0.0
  9
$USERI1
 70
     0
  9
$USERI2
 70
     1
  9
$USERI3
 70
     0
  9
$USERI4
 70
     0
  9
$USERI5
 70
     0
  9
$USERR1
 40
0.0
  9
$USERR2
 40
0.0
  9
$USERR3
 40
0.0
  9
$USERR4
 40
0.0
  9
$USERR5
 40
0.0
  9
$WORLDVIEW
 70
     1
  9
$SHADEDGE
 70
     3
  9
$SHADEDIF
 70
    70
  9
$TILEMODE
 70
     1
  9
$MAXACTVP
 70
    16
  9
$PLIMCHECK
 70
     0
  9
$PEXTMIN
 10
1.0000000000000000E+020
 20
1.0000000000000000E+020
 30
1.0000000000000000E+020
  9
$PEXTMAX
 10
-1.0000000000000000E+020
 20
-1.0000000000000000E+020
 30
-1.0000000000000000E+020
  9
$PLIMMIN
 10
0.0
 20
0.0
  9
$PLIMMAX
 10
12.0
 20
9.0
  9
$UNITMODE
 70
     0
  9
$VISRETAIN
 70
     0
  9
$PLINEGEN
 70
     0
  9
$PSLTSCALE
 70
     0
  0
ENDSEC
  0
SECTION
  2
TABLES
  0
TABLE
  2
VPORT
 70
     1
  0
VPORT
  2
*ACTIVE
 70
     0
 10
0.0
 20
0.0
 11
1.0
 21
1.0
 12
93.74713919532617
 22
87.458386271734256
 13
0.0
 23
0.0
 14
5.0
 24
5.0
 15
5.0
 25
5.0
 16
0.0
 26
0.0
 36
1.0
 17
0.0
 27
0.0
 37
0.0
 40
179.46013949787169
 41
1.7807262569832401
 42
50.0
 43
0.0
 44
0.0
 50
0.0
 51
0.0
 71
     0
 72
   100
 73
     1
 74
     0
 75
     0
 76
     0
 77
     0
 78
     0
  0
ENDTAB
  0
TABLE
  2
LTYPE
 70
     4
  0
LTYPE
  2
CONTINUOUS
 70
     0
  3
Solid Line
 72
    65
 73
     0
 40
0.0
  0
LTYPE
  2
CENTER
 70
     0
  3
____ _ ____ _ ____ _ ____ _ ____ _ ____ _ ____
 72
    65
 73
     4
 40
2.0
 49
1.25
 49
-0.25
 49
0.25
 49
-0.25
  0
LTYPE
  2
HIDDEN
 70
     0
  3
_ _ _ _ _ _ _ _ _ _ _ _ _ _ _ _ _ _ _ _ _ _ _
 72
    65
 73
     2
 40
0.375
 49
0.25
 49
-0.125
  0
LTYPE
  2
PHANTOM2
 70
     0
  3
___ _ _ ___ _ _ ___ _ _ ___ _ _
 72
    65
 73
     6
 40
1.25
 49
0.625
 49
-0.125
 49
0.125
 49
-0.125
 49
0.125
 49
-0.125
  0
ENDTAB
  0
TABLE
  2
LAYER
 70
     4
  0
LAYER
  2
0
 70
     0
 62
     7
  6
CONTINUOUS
  0
LAYER
  2
1
 70
     0
 62
     1
  6
CENTER
  0
LAYER
  2
2
 70
     0
 62
     2
  6
HIDDEN
  0
LAYER
  2
3
 70
     0
 62
     3
  6
CONTINUOUS
  0
ENDTAB
  0
TABLE
  2
STYLE
 70
     2
  0
STYLE
  2
STANDARD
 70
     0
 40
0.0
 41
1.0
 50
0.0
 71
     0
 42
1.6000000000000001
  3
TXT
  4
BIGFONT
  0
STYLE
  2
STANDARD1
 70
     0
 40
0.0
 41
1.0
 50
0.0
 71
     0
 42
3.0
  3
txt
  4

  0
ENDTAB
  0
TABLE
  2
VIEW
 70
     1
  0
VIEW
  2
ALL
 70
     0
 40
135.0
 10
110.49579799999999
 20
67.5
 41
0.0
 11
0.0
 21
0.0
 31
1.0
 12
0.0
 22
0.0
 32
0.0
 42
0.0
 43
0.0
 44
0.0
 50
0.0
 71
     0
  0
ENDTAB
  0
TABLE
  2
UCS
 70
     0
  0
ENDTAB
  0
TABLE
  2
APPID
 70
     3
  0
APPID
  2
ACAD
 70
     0
  0
APPID
  2
ACAD_MLEADERVER
 70
     0
  0
APPID
  2
ACAD_NAV_VCDISPLAY
 70
     0
  0
ENDTAB
  0
TABLE
  2
DIMSTYLE
 70
     1
  0
DIMSTYLE
  2
STANDARD
 70
     0
  3

  4

  5

  6

  7

 40
1.0
 41
0.18
 42
0.0625
 43
0.38
 44
0.18
 45
0.0
 46
0.0
 47
0.0
 48
0.0
140
0.18
141
0.09
142
0.0
143
25.399999999999999
144
1.0
145
0.0
146
1.0
147
0.09
 71
     0
 72
     0
 73
     1
 74
     1
 75
     0
 76
     0
 77
     0
 78
     0
170
     0
171
     2
172
     0
173
     0
174
     0
175
     0
176
     0
177
     0
178
     0
  0
ENDTAB
  0
ENDSEC
  0
SECTION
  2
BLOCKS
  0
BLOCK
  8
0
  2
$MODEL_SPACE
 70
     0
 10
0.0
 20
0.0
 30
0.0
  3
$MODEL_SPACE
  1

  0
ENDBLK
  5
113
  8
0
  0
BLOCK
 67
     1
  8
0
  2
$PAPER_SPACE
 70
     0
 10
0.0
 20
0.0
 30
0.0
  3
$PAPER_SPACE
  1

  0
ENDBLK
  5
111
 67
     1
  8
0
  0
ENDSEC
  0
SECTION
  2
ENTITIES
  0
LINE
  5
36
  8
1
 10
42.794314999999997
 20
75.621131000000005
 30
0.0
 11
42.794314999999997
 21
54.621130999999998
 31
0.0
  0
LINE
  5
37
  8
1
 10
32.294314999999997
 20
65.121131000000005
 30
0.0
 11
53.294314999999997
 21
65.121131000000005
 31
0.0
  0
LINE
  5
38
  8
0
 10
110.0
 20
72.321131000000008
 30
0.0
 11
110.0
 21
57.921131000000003
 31
0.0
  0
LINE
  5
39
  8
1
 10
67.5
 20
65.121131000000005
 30
0.0
 11
112.5
 21
65.121131000000005
 31
0.0
  0
LINE
  5
3A
  8
2
 10
102.0
 20
68.585233000000002
 30
0.0
 11
102.0
 21
61.657029000000001
 31
0.0
  0
LINE
  5
3B
  8
0
 10
70.0
 20
62.073130999999997
 30
0.0
 11
71.524000000000001
 21
63.597130999999997
 31
0.0
  0
LINE
  5
3C
  8
0
 10
71.524000000000001
 20
63.597130999999997
 30
0.0
 11
70.0
 21
65.121131000000005
 31
0.0
  0
LINE
  5
3D
  8
0
 10
71.524000000000001
 20
60.549131000000003
 30
0.0
 11
70.0
 21
62.073130999999997
 31
0.0
  0
LINE
  5
3E
  8
0
 10
70.0
 20
59.025131000000009
 30
0.0
 11
71.524000000000001
 21
60.549131000000003
 31
0.0
  0
LINE
  5
3F
  8
0
 10
71.524000000000001
 20
66.645131000000006
 30
0.0
 11
70.0
 21
68.169130999999993
 31
0.0
  0
LINE
  5
40
  8
0
 10
70.0
 20
65.121131000000005
 30
0.0
 11
71.524000000000001
 21
66.645131000000006
 31
0.0
  0
LINE
  5
41
  8
0
 10
70.0
 20
68.169130999999993
 30
0.0
 11
71.427999999999997
 21
69.597131000000005
 31
0.0
  0
LINE
  5
42
  8
0
 10
71.903999999999996
 20
57.121130999999998
 30
0.0
 11
70.0
 21
59.025131000000009
 31
0.0
  0
LINE
  5
43
  8
2
 10
102.0
 20
61.657029000000001
 30
0.0
 11
100.0
 21
65.121131000000005
 31
0.0
  0
LINE
  5
44
  8
2
 10
110.0
 20
63.38908
 30
0.0
 11
102.0
 21
63.38908
 31
0.0
  0
LINE
  5
45
  8
2
 10
110.0
 20
61.657029000000001
 30
0.0
 11
102.0
 21
61.657029000000001
 31
0.0
  0
CIRCLE
  5
46
  8
0
 10
42.794314999999997
 20
65.121131000000005
 30
0.0
 40
8.0
  0
CIRCLE
  5
47
  8
3
 10
42.794314999999997
 20
65.121131000000005
 30
0.0
 40
6.9175000000000004
  0
CIRCLE
  5
48
  8
3
 10
140.14958100000001
 20
65.121131000000005
 30
0.0
 40
6.9175000000000004
  0
CIRCLE
  5
49
  8
0
 10
140.14958100000001
 20
65.121131000000005
 30
0.0
 40
8.0
  0
LINE
  5
4A
  8
1
 10
129.64958100000001
 20
65.121131000000005
 30
0.0
 11
150.64958100000001
 21
65.121131000000005
 31
0.0
  0
LINE
  5
4B
  8
1
 10
140.14958100000001
 20
75.621131000000005
 30
0.0
 11
140.14958100000001
 21
54.621130999999998
 31
0.0
  0
LINE
  5
4C
  8
0
 10
109.2
 20
73.121131000000005
 30
0.0
 11
71.903999999999996
 21
73.121131000000005
 31
0.0
  0
LINE
  5
4D
  8
3
 10
110.0
 20
72.038631000000009
 30
0.0
 11
70.8215
 21
72.038631000000009
 31
0.0
  0
LINE
  5
4E
  8
3
 10
110.0
 20
58.203631000000009
 30
0.0
 11
70.8215
 21
58.203631000000009
 31
0.0
  0
LINE
  5
4F
  8
0
 10
109.2
 20
57.121130999999998
 30
0.0
 11
71.903999999999996
 21
57.121130999999998
 31
0.0
  0
LINE
  5
50
  8
0
 10
70.0
 20
71.217130999999995
 30
0.0
 11
71.903999999999996
 21
73.121131000000005
 31
0.0
  0
LINE
  5
51
  8
0
 10
71.524000000000001
 20
69.693130999999994
 30
0.0
 11
70.0
 21
71.217130999999995
 31
0.0
  0
LINE
  5
52
  8
3
 10
49.369999999999997
 20
69.677486000000002
 30
0.0
 11
36.218629999999997
 21
69.677486000000002
 31
0.0
  0
LINE
  5
53
  8
3
 10
50.647812999999992
 20
66.645131000000006
 30
0.0
 11
34.940818
 21
66.645131000000006
 31
0.0
  0
LINE
  5
54
  8
3
 10
45.326405999999992
 20
72.709840999999983
 30
0.0
 11
40.262223999999989
 21
72.709840999999983
 31
0.0
  0
LINE
  5
55
  8
3
 10
35.205604999999998
 20
67.653221999999985
 30
0.0
 11
35.205604999999998
 21
62.589040000000011
 31
0.0
  0
LINE
  5
56
  8
3
 10
38.237960000000001
 20
71.696815999999998
 30
0.0
 11
38.237960000000001
 21
58.545445999999998
 31
0.0
  0
LINE
  5
57
  8
3
 10
41.270314999999997
 20
72.974629000000007
 30
0.0
 11
41.270314999999997
 21
57.267633999999987
 31
0.0
  0
LINE
  5
58
  8
3
 10
34.940818
 20
63.597130999999997
 30
0.0
 11
50.647812999999992
 21
63.597130999999997
 31
0.0
  0
LINE
  5
59
  8
3
 10
36.218629999999997
 20
60.564776000000002
 30
0.0
 11
49.369999999999997
 21
60.564776000000002
 31
0.0
  0
LINE
  5
5A
  8
3
 10
40.262223999999989
 20
57.532420999999999
 30
0.0
 11
45.326405999999992
 21
57.532420999999999
 31
0.0
  0
LINE
  5
5B
  8
3
 10
44.318314999999998
 20
57.267633999999987
 30
0.0
 11
44.318314999999998
 21
72.974629000000007
 31
0.0
  0
LINE
  5
5C
  8
3
 10
47.350669999999987
 20
58.545445999999998
 30
0.0
 11
47.350669999999987
 21
71.696815999999998
 31
0.0
  0
LINE
  5
5D
  8
3
 10
50.383025000000004
 20
62.589040000000011
 30
0.0
 11
50.383025000000004
 21
67.653221999999985
 31
0.0
  0
LINE
  5
5E
  8
3
 10
41.590516000000001
 20
73.030042000000009
 30
0.0
 11
34.885404000000001
 21
66.324930000000009
 31
0.0
  0
LINE
  5
5F
  8
3
 10
46.718013999999997
 20
72.092830000000006
 30
0.0
 11
35.822615999999996
 21
61.197431999999992
 31
0.0
  0
LINE
  5
60
  8
3
 10
49.766013999999991
 20
69.044830000000005
 30
0.0
 11
38.870615999999998
 21
58.149431999999997
 31
0.0
  0
LINE
  5
61
  8
3
 10
50.703226000000001
 20
63.917332000000002
 30
0.0
 11
43.998113999999987
 21
57.212220000000002
 31
0.0
  0
LINE
  5
62
  8
3
 10
44.524600999999997
 20
72.931771999999995
 30
0.0
 11
34.983674000000001
 21
63.390844999999999
 31
0.0
  0
LINE
  5
63
  8
3
 10
48.451169
 20
70.777985000000001
 30
0.0
 11
37.137461000000002
 21
59.464277000000003
 31
0.0
  0
LINE
  5
64
  8
3
 10
50.602109999999989
 20
66.864215999999999
 30
0.0
 11
41.05122999999999
 21
57.313336999999997
 31
0.0
  0
LINE
  5
65
  8
3
 10
43.998113999999987
 20
73.030042000000009
 30
0.0
 11
50.703226000000001
 21
66.324930000000009
 31
0.0
  0
LINE
  5
66
  8
3
 10
41.064028999999991
 20
72.931771999999995
 30
0.0
 11
50.604956000000001
 21
63.390844999999999
 31
0.0
  0
LINE
  5
67
  8
3
 10
38.870615999999998
 20
72.092830000000006
 30
0.0
 11
49.766013999999991
 21
61.197431999999992
 31
0.0
  0
LINE
  5
68
  8
3
 10
37.137461000000002
 20
70.777985000000001
 30
0.0
 11
48.451169
 21
59.464277000000003
 31
0.0
  0
LINE
  5
69
  8
3
 10
35.822615999999996
 20
69.044830000000005
 30
0.0
 11
46.718013999999997
 21
58.149431999999997
 31
0.0
  0
LINE
  5
6A
  8
3
 10
34.98652100000001
 20
66.864215999999999
 30
0.0
 11
44.537399999999991
 21
57.313336999999997
 31
0.0
  0
LINE
  5
6B
  8
3
 10
34.885404000000001
 20
63.917332000000002
 30
0.0
 11
41.590516000000001
 21
57.212220000000002
 31
0.0
  0
LINE
  5
6C
  8
0
 10
137.14958100000001
 20
63.38908
 30
0.0
 11
140.14958100000001
 21
61.657029000000001
 31
0.0
  0
LINE
  5
6D
  8
0
 10
140.14958100000001
 20
61.657029000000001
 30
0.0
 11
143.14958100000001
 21
63.38908
 31
0.0
  0
LINE
  5
6E
  8
0
 10
143.14958100000001
 20
63.38908
 30
0.0
 11
143.14958100000001
 21
66.85318199999999
 31
0.0
  0
LINE
  5
6F
  8
0
 10
143.14958100000001
 20
66.85318199999999
 30
0.0
 11
140.14958100000001
 21
68.585233000000002
 31
0.0
  0
LINE
  5
70
  8
0
 10
140.14958100000001
 20
68.585233000000002
 30
0.0
 11
137.14958100000001
 21
66.85318199999999
 31
0.0
  0
LINE
  5
71
  8
0
 10
137.14958100000001
 20
66.85318199999999
 30
0.0
 11
137.14958100000001
 21
63.38908
 31
0.0
  0
LINE
  5
72
  8
2
 10
110.0
 20
68.585233000000002
 30
0.0
 11
102.0
 21
68.585233000000002
 31
0.0
  0
LINE
  5
73
  8
2
 10
110.0
 20
66.85318199999999
 30
0.0
 11
102.0
 21
66.85318199999999
 31
0.0
  0
LINE
  5
74
  8
2
 10
102.0
 20
68.585233000000002
 30
0.0
 11
100.0
 21
65.121131000000005
 31
0.0
  0
LINE
  5
75
  8
0
 10
109.2
 20
73.121131000000005
 30
0.0
 11
109.2
 21
57.121130999999998
 31
0.0
  0
LINE
  5
76
  8
0
 10
109.2
 20
73.121131000000005
 30
0.0
 11
110.0
 21
72.321131000000008
 31
0.0
  0
LINE
  5
77
  8
0
 10
110.0
 20
57.921131000000003
 30
0.0
 11
109.2
 21
57.121130999999998
 31
0.0
  0
LINE
  5
78
  8
0
 10
110.0
 20
30.183606000000001
 30
0.0
 11
109.2
 21
29.383606
 31
0.0
  0
LINE
  5
79
  8
0
 10
109.2
 20
45.383605999999993
 30
0.0
 11
110.0
 21
44.583606000000003
 31
0.0
  0
LINE
  5
7A
  8
0
 10
109.2
 20
45.383605999999993
 30
0.0
 11
109.2
 21
29.383606
 31
0.0
  0
LINE
  5
7B
  8
0
 10
71.524000000000001
 20
41.955606000000003
 30
0.0
 11
70.0
 21
43.47960599999999
 31
0.0
  0
LINE
  5
7C
  8
0
 10
70.0
 20
43.47960599999999
 30
0.0
 11
71.903999999999996
 21
45.383605999999993
 31
0.0
  0
LINE
  5
7D
  8
0
 10
109.2
 20
29.383606
 30
0.0
 11
71.903999999999996
 21
29.383606
 31
0.0
  0
LINE
  5
7E
  8
3
 10
110.0
 20
30.466106
 30
0.0
 11
70.8215
 21
30.466106
 31
0.0
  0
LINE
  5
7F
  8
3
 10
110.0
 20
44.30110599999999
 30
0.0
 11
70.8215
 21
44.30110599999999
 31
0.0
  0
LINE
  5
80
  8
0
 10
109.2
 20
45.383605999999993
 30
0.0
 11
71.903999999999996
 21
45.383605999999993
 31
0.0
  0
LINE
  5
81
  8
0
 10
71.903999999999996
 20
29.383606
 30
0.0
 11
70.0
 21
31.287606
 31
0.0
  0
LINE
  5
82
  8
0
 10
70.0
 20
40.431606000000002
 30
0.0
 11
71.427999999999997
 21
41.859605999999999
 31
0.0
  0
LINE
  5
83
  8
0
 10
70.0
 20
37.383606
 30
0.0
 11
71.524000000000001
 21
38.907606000000001
 31
0.0
  0
LINE
  5
84
  8
0
 10
71.524000000000001
 20
38.907606000000001
 30
0.0
 11
70.0
 21
40.431606000000002
 31
0.0
  0
LINE
  5
85
  8
0
 10
70.0
 20
31.287606
 30
0.0
 11
71.524000000000001
 21
32.811605999999998
 31
0.0
  0
LINE
  5
86
  8
0
 10
71.524000000000001
 20
32.811605999999998
 30
0.0
 11
70.0
 21
34.335605999999999
 31
0.0
  0
LINE
  5
87
  8
0
 10
71.524000000000001
 20
35.859605999999999
 30
0.0
 11
70.0
 21
37.383606
 31
0.0
  0
LINE
  5
88
  8
0
 10
70.0
 20
34.335605999999999
 30
0.0
 11
71.524000000000001
 21
35.859605999999999
 31
0.0
  0
LINE
  5
89
  8
2
 10
102.0
 20
40.383605999999993
 30
0.0
 11
102.0
 21
34.383606
 31
0.0
  0
LINE
  5
8A
  8
1
 10
67.5
 20
37.383606
 30
0.0
 11
112.5
 21
37.383606
 31
0.0
  0
LINE
  5
8B
  8
0
 10
110.0
 20
44.583606000000003
 30
0.0
 11
110.0
 21
30.183606000000001
 31
0.0
  0
LINE
  5
8C
  8
2
 10
110.0
 20
37.383606
 30
0.0
 11
102.0
 21
37.383606
 31
0.0
  0
LINE
  5
8D
  8
2
 10
102.0
 20
34.383606
 30
0.0
 11
110.0
 21
34.383606
 31
0.0
  0
LINE
  5
8E
  8
2
 10
102.0
 20
40.383605999999993
 30
0.0
 11
110.0
 21
40.383605999999993
 31
0.0
  0
LINE
  5
8F
  8
2
 10
102.0
 20
34.383606
 30
0.0
 11
100.0
 21
37.383606
 31
0.0
  0
LINE
  5
90
  8
2
 10
102.0
 20
40.383605999999993
 30
0.0
 11
100.0
 21
37.383606
 31
0.0
  0
LINE
  5
91
  8
2
 10
102.0
 20
94.635541000000003
 30
0.0
 11
100.0
 21
91.635541000000003
 31
0.0
  0
LINE
  5
92
  8
2
 10
102.0
 20
88.635540999999989
 30
0.0
 11
100.0
 21
91.635541000000003
 31
0.0
  0
LINE
  5
93
  8
2
 10
102.0
 20
94.635541000000003
 30
0.0
 11
110.0
 21
94.635541000000003
 31
0.0
  0
LINE
  5
94
  8
2
 10
102.0
 20
88.635540999999989
 30
0.0
 11
110.0
 21
88.635540999999989
 31
0.0
  0
LINE
  5
95
  8
2
 10
110.0
 20
91.635541000000003
 30
0.0
 11
102.0
 21
91.635541000000003
 31
0.0
  0
LINE
  5
96
  8
0
 10
110.0
 20
98.835541000000006
 30
0.0
 11
110.0
 21
84.435541000000001
 31
0.0
  0
LINE
  5
97
  8
1
 10
67.5
 20
91.635541000000003
 30
0.0
 11
112.5
 21
91.635541000000003
 31
0.0
  0
LINE
  5
98
  8
2
 10
102.0
 20
94.635541000000003
 30
0.0
 11
102.0
 21
88.635540999999989
 31
0.0
  0
LINE
  5
99
  8
0
 10
70.0
 20
88.587541000000002
 30
0.0
 11
71.524000000000001
 21
90.111541000000003
 31
0.0
  0
LINE
  5
9A
  8
0
 10
71.524000000000001
 20
90.111541000000003
 30
0.0
 11
70.0
 21
91.635541000000003
 31
0.0
  0
LINE
  5
9B
  8
0
 10
71.524000000000001
 20
87.063541000000001
 30
0.0
 11
70.0
 21
88.587541000000002
 31
0.0
  0
LINE
  5
9C
  8
0
 10
70.0
 20
85.539541
 30
0.0
 11
71.524000000000001
 21
87.063541000000001
 31
0.0
  0
LINE
  5
9D
  8
0
 10
71.524000000000001
 20
93.159541000000004
 30
0.0
 11
70.0
 21
94.683541000000005
 31
0.0
  0
LINE
  5
9E
  8
0
 10
70.0
 20
91.635541000000003
 30
0.0
 11
71.524000000000001
 21
93.159541000000004
 31
0.0
  0
LINE
  5
9F
  8
0
 10
70.0
 20
94.683541000000005
 30
0.0
 11
71.427999999999997
 21
96.111541000000003
 31
0.0
  0
LINE
  5
A0
  8
0
 10
71.903999999999996
 20
83.635540999999989
 30
0.0
 11
70.0
 21
85.539541
 31
0.0
  0
LINE
  5
A1
  8
0
 10
109.2
 20
99.635541000000003
 30
0.0
 11
71.903999999999996
 21
99.635541000000003
 31
0.0
  0
LINE
  5
A2
  8
3
 10
110.0
 20
98.553041000000007
 30
0.0
 11
70.8215
 21
98.553041000000007
 31
0.0
  0
LINE
  5
A3
  8
3
 10
110.0
 20
84.718040999999985
 30
0.0
 11
70.8215
 21
84.718040999999985
 31
0.0
  0
LINE
  5
A4
  8
0
 10
109.2
 20
83.635540999999989
 30
0.0
 11
71.903999999999996
 21
83.635540999999989
 31
0.0
  0
LINE
  5
A5
  8
0
 10
70.0
 20
97.731541000000007
 30
0.0
 11
71.903999999999996
 21
99.635541000000003
 31
0.0
  0
LINE
  5
A6
  8
0
 10
71.524000000000001
 20
96.207541000000006
 30
0.0
 11
70.0
 21
97.731541000000007
 31
0.0
  0
LINE
  5
A7
  8
0
 10
109.2
 20
99.635541000000003
 30
0.0
 11
109.2
 21
83.635540999999989
 31
0.0
  0
LINE
  5
A8
  8
0
 10
109.2
 20
99.635541000000003
 30
0.0
 11
110.0
 21
98.835541000000006
 31
0.0
  0
LINE
  5
A9
  8
0
 10
110.0
 20
84.435541000000001
 30
0.0
 11
109.2
 21
83.635540999999989
 31
0.0
  0
TEXT
  5
1C8
  8
0
 62
     3
 10
0.0
 20
0.0
 30
0.0
 40
5.0
  1
HS-16200
  7
STANDARD1
  0
ENDSEC
  0
EOF
