  0
SECTION
  2
HEADER
  9
$ACADVER
  1
AC1009
  9
$INSBASE
 10
0.0
 20
0.0
 30
0.0
  9
$EXTMIN
 10
0.0
 20
-1.4802182810368341
 30
0.0
  9
$EXTMAX
 10
141.04835377536651
 20
98.595875000000007
 30
0.0
  9
$LIMMIN
 10
0.0
 20
0.0
  9
$LIMMAX
 10
187.5
 20
135.0
  9
$ORTHOMODE
 70
     1
  9
$REGENMODE
 70
     1
  9
$FILLMODE
 70
     1
  9
$QTEXTMODE
 70
     0
  9
$MIRRTEXT
 70
     0
  9
$DRAGMODE
 70
     2
  9
$LTSCALE
 40
5.0
  9
$OSMODE
 70
    55
  9
$ATTMODE
 70
     1
  9
$TEXTSIZE
 40
1.6000000000000001
  9
$TRACEWID
 40
0.05
  9
$TEXTSTYLE
  7
STANDARD
  9
$CLAYER
  8
0
  9
$CELTYPE
  6
BYLAYER
  9
$CECOLOR
 62
   256
  9
$DIMSCALE
 40
0.5
  9
$DIMASZ
 40
3.0
  9
$DIMEXO
 40
2.0
  9
$DIMDLI
 40
10.0
  9
$DIMRND
 40
0.0
  9
$DIMDLE
 40
0.0
  9
$DIMEXE
 40
2.0
  9
$DIMTP
 40
0.0
  9
$DIMTM
 40
0.0
  9
$DIMTXT
 40
3.2000000000000002
  9
$DIMCEN
 40
0.09
  9
$DIMTSZ
 40
0.0
  9
$DIMTOL
 70
     0
  9
$DIMLIM
 70
     0
  9
$DIMTIH
 70
     0
  9
$DIMTOH
 70
     0
  9
$DIMSE1
 70
     0
  9
$DIMSE2
 70
     0
  9
$DIMTAD
 70
     1
  9
$DIMZIN
 70
     0
  9
$DIMBLK
  1

  9
$DIMASO
 70
     0
  9
$DIMSHO
 70
     0
  9
$DIMPOST
  1

  9
$DIMAPOST
  1

  9
$DIMALT
 70
     0
  9
$DIMALTD
 70
     2
  9
$DIMALTF
 40
25.399999999999999
  9
$DIMLFAC
 40
1.0
  9
$DIMTOFL
 70
     1
  9
$DIMTVP
 40
1.6000000000000001
  9
$DIMTIX
 70
     1
  9
$DIMSOXD
 70
     0
  9
$DIMSAH
 70
     0
  9
$DIMBLK1
  1

  9
$DIMBLK2
  1

  9
$DIMSTYLE
  2
STANDARD
  9
$DIMCLRD
 70
     0
  9
$DIMCLRE
 70
     0
  9
$DIMCLRT
 70
     0
  9
$DIMTFAC
 40
1.0
  9
$DIMGAP
 40
0.09
  9
$LUNITS
 70
     2
  9
$LUPREC
 70
     4
  9
$SKETCHINC
 40
0.1
  9
$FILLETRAD
 40
0.0
  9
$AUNITS
 70
     0
  9
$AUPREC
 70
     0
  9
$MENU
  1
E:\r13\win\SUPPORT\ACAD
  9
$ELEVATION
 40
0.0
  9
$PELEVATION
 40
0.0
  9
$THICKNESS
 40
0.0
  9
$LIMCHECK
 70
     0
  9
$BLIPMODE
 70
     0
  9
$CHAMFERA
 40
0.0
  9
$CHAMFERB
 40
0.0
  9
$SKPOLY
 70
     0
  9
$TDCREATE
 40
2449840.594641204
  9
$TDUPDATE
 40
2456598.6918274299
  9
$TDINDWG
 40
0.0108530671
  9
$TDUSRTIMER
 40
0.0108530671
  9
$USRTIMER
 70
     1
  9
$ANGBASE
 50
0.0
  9
$ANGDIR
 70
     0
  9
$PDMODE
 70
     0
  9
$PDSIZE
 40
0.0
  9
$PLINEWID
 40
0.0
  9
$COORDS
 70
     1
  9
$SPLFRAME
 70
     0
  9
$SPLINETYPE
 70
     6
  9
$SPLINESEGS
 70
     8
  9
$ATTDIA
 70
     0
  9
$ATTREQ
 70
     1
  9
$HANDLING
 70
     1
  9
$HANDSEED
  5
2B1
  9
$SURFTAB1
 70
     6
  9
$SURFTAB2
 70
     6
  9
$SURFTYPE
 70
     6
  9
$SURFU
 70
     6
  9
$SURFV
 70
     6
  9
$UCSNAME
  2

  9
$UCSORG
 10
0.0
 20
0.0
 30
0.0
  9
$UCSXDIR
 10
1.0
 20
0.0
 30
0.0
  9
$UCSYDIR
 10
0.0
 20
1.0
 30
0.0
  9
$PUCSNAME
  2

  9
$PUCSORG
 10
0.0
 20
0.0
 30
0.0
  9
$PUCSXDIR
 10
1.0
 20
0.0
 30
0.0
  9
$PUCSYDIR
 10
0.0
 20
1.0
 30
0.0
  9
$USERI1
 70
     0
  9
$USERI2
 70
     1
  9
$USERI3
 70
     0
  9
$USERI4
 70
     0
  9
$USERI5
 70
     0
  9
$USERR1
 40
0.0
  9
$USERR2
 40
0.0
  9
$USERR3
 40
0.0
  9
$USERR4
 40
0.0
  9
$USERR5
 40
0.0
  9
$WORLDVIEW
 70
     1
  9
$SHADEDGE
 70
     3
  9
$SHADEDIF
 70
    70
  9
$TILEMODE
 70
     1
  9
$MAXACTVP
 70
    16
  9
$PLIMCHECK
 70
     0
  9
$PEXTMIN
 10
1.0000000000000000E+020
 20
1.0000000000000000E+020
 30
1.0000000000000000E+020
  9
$PEXTMAX
 10
-1.0000000000000000E+020
 20
-1.0000000000000000E+020
 30
-1.0000000000000000E+020
  9
$PLIMMIN
 10
0.0
 20
0.0
  9
$PLIMMAX
 10
12.0
 20
9.0
  9
$UNITMODE
 70
     0
  9
$VISRETAIN
 70
     0
  9
$PLINEGEN
 70
     0
  9
$PSLTSCALE
 70
     0
  0
ENDSEC
  0
SECTION
  2
TABLES
  0
TABLE
  2
VPORT
 70
     1
  0
VPORT
  2
*ACTIVE
 70
     0
 10
0.0
 20
0.0
 11
1.0
 21
1.0
 12
93.74713919532617
 22
87.458386271734256
 13
0.0
 23
0.0
 14
5.0
 24
5.0
 15
5.0
 25
5.0
 16
0.0
 26
0.0
 36
1.0
 17
0.0
 27
0.0
 37
0.0
 40
179.46013949787169
 41
1.7807262569832401
 42
50.0
 43
0.0
 44
0.0
 50
0.0
 51
0.0
 71
     0
 72
   100
 73
     1
 74
     0
 75
     0
 76
     0
 77
     0
 78
     0
  0
ENDTAB
  0
TABLE
  2
LTYPE
 70
     4
  0
LTYPE
  2
CONTINUOUS
 70
     0
  3
Solid Line
 72
    65
 73
     0
 40
0.0
  0
LTYPE
  2
CENTER
 70
     0
  3
____ _ ____ _ ____ _ ____ _ ____ _ ____ _ ____
 72
    65
 73
     4
 40
2.0
 49
1.25
 49
-0.25
 49
0.25
 49
-0.25
  0
LTYPE
  2
HIDDEN
 70
     0
  3
_ _ _ _ _ _ _ _ _ _ _ _ _ _ _ _ _ _ _ _ _ _ _
 72
    65
 73
     2
 40
0.375
 49
0.25
 49
-0.125
  0
LTYPE
  2
PHANTOM2
 70
     0
  3
___ _ _ ___ _ _ ___ _ _ ___ _ _
 72
    65
 73
     6
 40
1.25
 49
0.625
 49
-0.125
 49
0.125
 49
-0.125
 49
0.125
 49
-0.125
  0
ENDTAB
  0
TABLE
  2
LAYER
 70
     4
  0
LAYER
  2
0
 70
     0
 62
     7
  6
CONTINUOUS
  0
LAYER
  2
1
 70
     0
 62
     1
  6
CENTER
  0
LAYER
  2
2
 70
     0
 62
     2
  6
HIDDEN
  0
LAYER
  2
3
 70
     0
 62
     3
  6
CONTINUOUS
  0
ENDTAB
  0
TABLE
  2
STYLE
 70
     2
  0
STYLE
  2
STANDARD
 70
     0
 40
0.0
 41
1.0
 50
0.0
 71
     0
 42
1.6000000000000001
  3
TXT
  4
BIGFONT
  0
STYLE
  2
STANDARD1
 70
     0
 40
0.0
 41
1.0
 50
0.0
 71
     0
 42
3.0
  3
txt
  4

  0
ENDTAB
  0
TABLE
  2
VIEW
 70
     1
  0
VIEW
  2
ALL
 70
     0
 40
135.0
 10
110.49579799999999
 20
67.5
 41
0.0
 11
0.0
 21
0.0
 31
1.0
 12
0.0
 22
0.0
 32
0.0
 42
0.0
 43
0.0
 44
0.0
 50
0.0
 71
     0
  0
ENDTAB
  0
TABLE
  2
UCS
 70
     0
  0
ENDTAB
  0
TABLE
  2
APPID
 70
     3
  0
APPID
  2
ACAD
 70
     0
  0
APPID
  2
ACAD_MLEADERVER
 70
     0
  0
APPID
  2
ACAD_NAV_VCDISPLAY
 70
     0
  0
ENDTAB
  0
TABLE
  2
DIMSTYLE
 70
     1
  0
DIMSTYLE
  2
STANDARD
 70
     0
  3

  4

  5

  6

  7

 40
1.0
 41
0.18
 42
0.0625
 43
0.38
 44
0.18
 45
0.0
 46
0.0
 47
0.0
 48
0.0
140
0.18
141
0.09
142
0.0
143
25.399999999999999
144
1.0
145
0.0
146
1.0
147
0.09
 71
     0
 72
     0
 73
     1
 74
     1
 75
     0
 76
     0
 77
     0
 78
     0
170
     0
171
     2
172
     0
173
     0
174
     0
175
     0
176
     0
177
     0
178
     0
  0
ENDTAB
  0
ENDSEC
  0
SECTION
  2
BLOCKS
  0
BLOCK
  8
0
  2
$MODEL_SPACE
 70
     0
 10
0.0
 20
0.0
 30
0.0
  3
$MODEL_SPACE
  1

  0
ENDBLK
  5
163
  8
0
  0
BLOCK
 67
     1
  8
0
  2
$PAPER_SPACE
 70
     0
 10
0.0
 20
0.0
 30
0.0
  3
$PAPER_SPACE
  1

  0
ENDBLK
  5
161
 67
     1
  8
0
  0
BLOCK
  8
0
  2
STDGX5
 70
     0
 10
0.0
 20
0.0
 30
0.0
  3
STDGX5
  1

  0
ENDBLK
  5
40
  8
0
  0
ENDSEC
  0
SECTION
  2
ENTITIES
  0
LINE
  5
47
  8
1
 10
46.048829775366528
 20
75.034469999999999
 30
0.0
 11
46.048829775366528
 21
60.034469999999999
 31
0.0
  0
LINE
  5
48
  8
1
 10
38.548829775366542
 20
67.534469999999999
 30
0.0
 11
53.548829775366542
 21
67.534469999999999
 31
0.0
  0
CIRCLE
  5
49
  8
0
 10
46.048829775366528
 20
67.534469999999999
 30
0.0
 40
5.0
  0
CIRCLE
  5
4A
  8
3
 10
46.048829775366528
 20
67.534469999999999
 30
0.0
 40
4.1879999999999988
  0
LINE
  5
4B
  8
0
 10
102.7483537753665
 20
72.534469999999999
 30
0.0
 11
80.119353775366534
 21
72.534469999999999
 31
0.0
  0
LINE
  5
4C
  8
3
 10
103.54835377536649
 20
71.722470000000001
 30
0.0
 11
79.307353775366536
 21
71.722470000000001
 31
0.0
  0
LINE
  5
4D
  8
3
 10
103.54835377536649
 20
63.346469999999997
 30
0.0
 11
79.307353775366536
 21
63.346469999999997
 31
0.0
  0
LINE
  5
4E
  8
0
 10
102.7483537753665
 20
62.534469999999999
 30
0.0
 11
80.119353775366534
 21
62.534469999999999
 31
0.0
  0
LINE
  5
4F
  8
0
 10
103.54835377536649
 20
71.734470000000002
 30
0.0
 11
103.54835377536649
 21
63.334469999999989
 31
0.0
  0
LINE
  5
50
  8
0
 10
78.548353775366536
 20
68.67747
 30
0.0
 11
79.691353775366537
 21
67.534469999999999
 31
0.0
  0
LINE
  5
51
  8
0
 10
79.691353775366537
 20
67.534469999999999
 30
0.0
 11
78.548353775366536
 21
66.391469999999998
 31
0.0
  0
LINE
  5
52
  8
0
 10
102.7483537753665
 20
72.534469999999999
 30
0.0
 11
102.7483537753665
 21
62.534469999999999
 31
0.0
  0
LINE
  5
53
  8
0
 10
79.691353775366537
 20
69.82047
 30
0.0
 11
78.548353775366536
 21
68.67747
 31
0.0
  0
LINE
  5
54
  8
0
 10
78.548353775366536
 20
70.963470000000001
 30
0.0
 11
79.691353775366537
 21
69.82047
 31
0.0
  0
LINE
  5
55
  8
0
 10
80.119353775366534
 20
72.534469999999999
 30
0.0
 11
78.548353775366536
 21
70.963470000000001
 31
0.0
  0
LINE
  5
56
  8
0
 10
80.119353775366534
 20
62.534469999999999
 30
0.0
 11
78.548353775366536
 21
64.105469999999997
 31
0.0
  0
LINE
  5
57
  8
0
 10
78.548353775366536
 20
64.105469999999997
 30
0.0
 11
79.691353775366537
 21
65.248469999999998
 31
0.0
  0
LINE
  5
58
  8
0
 10
79.691353775366537
 20
65.248469999999998
 30
0.0
 11
78.548353775366536
 21
66.391469999999998
 31
0.0
  0
LINE
  5
59
  8
1
 10
76.048353775366536
 20
67.534469999999999
 30
0.0
 11
106.04835377536649
 21
67.534469999999999
 31
0.0
  0
CIRCLE
  5
5A
  8
3
 10
133.54835377536651
 20
67.534469999999999
 30
0.0
 40
4.1879999999999988
  0
CIRCLE
  5
5B
  8
0
 10
133.54835377536651
 20
67.534469999999999
 30
0.0
 40
5.0
  0
LINE
  5
5C
  8
1
 10
126.04835377536649
 20
67.534469999999999
 30
0.0
 11
141.04835377536651
 21
67.534469999999999
 31
0.0
  0
LINE
  5
5D
  8
1
 10
133.54835377536651
 20
75.034469999999999
 30
0.0
 11
133.54835377536651
 21
60.034469999999999
 31
0.0
  0
LINE
  5
5E
  8
2
 10
103.54835377536649
 20
66.668443999999994
 30
0.0
 11
99.548353775366536
 21
66.668443999999994
 31
0.0
  0
LINE
  5
5F
  8
2
 10
103.54835377536649
 20
65.802419
 30
0.0
 11
99.548353775366536
 21
65.802419
 31
0.0
  0
LINE
  5
60
  8
2
 10
99.548353775366536
 20
69.266520999999997
 30
0.0
 11
99.548353775366536
 21
65.802419
 31
0.0
  0
LINE
  5
61
  8
2
 10
99.548353775366536
 20
65.802419
 30
0.0
 11
98.548353775366536
 21
67.534469999999999
 31
0.0
  0
LINE
  5
62
  8
3
 10
50.49564877536654
 20
69.82047
 30
0.0
 11
41.602009775366533
 21
69.82047
 31
0.0
  0
LINE
  5
63
  8
3
 10
51.048829775366542
 20
67.534469999999999
 30
0.0
 11
41.048829775366528
 21
67.534469999999999
 31
0.0
  0
LINE
  5
64
  8
3
 10
50.49564877536654
 20
65.248469999999998
 30
0.0
 11
41.602009775366533
 21
65.248469999999998
 31
0.0
  0
LINE
  5
65
  8
3
 10
48.072888775366529
 20
72.106470000000002
 30
0.0
 11
44.024769775366529
 21
72.106470000000002
 31
0.0
  0
LINE
  5
66
  8
3
 10
48.072888775366529
 20
62.962470000000003
 30
0.0
 11
44.024769775366529
 21
62.962470000000003
 31
0.0
  0
LINE
  5
67
  8
3
 10
41.476829775366532
 20
69.558528999999993
 30
0.0
 11
41.476829775366532
 21
65.510411000000005
 31
0.0
  0
LINE
  5
68
  8
3
 10
43.762829775366527
 20
71.981289000000004
 30
0.0
 11
43.762829775366527
 21
63.087649999999996
 31
0.0
  0
LINE
  5
69
  8
3
 10
46.048829775366528
 20
72.534469999999999
 30
0.0
 11
46.048829775366528
 21
62.534469999999999
 31
0.0
  0
LINE
  5
6A
  8
3
 10
48.334829775366543
 20
71.981289000000004
 30
0.0
 11
48.334829775366543
 21
63.087649999999996
 31
0.0
  0
LINE
  5
6B
  8
3
 10
50.620829775366538
 20
69.558528999999993
 30
0.0
 11
50.620829775366538
 21
65.510411000000005
 31
0.0
  0
LINE
  5
6C
  8
3
 10
46.45990277536653
 20
72.517543000000003
 30
0.0
 11
41.06575677536653
 21
67.123396999999997
 31
0.0
  0
LINE
  5
6D
  8
3
 10
48.251505775366532
 20
72.023145999999997
 30
0.0
 11
41.560152775366532
 21
65.331793000000005
 31
0.0
  0
LINE
  5
6E
  8
3
 10
49.584363775366533
 20
71.070003999999997
 30
0.0
 11
42.513295775366537
 21
63.998936
 31
0.0
  0
LINE
  5
6F
  8
3
 10
50.53750577536654
 20
69.737145999999996
 30
0.0
 11
43.846152775366527
 21
63.045793000000003
 31
0.0
  0
LINE
  5
70
  8
3
 10
51.031902775366532
 20
67.945543000000001
 30
0.0
 11
45.63775677536654
 21
62.551396999999987
 31
0.0
  0
LINE
  5
71
  8
3
 10
43.481199775366527
 20
71.824840000000009
 30
0.0
 11
41.758458775366528
 21
70.102098999999995
 31
0.0
  0
LINE
  5
72
  8
3
 10
48.616458775366532
 20
63.244098999999999
 30
0.0
 11
50.339199775366538
 21
64.966840000000005
 31
0.0
  0
LINE
  5
73
  8
3
 10
43.481199775366527
 20
63.244098999999999
 30
0.0
 11
41.758458775366528
 21
64.966840000000005
 31
0.0
  0
LINE
  5
74
  8
3
 10
41.06575677536653
 20
67.945543000000001
 30
0.0
 11
46.45990277536653
 21
62.551396999999987
 31
0.0
  0
LINE
  5
75
  8
3
 10
41.560152775366532
 20
69.737145999999996
 30
0.0
 11
48.251505775366532
 21
63.045793000000003
 31
0.0
  0
LINE
  5
76
  8
3
 10
42.513295775366537
 20
71.070003999999997
 30
0.0
 11
49.584363775366533
 21
63.998936
 31
0.0
  0
LINE
  5
77
  8
3
 10
43.846152775366527
 20
72.023145999999997
 30
0.0
 11
50.53750577536654
 21
65.331793000000005
 31
0.0
  0
LINE
  5
78
  8
3
 10
45.63775677536654
 20
72.517543000000003
 30
0.0
 11
51.031902775366532
 21
67.123396999999997
 31
0.0
  0
LINE
  5
79
  8
3
 10
48.616458775366532
 20
71.824840000000009
 30
0.0
 11
50.339199775366538
 21
70.102098999999995
 31
0.0
  0
LINE
  5
7A
  8
0
 10
133.54835377536651
 20
69.266520999999997
 30
0.0
 11
135.04835377536651
 21
68.400494999999992
 31
0.0
  0
LINE
  5
7B
  8
0
 10
132.04835377536651
 20
68.400494999999992
 30
0.0
 11
133.54835377536651
 21
69.266520999999997
 31
0.0
  0
LINE
  5
7C
  8
0
 10
132.04835377536651
 20
66.668443999999994
 30
0.0
 11
132.04835377536651
 21
68.400494999999992
 31
0.0
  0
LINE
  5
7D
  8
0
 10
133.54835377536651
 20
65.802419
 30
0.0
 11
132.04835377536651
 21
66.668443999999994
 31
0.0
  0
LINE
  5
7E
  8
0
 10
135.04835377536651
 20
66.668443999999994
 30
0.0
 11
133.54835377536651
 21
65.802419
 31
0.0
  0
LINE
  5
7F
  8
0
 10
135.04835377536651
 20
68.400494999999992
 30
0.0
 11
135.04835377536651
 21
66.668443999999994
 31
0.0
  0
LINE
  5
80
  8
2
 10
103.54835377536649
 20
69.266520999999997
 30
0.0
 11
99.548353775366536
 21
69.266520999999997
 31
0.0
  0
LINE
  5
81
  8
2
 10
103.54835377536649
 20
68.400494999999992
 30
0.0
 11
99.548353775366536
 21
68.400494999999992
 31
0.0
  0
LINE
  5
82
  8
2
 10
99.548353775366536
 20
69.266520999999997
 30
0.0
 11
98.548353775366536
 21
67.534469999999999
 31
0.0
  0
LINE
  5
83
  8
0
 10
102.7483537753665
 20
62.534469999999999
 30
0.0
 11
103.54835377536649
 21
63.334469999999989
 31
0.0
  0
LINE
  5
84
  8
0
 10
103.54835377536649
 20
71.734470000000002
 30
0.0
 11
102.7483537753665
 21
72.534469999999999
 31
0.0
  0
LINE
  5
85
  8
0
 10
103.54835377536649
 20
46.742158000000003
 30
0.0
 11
102.7483537753665
 21
47.542157999999993
 31
0.0
  0
LINE
  5
86
  8
0
 10
102.7483537753665
 20
37.542158000000001
 30
0.0
 11
103.54835377536649
 21
38.342158000000012
 31
0.0
  0
LINE
  5
87
  8
2
 10
99.548353775366536
 20
44.042158000000001
 30
0.0
 11
99.548353775366536
 21
41.042158000000001
 31
0.0
  0
LINE
  5
88
  8
1
 10
76.048353775366536
 20
42.542157999999993
 30
0.0
 11
106.04835377536649
 21
42.542157999999993
 31
0.0
  0
LINE
  5
89
  8
0
 10
79.691353775366537
 20
40.256157999999992
 30
0.0
 11
78.548353775366536
 21
41.399157999999993
 31
0.0
  0
LINE
  5
8A
  8
0
 10
78.548353775366536
 20
39.113157999999999
 30
0.0
 11
79.691353775366537
 21
40.256157999999992
 31
0.0
  0
LINE
  5
8B
  8
0
 10
80.119353775366534
 20
37.542158000000001
 30
0.0
 11
78.548353775366536
 21
39.113157999999999
 31
0.0
  0
LINE
  5
8C
  8
0
 10
80.119353775366534
 20
47.542157999999993
 30
0.0
 11
78.548353775366536
 21
45.971158000000003
 31
0.0
  0
LINE
  5
8D
  8
0
 10
78.548353775366536
 20
45.971158000000003
 30
0.0
 11
79.691353775366537
 21
44.828158000000002
 31
0.0
  0
LINE
  5
8E
  8
0
 10
79.691353775366537
 20
44.828158000000002
 30
0.0
 11
78.548353775366536
 21
43.685157999999987
 31
0.0
  0
LINE
  5
8F
  8
0
 10
102.7483537753665
 20
47.542157999999993
 30
0.0
 11
102.7483537753665
 21
37.542158000000001
 31
0.0
  0
LINE
  5
90
  8
0
 10
79.691353775366537
 20
42.542157999999993
 30
0.0
 11
78.548353775366536
 21
41.399157999999993
 31
0.0
  0
LINE
  5
91
  8
0
 10
78.548353775366536
 20
43.685157999999987
 30
0.0
 11
79.691353775366537
 21
42.542157999999993
 31
0.0
  0
LINE
  5
92
  8
0
 10
103.54835377536649
 20
46.742158000000003
 30
0.0
 11
103.54835377536649
 21
38.342158000000012
 31
0.0
  0
LINE
  5
93
  8
0
 10
102.7483537753665
 20
37.542158000000001
 30
0.0
 11
80.119353775366534
 21
37.542158000000001
 31
0.0
  0
LINE
  5
94
  8
3
 10
103.54835377536649
 20
38.354157999999998
 30
0.0
 11
79.307353775366536
 21
38.354157999999998
 31
0.0
  0
LINE
  5
95
  8
3
 10
103.54835377536649
 20
46.730158000000003
 30
0.0
 11
79.307353775366536
 21
46.730158000000003
 31
0.0
  0
LINE
  5
96
  8
0
 10
102.7483537753665
 20
47.542157999999993
 30
0.0
 11
80.119353775366534
 21
47.542157999999993
 31
0.0
  0
LINE
  5
97
  8
2
 10
103.54835377536649
 20
42.542157999999993
 30
0.0
 11
99.548353775366536
 21
42.542157999999993
 31
0.0
  0
LINE
  5
98
  8
2
 10
99.548353775366536
 20
41.042158000000001
 30
0.0
 11
103.54835377536649
 21
41.042158000000001
 31
0.0
  0
LINE
  5
99
  8
2
 10
99.548353775366536
 20
44.042158000000001
 30
0.0
 11
103.54835377536649
 21
44.042158000000001
 31
0.0
  0
LINE
  5
9A
  8
2
 10
99.548353775366536
 20
41.042158000000001
 30
0.0
 11
98.548353775366536
 21
42.542157999999993
 31
0.0
  0
LINE
  5
9B
  8
2
 10
99.548353775366536
 20
44.042158000000001
 30
0.0
 11
98.548353775366536
 21
42.542157999999993
 31
0.0
  0
LINE
  5
9C
  8
2
 10
99.548353775366536
 20
95.095875000000007
 30
0.0
 11
98.548353775366536
 21
93.595875000000007
 31
0.0
  0
LINE
  5
9D
  8
2
 10
99.548353775366536
 20
92.095875000000007
 30
0.0
 11
98.548353775366536
 21
93.595875000000007
 31
0.0
  0
LINE
  5
9E
  8
2
 10
99.548353775366536
 20
95.095875000000007
 30
0.0
 11
103.54835377536649
 21
95.095875000000007
 31
0.0
  0
LINE
  5
9F
  8
2
 10
99.548353775366536
 20
92.095875000000007
 30
0.0
 11
103.54835377536649
 21
92.095875000000007
 31
0.0
  0
LINE
  5
A0
  8
2
 10
103.54835377536649
 20
93.595875000000007
 30
0.0
 11
99.548353775366536
 21
93.595875000000007
 31
0.0
  0
LINE
  5
A1
  8
0
 10
102.7483537753665
 20
98.595875000000007
 30
0.0
 11
80.119353775366534
 21
98.595875000000007
 31
0.0
  0
LINE
  5
A2
  8
3
 10
103.54835377536649
 20
97.783874999999995
 30
0.0
 11
79.307353775366536
 21
97.783874999999995
 31
0.0
  0
LINE
  5
A3
  8
3
 10
103.54835377536649
 20
89.407875000000004
 30
0.0
 11
79.307353775366536
 21
89.407875000000004
 31
0.0
  0
LINE
  5
A4
  8
0
 10
102.7483537753665
 20
88.595875000000007
 30
0.0
 11
80.119353775366534
 21
88.595875000000007
 31
0.0
  0
LINE
  5
A5
  8
0
 10
103.54835377536649
 20
97.795874999999995
 30
0.0
 11
103.54835377536649
 21
89.395875000000004
 31
0.0
  0
LINE
  5
A6
  8
0
 10
78.548353775366536
 20
94.738874999999993
 30
0.0
 11
79.691353775366537
 21
93.595875000000007
 31
0.0
  0
LINE
  5
A7
  8
0
 10
79.691353775366537
 20
93.595875000000007
 30
0.0
 11
78.548353775366536
 21
92.452875000000006
 31
0.0
  0
LINE
  5
A8
  8
0
 10
102.7483537753665
 20
98.595875000000007
 30
0.0
 11
102.7483537753665
 21
88.595875000000007
 31
0.0
  0
LINE
  5
A9
  8
0
 10
79.691353775366537
 20
95.881874999999994
 30
0.0
 11
78.548353775366536
 21
94.738874999999993
 31
0.0
  0
LINE
  5
AA
  8
0
 10
78.548353775366536
 20
97.024874999999994
 30
0.0
 11
79.691353775366537
 21
95.881874999999994
 31
0.0
  0
LINE
  5
AB
  8
0
 10
80.119353775366534
 20
98.595875000000007
 30
0.0
 11
78.548353775366536
 21
97.024874999999994
 31
0.0
  0
LINE
  5
AC
  8
0
 10
80.119353775366534
 20
88.595875000000007
 30
0.0
 11
78.548353775366536
 21
90.166875000000005
 31
0.0
  0
LINE
  5
AD
  8
0
 10
78.548353775366536
 20
90.166875000000005
 30
0.0
 11
79.691353775366537
 21
91.309875000000005
 31
0.0
  0
LINE
  5
AE
  8
0
 10
79.691353775366537
 20
91.309875000000005
 30
0.0
 11
78.548353775366536
 21
92.452875000000006
 31
0.0
  0
LINE
  5
AF
  8
1
 10
76.048353775366536
 20
93.595875000000007
 30
0.0
 11
106.04835377536649
 21
93.595875000000007
 31
0.0
  0
LINE
  5
B0
  8
2
 10
99.548353775366536
 20
95.095875000000007
 30
0.0
 11
99.548353775366536
 21
92.095875000000007
 31
0.0
  0
LINE
  5
B1
  8
0
 10
102.7483537753665
 20
88.595875000000007
 30
0.0
 11
103.54835377536649
 21
89.395875000000004
 31
0.0
  0
LINE
  5
B2
  8
0
 10
103.54835377536649
 20
97.795874999999995
 30
0.0
 11
102.7483537753665
 21
98.595875000000007
 31
0.0
  0
INSERT
  5
BC
  8
0
  2
STDGX5
 10
0.0
 20
0.0
 30
0.0
  0
TEXT
  5
218
  8
0
 62
     3
 10
0.0
 20
0.0
 30
0.0
 40
5.0
  1
HS-10150X25
  7
STANDARD1
  0
ENDSEC
  0
EOF
