  0
SECTION
  2
HEADER
  9
$ACADVER
  1
AC1009
  9
$INSBASE
 10
0.0
 20
0.0
 30
0.0
  9
$EXTMIN
 10
0.0
 20
-2.960436562073669
 30
0.0
  9
$EXTMAX
 10
234.68867317180241
 20
98.773881972815687
 30
0.0
  9
$LIMMIN
 10
0.0
 20
0.0
  9
$LIMMAX
 10
375.0
 20
270.0
  9
$ORTHOMODE
 70
     1
  9
$REGENMODE
 70
     1
  9
$FILLMODE
 70
     1
  9
$QTEXTMODE
 70
     0
  9
$MIRRTEXT
 70
     0
  9
$DRAGMODE
 70
     2
  9
$LTSCALE
 40
10.0
  9
$OSMODE
 70
    55
  9
$ATTMODE
 70
     1
  9
$TEXTSIZE
 40
2.0
  9
$TRACEWID
 40
0.05
  9
$TEXTSTYLE
  7
STANDARD
  9
$CLAYER
  8
0
  9
$CELTYPE
  6
BYLAYER
  9
$CECOLOR
 62
   256
  9
$DIMSCALE
 40
1.0
  9
$DIMASZ
 40
0.18
  9
$DIMEXO
 40
0.0625
  9
$DIMDLI
 40
0.38
  9
$DIMRND
 40
0.0
  9
$DIMDLE
 40
0.0
  9
$DIMEXE
 40
0.18
  9
$DIMTP
 40
0.0
  9
$DIMTM
 40
0.0
  9
$DIMTXT
 40
0.18
  9
$DIMCEN
 40
0.09
  9
$DIMTSZ
 40
0.0
  9
$DIMTOL
 70
     0
  9
$DIMLIM
 70
     0
  9
$DIMTIH
 70
     1
  9
$DIMTOH
 70
     1
  9
$DIMSE1
 70
     0
  9
$DIMSE2
 70
     0
  9
$DIMTAD
 70
     0
  9
$DIMZIN
 70
     0
  9
$DIMBLK
  1

  9
$DIMASO
 70
     1
  9
$DIMSHO
 70
     0
  9
$DIMPOST
  1

  9
$DIMAPOST
  1

  9
$DIMALT
 70
     0
  9
$DIMALTD
 70
     2
  9
$DIMALTF
 40
25.399999999999999
  9
$DIMLFAC
 40
1.0
  9
$DIMTOFL
 70
     0
  9
$DIMTVP
 40
0.0
  9
$DIMTIX
 70
     0
  9
$DIMSOXD
 70
     0
  9
$DIMSAH
 70
     0
  9
$DIMBLK1
  1

  9
$DIMBLK2
  1

  9
$DIMSTYLE
  2
STANDARD
  9
$DIMCLRD
 70
     0
  9
$DIMCLRE
 70
     0
  9
$DIMCLRT
 70
     0
  9
$DIMTFAC
 40
1.0
  9
$DIMGAP
 40
0.09
  9
$LUNITS
 70
     2
  9
$LUPREC
 70
     4
  9
$SKETCHINC
 40
0.1
  9
$FILLETRAD
 40
2.5
  9
$AUNITS
 70
     0
  9
$AUPREC
 70
     0
  9
$MENU
  1
E:\r13\win\SUPPORT\ACAD
  9
$ELEVATION
 40
0.0
  9
$PELEVATION
 40
0.0
  9
$THICKNESS
 40
0.0
  9
$LIMCHECK
 70
     0
  9
$BLIPMODE
 70
     0
  9
$CHAMFERA
 40
0.0
  9
$CHAMFERB
 40
0.0
  9
$SKPOLY
 70
     0
  9
$TDCREATE
 40
2448650.5678784722
  9
$TDUPDATE
 40
2456598.6884504282
  9
$TDINDWG
 40
0.030998669
  9
$TDUSRTIMER
 40
0.030998669
  9
$USRTIMER
 70
     1
  9
$ANGBASE
 50
0.0
  9
$ANGDIR
 70
     0
  9
$PDMODE
 70
     0
  9
$PDSIZE
 40
0.0
  9
$PLINEWID
 40
0.0
  9
$COORDS
 70
     1
  9
$SPLFRAME
 70
     0
  9
$SPLINETYPE
 70
     6
  9
$SPLINESEGS
 70
     8
  9
$ATTDIA
 70
     0
  9
$ATTREQ
 70
     1
  9
$HANDLING
 70
     1
  9
$HANDSEED
  5
131A
  9
$SURFTAB1
 70
     6
  9
$SURFTAB2
 70
     6
  9
$SURFTYPE
 70
     6
  9
$SURFU
 70
     6
  9
$SURFV
 70
     6
  9
$UCSNAME
  2

  9
$UCSORG
 10
0.0
 20
0.0
 30
0.0
  9
$UCSXDIR
 10
1.0
 20
0.0
 30
0.0
  9
$UCSYDIR
 10
0.0
 20
1.0
 30
0.0
  9
$PUCSNAME
  2

  9
$PUCSORG
 10
0.0
 20
0.0
 30
0.0
  9
$PUCSXDIR
 10
1.0
 20
0.0
 30
0.0
  9
$PUCSYDIR
 10
0.0
 20
1.0
 30
0.0
  9
$USERI1
 70
     0
  9
$USERI2
 70
     1
  9
$USERI3
 70
     1
  9
$USERI4
 70
     0
  9
$USERI5
 70
     0
  9
$USERR1
 40
0.0
  9
$USERR2
 40
0.0
  9
$USERR3
 40
0.0
  9
$USERR4
 40
0.0
  9
$USERR5
 40
0.0
  9
$WORLDVIEW
 70
     1
  9
$SHADEDGE
 70
     3
  9
$SHADEDIF
 70
    70
  9
$TILEMODE
 70
     1
  9
$MAXACTVP
 70
    16
  9
$PLIMCHECK
 70
     0
  9
$PEXTMIN
 10
1.0000000000000000E+020
 20
1.0000000000000000E+020
 30
1.0000000000000000E+020
  9
$PEXTMAX
 10
-1.0000000000000000E+020
 20
-1.0000000000000000E+020
 30
-1.0000000000000000E+020
  9
$PLIMMIN
 10
0.0
 20
0.0
  9
$PLIMMAX
 10
12.0
 20
9.0
  9
$UNITMODE
 70
     0
  9
$VISRETAIN
 70
     0
  9
$PLINEGEN
 70
     1
  9
$PSLTSCALE
 70
     0
  0
ENDSEC
  0
SECTION
  2
TABLES
  0
TABLE
  2
VPORT
 70
     1
  0
VPORT
  2
*ACTIVE
 70
     0
 10
0.0
 20
0.0
 11
1.0
 21
1.0
 12
187.49427839065231
 22
174.91677254346851
 13
0.0
 23
0.0
 14
10.0
 24
10.0
 15
10.0
 25
10.0
 16
0.0
 26
0.0
 36
1.0
 17
0.0
 27
0.0
 37
0.0
 40
358.92027899574339
 41
1.7807262569832401
 42
50.0
 43
0.0
 44
0.0
 50
0.0
 51
0.0
 71
     0
 72
   500
 73
     1
 74
     0
 75
     0
 76
     0
 77
     0
 78
     2
  0
ENDTAB
  0
TABLE
  2
LTYPE
 70
     4
  0
LTYPE
  2
CONTINUOUS
 70
     0
  3
Solid Line
 72
    65
 73
     0
 40
0.0
  0
LTYPE
  2
CENTER
 70
     0
  3
____ _ ____ _ ____ _ ____ _ ____ _ ____ _ ____
 72
    65
 73
     4
 40
2.0
 49
1.25
 49
-0.25
 49
0.25
 49
-0.25
  0
LTYPE
  2
HIDDEN
 70
     0
  3
_ _ _ _ _ _ _ _ _ _ _ _ _ _ _ _ _ _ _ _ _ _ _
 72
    65
 73
     2
 40
0.375
 49
0.25
 49
-0.125
  0
LTYPE
  2
PHANTOM2
 70
     0
  3
___ _ _ ___ _ _ ___ _ _ ___ _ _
 72
    65
 73
     6
 40
1.25
 49
0.625
 49
-0.125
 49
0.125
 49
-0.125
 49
0.125
 49
-0.125
  0
ENDTAB
  0
TABLE
  2
LAYER
 70
     4
  0
LAYER
  2
0
 70
     0
 62
     7
  6
CONTINUOUS
  0
LAYER
  2
1
 70
     0
 62
     1
  6
CENTER
  0
LAYER
  2
3
 70
     0
 62
     3
  6
CONTINUOUS
  0
LAYER
  2
2
 70
     0
 62
     2
  6
HIDDEN
  0
ENDTAB
  0
TABLE
  2
STYLE
 70
     2
  0
STYLE
  2
STANDARD
 70
     0
 40
0.0
 41
1.0
 50
0.0
 71
     0
 42
2.0
  3
TXT
  4
BIGFONT
  0
STYLE
  2
STANDARD1
 70
     0
 40
0.0
 41
1.0
 50
0.0
 71
     0
 42
3.0
  3
txt
  4

  0
ENDTAB
  0
TABLE
  2
VIEW
 70
     1
  0
VIEW
  2
ALL
 70
     0
 40
270.0
 10
220.99159663865549
 20
135.0
 41
0.0
 11
0.0
 21
0.0
 31
1.0
 12
0.0
 22
0.0
 32
0.0
 42
0.0
 43
0.0
 44
0.0
 50
0.0
 71
     0
  0
ENDTAB
  0
TABLE
  2
UCS
 70
     0
  0
ENDTAB
  0
TABLE
  2
APPID
 70
     3
  0
APPID
  2
ACAD
 70
     0
  0
APPID
  2
ACAD_MLEADERVER
 70
     0
  0
APPID
  2
ACAD_NAV_VCDISPLAY
 70
     0
  0
ENDTAB
  0
TABLE
  2
DIMSTYLE
 70
     1
  0
DIMSTYLE
  2
STANDARD
 70
     0
  3

  4

  5

  6

  7

 40
1.0
 41
0.18
 42
0.0625
 43
0.38
 44
0.18
 45
0.0
 46
0.0
 47
0.0
 48
0.0
140
0.18
141
0.09
142
0.0
143
25.399999999999999
144
1.0
145
0.0
146
1.0
147
0.09
 71
     0
 72
     0
 73
     1
 74
     1
 75
     0
 76
     0
 77
     0
 78
     0
170
     0
171
     2
172
     0
173
     0
174
     0
175
     0
176
     0
177
     0
178
     0
  0
ENDTAB
  0
ENDSEC
  0
SECTION
  2
BLOCKS
  0
BLOCK
  8
0
  2
$MODEL_SPACE
 70
     0
 10
0.0
 20
0.0
 30
0.0
  3
$MODEL_SPACE
  1

  0
ENDBLK
  5
217
  8
0
  0
BLOCK
 67
     1
  8
0
  2
$PAPER_SPACE
 70
     0
 10
0.0
 20
0.0
 30
0.0
  3
$PAPER_SPACE
  1

  0
ENDBLK
  5
215
 67
     1
  8
0
  0
ENDSEC
  0
SECTION
  2
ENTITIES
  0
ARC
  5
103B
  8
0
 10
170.7998449827229
 20
62.273881972815602
 30
0.0
 40
8.4799745698830158
 50
104.724857224641
 51
255.27514277536059
  0
LINE
  5
103C
  8
0
 10
168.64442573317649
 20
92.713550891524292
 30
0.0
 11
175.68867317180241
 21
92.713550891524292
 31
0.0
  0
LINE
  5
103D
  8
0
 10
168.64442573317649
 20
84.512079281834474
 30
0.0
 11
175.68867317180241
 21
84.512079281834545
 31
0.0
  0
ARC
  5
103E
  8
0
 10
168.16407135691131
 20
100.5197355846239
 30
0.0
 40
16.014861867497721
 50
250.59754634745789
 51
271.71880388977598
  0
ARC
  5
103F
  8
0
 10
163.46650490778859
 20
86.438555400256988
 30
0.0
 40
1.1985633451564159
 50
196.92747224852641
 51
238.70455880968581
  0
ARC
  5
1040
  8
0
 10
168.75908042298931
 20
86.272756433436484
 30
0.0
 40
6.441814880080921
 50
88.980166794522916
 51
181.62945048220141
  0
LINE
  5
1041
  8
0
 10
168.64442573317649
 20
70.475353582505377
 30
0.0
 11
175.68867317180241
 21
70.475353582505434
 31
0.0
  0
ARC
  5
1042
  8
0
 10
168.75908042298931
 20
38.275007512194676
 30
0.0
 40
6.441814880080921
 50
178.37054951779851
 51
271.01983320547708
  0
ARC
  5
1043
  8
0
 10
163.46650490778859
 20
38.10920854537413
 30
0.0
 40
1.1985633451564159
 50
121.29544119031409
 51
163.0725277514731
  0
ARC
  5
1044
  8
0
 10
168.16407135691131
 20
24.028028361007198
 30
0.0
 40
16.014861867497721
 50
88.28119611022403
 51
109.40245365254211
  0
LINE
  5
1045
  8
2
 10
159.68867317180241
 20
46.27388197281585
 30
0.0
 11
160.68867317180241
 21
47.273881972815857
 31
0.0
  0
LINE
  5
1046
  8
2
 10
159.68867317180241
 20
46.27388197281585
 30
0.0
 11
159.68867317180241
 21
46.27388197281585
 31
0.0
  0
LINE
  5
1047
  8
2
 10
199.68867317180241
 20
55.220881972815519
 30
0.0
 11
198.6356731718023
 21
56.27388197281563
 31
0.0
  0
LINE
  5
1048
  8
2
 10
182.68867317180241
 20
58.273881972815573
 30
0.0
 11
184.68867317180241
 21
56.27388197281558
 31
0.0
  0
LINE
  5
1049
  8
2
 10
199.68867317180241
 20
56.27388197281563
 30
0.0
 11
184.68867317180241
 21
56.27388197281558
 31
0.0
  0
LINE
  5
104A
  8
2
 10
199.68867317180241
 20
57.220881972815519
 30
0.0
 11
183.74167317180249
 21
57.220881972815569
 31
0.0
  0
LINE
  5
104B
  8
2
 10
184.68867317180241
 20
56.27388197281558
 30
0.0
 11
174.68867317180241
 21
56.27388197281558
 31
0.0
  0
LINE
  5
104C
  8
2
 10
183.7416731718024
 20
57.220881972815519
 30
0.0
 11
169.68867317180241
 21
57.220881972815519
 31
0.0
  0
LINE
  5
104D
  8
2
 10
174.68867317180241
 20
56.27388197281558
 30
0.0
 11
173.04842105703469
 21
57.220881972815519
 31
0.0
  0
LINE
  5
104E
  8
2
 10
169.68867317180241
 20
57.220881972815462
 30
0.0
 11
166.652524463856
 21
62.273881972815737
 31
0.0
  0
ARC
  5
1088
  8
0
 10
175.68867317180241
 20
31.77388197281552
 30
0.0
 40
1.0
 50
270.0
 51
0.0
  0
ARC
  5
1089
  8
0
 10
58.188673171802343
 20
62.273881972815687
 30
0.0
 40
31.500000000000121
 50
255.0916722745097
 51
284.90832772549032
  0
LINE
  5
108A
  8
0
 10
168.64442573317649
 20
31.834213054106861
 30
0.0
 11
175.68867317180241
 21
31.834213054106861
 31
0.0
  0
LINE
  5
108B
  8
0
 10
175.68867317180241
 20
30.77388197281552
 30
0.0
 11
168.43825983550681
 21
30.77388197281552
 31
0.0
  0
ARC
  5
108C
  8
0
 10
168.43825983550681
 20
37.77388197281546
 30
0.0
 40
7.0
 50
193.4933988215526
 51
270.0
  0
LINE
  5
108D
  8
0
 10
177.68867317180241
 20
49.77388197281563
 30
0.0
 11
198.4886731718023
 21
49.77388197281563
 31
0.0
  0
LINE
  5
108E
  8
1
 10
58.188673171802293
 20
98.773881972815687
 30
0.0
 11
58.188673171802343
 21
25.77388197281557
 31
0.0
  0
LINE
  5
108F
  8
1
 10
94.688673171802407
 20
62.273881972815573
 30
0.0
 11
21.688673171802179
 21
62.273881972815573
 31
0.0
  0
LINE
  5
1090
  8
0
 10
176.68867317180241
 20
74.773881972815545
 30
0.0
 11
198.4886731718023
 21
74.773881972815573
 31
0.0
  0
LINE
  5
1091
  8
0
 10
199.68867317180241
 20
50.973881972815619
 30
0.0
 11
199.68867317180241
 21
73.573881972815528
 31
0.0
  0
ARC
  5
1092
  8
0
 10
270.53992485621058
 20
62.273881972815573
 30
0.0
 40
112.0
 50
188.2132107017363
 51
193.4933988215526
  0
LINE
  5
1093
  8
0
 10
176.68867317180241
 20
31.77388197281552
 30
0.0
 11
176.68867317180241
 21
92.773881972815687
 31
0.0
  0
LINE
  5
1094
  8
1
 10
154.68867317180241
 20
62.273881972815573
 30
0.0
 11
234.68867317180241
 21
62.273881972815573
 31
0.0
  0
ARC
  5
1095
  8
0
 10
177.68867317180241
 20
48.77388197281563
 30
0.0
 40
1.0
 50
90.0
 51
180.0
  0
ARC
  5
1096
  8
0
 10
78.438673171802407
 20
97.347910826085425
 30
0.0
 40
13.0
 50
200.884743220198
 51
279.11525677980239
  0
ARC
  5
1097
  8
0
 10
58.188673171802293
 20
62.273881972815573
 30
0.0
 40
31.500000000000121
 50
15.09167227451154
 51
44.908327725491993
  0
ARC
  5
1098
  8
0
 10
58.188673171802293
 20
62.273881972815573
 30
0.0
 40
31.500000000000121
 50
315.09167227450803
 51
344.9083277254885
  0
ARC
  5
1099
  8
0
 10
98.688673171802407
 20
62.273881972815573
 30
0.0
 40
13.0
 50
140.88474322019891
 51
219.11525677980109
  0
ARC
  5
109A
  8
0
 10
78.438673171802407
 20
27.199853119545779
 30
0.0
 40
13.0
 50
80.884743220197578
 51
159.115256779802
  0
ARC
  5
109B
  8
0
 10
58.188673171802293
 20
62.273881972815573
 30
0.0
 40
31.500000000000121
 50
195.0916722745115
 51
224.908327725492
  0
ARC
  5
109C
  8
0
 10
37.938673171802243
 20
27.199853119545718
 30
0.0
 40
13.0
 50
20.884743220197979
 51
99.115256779802436
  0
ARC
  5
109D
  8
0
 10
58.188673171802293
 20
62.273881972815524
 30
0.0
 40
31.500000000000121
 50
135.091672274508
 51
164.9083277254885
  0
ARC
  5
109E
  8
0
 10
17.688673171802179
 20
62.273881972815524
 30
0.0
 40
13.0
 50
320.88474322019903
 51
39.11525677980103
  0
ARC
  5
109F
  8
0
 10
58.188673171802243
 20
62.273881972815573
 30
0.0
 40
31.500000000000121
 50
75.091672274509719
 51
104.9083277254903
  0
ARC
  5
10A0
  8
0
 10
37.938673171802179
 20
97.347910826085425
 30
0.0
 40
13.0
 50
260.88474322019761
 51
339.115256779802
  0
LINE
  5
10A1
  8
0
 10
168.64442573317649
 20
40.035684663796658
 30
0.0
 11
175.68867317180241
 21
40.035684663796602
 31
0.0
  0
LINE
  5
10A2
  8
0
 10
168.64442573317649
 20
54.072410363125762
 30
0.0
 11
175.68867317180241
 21
54.072410363125712
 31
0.0
  0
CIRCLE
  5
10A3
  8
0
 10
58.188673171802293
 20
62.273881972815573
 30
0.0
 40
15.99999999999949
  0
LINE
  5
10A4
  8
0
 10
159.68867317180241
 20
46.273881972815573
 30
0.0
 11
159.68867317180241
 21
78.273881972815573
 31
0.0
  0
LINE
  5
10A5
  8
0
 10
198.4886731718023
 20
74.773881972815573
 30
0.0
 11
199.68867317180241
 21
73.573881972815528
 31
0.0
  0
LINE
  5
10A6
  8
0
 10
199.68867317180241
 20
50.973881972815619
 30
0.0
 11
198.4886731718023
 21
49.77388197281563
 31
0.0
  0
LINE
  5
10A7
  8
0
 10
198.4886731718023
 20
49.77388197281563
 30
0.0
 11
198.4886731718025
 21
74.773881972815474
 31
0.0
  0
ARC
  5
10A8
  8
0
 10
270.53992485621058
 20
62.273881972815573
 30
0.0
 40
112.0
 50
166.5066011784474
 51
171.7867892982604
  0
LINE
  5
10A9
  8
0
 10
168.43825983550681
 20
93.77388197281563
 30
0.0
 11
175.68867317180241
 21
93.773881972815687
 31
0.0
  0
ARC
  5
10AA
  8
0
 10
175.68867317180241
 20
92.773881972815687
 30
0.0
 40
1.0
 50
0.0
 51
90.0
  0
ARC
  5
10AB
  8
0
 10
168.4382598355069
 20
86.773881972815687
 30
0.0
 40
7.0
 50
90.0
 51
166.5066011784474
  0
LINE
  5
10AC
  8
2
 10
160.68867317180241
 20
47.273881972815857
 30
0.0
 11
160.68867317180241
 21
77.273881972815289
 31
0.0
  0
LINE
  5
10AD
  8
2
 10
159.68867317180241
 20
78.273881972815275
 30
0.0
 11
159.68867317180241
 21
78.273881972815275
 31
0.0
  0
LINE
  5
10AE
  8
2
 10
159.68867317180241
 20
78.273881972815275
 30
0.0
 11
160.68867317180241
 21
77.273881972815289
 31
0.0
  0
LINE
  5
10AF
  8
0
 10
159.68867317180241
 20
46.27388197281585
 30
0.0
 11
159.68867317180241
 21
46.27388197281585
 31
0.0
  0
LINE
  5
10B0
  8
2
 10
183.7416731718024
 20
67.326881972815627
 30
0.0
 11
169.68867317180241
 21
67.326881972815627
 31
0.0
  0
LINE
  5
10B1
  8
2
 10
184.68867317180241
 20
68.273881972815573
 30
0.0
 11
174.68867317180241
 21
68.273881972815573
 31
0.0
  0
LINE
  5
10B2
  8
2
 10
174.68867317180241
 20
56.27388197281558
 30
0.0
 11
174.68867317180241
 21
68.273881972815573
 31
0.0
  0
LINE
  5
10B3
  8
2
 10
169.68867317180249
 20
57.22088197281554
 30
0.0
 11
169.68867317180241
 21
67.326881972815627
 31
0.0
  0
LINE
  5
10B4
  8
2
 10
169.68867317180241
 20
67.326881972815684
 30
0.0
 11
166.652524463856
 21
62.273881972815403
 31
0.0
  0
LINE
  5
10B5
  8
2
 10
174.68867317180241
 20
68.273881972815573
 30
0.0
 11
173.04842105703469
 21
67.326881972815627
 31
0.0
  0
LINE
  5
10B6
  8
2
 10
199.68867317180241
 20
69.326881972815627
 30
0.0
 11
198.6356731718023
 21
68.273881972815516
 31
0.0
  0
LINE
  5
10B7
  8
0
 10
199.68867317180241
 20
61.923881972815551
 30
0.0
 11
201.68867317180241
 21
61.923881972815607
 31
0.0
  0
LINE
  5
10B8
  8
0
 10
199.68867317180241
 20
61.223881972815562
 30
0.0
 11
201.68867317180241
 21
61.223881972815562
 31
0.0
  0
LINE
  5
10B9
  8
0
 10
199.68867317180241
 20
60.573881972815578
 30
0.0
 11
201.68867317180241
 21
60.573881972815578
 31
0.0
  0
LINE
  5
10BA
  8
0
 10
199.68867317180241
 20
59.923881972815551
 30
0.0
 11
201.68867317180241
 21
59.923881972815551
 31
0.0
  0
LINE
  5
10BB
  8
0
 10
199.68867317180241
 20
59.323881972815578
 30
0.0
 11
201.68867317180241
 21
59.323881972815578
 31
0.0
  0
LINE
  5
10BC
  8
0
 10
199.68867317180241
 20
58.723881972815562
 30
0.0
 11
201.68867317180241
 21
58.723881972815562
 31
0.0
  0
LINE
  5
10BD
  8
0
 10
199.68867317180241
 20
58.173881972815551
 30
0.0
 11
201.68867317180241
 21
58.173881972815607
 31
0.0
  0
LINE
  5
10BE
  8
0
 10
199.68867317180241
 20
57.623881972815539
 30
0.0
 11
201.68867317180241
 21
57.623881972815589
 31
0.0
  0
LINE
  5
10BF
  8
0
 10
199.68867317180241
 20
66.923881972815607
 30
0.0
 11
201.68867317180241
 21
66.923881972815551
 31
0.0
  0
LINE
  5
10C0
  8
0
 10
199.68867317180241
 20
66.373881972815596
 30
0.0
 11
201.68867317180241
 21
66.373881972815539
 31
0.0
  0
LINE
  5
10C1
  8
0
 10
199.68867317180241
 20
65.823881972815585
 30
0.0
 11
201.68867317180241
 21
65.823881972815585
 31
0.0
  0
LINE
  5
10C2
  8
0
 10
199.68867317180241
 20
65.223881972815562
 30
0.0
 11
201.68867317180241
 21
65.223881972815562
 31
0.0
  0
LINE
  5
10C3
  8
0
 10
199.68867317180241
 20
64.623881972815596
 30
0.0
 11
201.68867317180241
 21
64.623881972815596
 31
0.0
  0
LINE
  5
10C4
  8
0
 10
199.68867317180241
 20
63.973881972815562
 30
0.0
 11
201.68867317180241
 21
63.973881972815562
 31
0.0
  0
LINE
  5
10C5
  8
0
 10
199.68867317180241
 20
63.323881972815578
 30
0.0
 11
201.68867317180241
 21
63.323881972815578
 31
0.0
  0
LINE
  5
10C6
  8
0
 10
199.68867317180241
 20
62.623881972815589
 30
0.0
 11
201.68867317180241
 21
62.623881972815539
 31
0.0
  0
LINE
  5
10C7
  8
2
 10
182.68867317180241
 20
66.273881972815573
 30
0.0
 11
184.68867317180241
 21
68.273881972815573
 31
0.0
  0
LINE
  5
10C8
  8
2
 10
184.68867317180241
 20
68.273881972815573
 30
0.0
 11
184.68867317180241
 21
56.27388197281558
 31
0.0
  0
LINE
  5
10C9
  8
2
 10
199.68867317180241
 20
67.326881972815627
 30
0.0
 11
183.74167317180249
 21
67.326881972815571
 31
0.0
  0
LINE
  5
10CA
  8
2
 10
199.68867317180241
 20
68.273881972815516
 30
0.0
 11
184.68867317180241
 21
68.273881972815573
 31
0.0
  0
LINE
  5
10CB
  8
2
 10
182.68867317180241
 20
66.273881972815573
 30
0.0
 11
182.68867317180241
 21
58.27388197281563
 31
0.0
  0
LINE
  5
10CE
  8
0
 10
229.68867317180241
 20
66.273881972815573
 30
0.0
 11
229.68867317180241
 21
58.273881972815573
 31
0.0
  0
LINE
  5
10CF
  8
0
 10
199.68867317180241
 20
56.273881972815637
 30
0.0
 11
227.68867317180241
 21
56.27388197281558
 31
0.0
  0
LINE
  5
10D0
  8
3
 10
201.68867317180241
 20
57.220881972815519
 30
0.0
 11
228.6356731718023
 21
57.220881972815519
 31
0.0
  0
LINE
  5
10D1
  8
3
 10
201.68867317180241
 20
67.326881972815627
 30
0.0
 11
228.63567317180241
 21
67.326881972815627
 31
0.0
  0
LINE
  5
10D2
  8
0
 10
199.68867317180241
 20
68.27388197281563
 30
0.0
 11
227.68867317180241
 21
68.273881972815573
 31
0.0
  0
LINE
  5
10D3
  8
0
 10
229.68867317180241
 20
66.273881972815573
 30
0.0
 11
227.68867317180241
 21
68.273881972815573
 31
0.0
  0
LINE
  5
10D4
  8
0
 10
229.68867317180241
 20
58.273881972815573
 30
0.0
 11
227.68867317180241
 21
56.27388197281558
 31
0.0
  0
LINE
  5
10D5
  8
0
 10
227.68867317180241
 20
68.27388197281563
 30
0.0
 11
227.68867317180241
 21
56.273881972815509
 31
0.0
  0
LINE
  5
10D6
  8
0
 10
201.68867317180241
 20
68.273881972815573
 30
0.0
 11
201.68867317180241
 21
56.27388197281558
 31
0.0
  0
LINE
  5
11DD
  8
0
 10
199.68867317180241
 20
57.123881972815539
 30
0.0
 11
201.68867317180241
 21
57.123881972815589
 31
0.0
  0
LINE
  5
11DE
  8
0
 10
199.68867317180241
 20
56.623881972815539
 30
0.0
 11
201.68867317180241
 21
56.623881972815589
 31
0.0
  0
LINE
  5
11DF
  8
0
 10
199.68867317180241
 20
67.423881972815593
 30
0.0
 11
201.68867317180241
 21
67.423881972815551
 31
0.0
  0
LINE
  5
11E0
  8
0
 10
199.68867317180241
 20
67.923881972815593
 30
0.0
 11
201.68867317180241
 21
67.923881972815551
 31
0.0
  0
TEXT
  5
1283
  8
0
 62
     3
 10
0.0
 20
0.0
 30
0.0
 40
10.0
  1
HK63X30-SUS
  7
STANDARD1
  0
ENDSEC
  0
EOF
