  0
SECTION
  2
HEADER
  9
$ACADVER
  1
AC1009
  9
$INSBASE
 10
0.0
 20
0.0
 30
0.0
  9
$EXTMIN
 10
0.0
 20
-2.960436562073669
 30
0.0
  9
$EXTMAX
 10
175.7840205121928
 20
63.878756031164727
 30
0.0
  9
$LIMMIN
 10
0.0
 20
0.0
  9
$LIMMAX
 10
375.0
 20
270.0
  9
$ORTHOMODE
 70
     0
  9
$REGENMODE
 70
     1
  9
$FILLMODE
 70
     1
  9
$QTEXTMODE
 70
     0
  9
$MIRRTEXT
 70
     0
  9
$DRAGMODE
 70
     2
  9
$LTSCALE
 40
10.0
  9
$OSMODE
 70
    55
  9
$ATTMODE
 70
     1
  9
$TEXTSIZE
 40
2.0
  9
$TRACEWID
 40
0.05
  9
$TEXTSTYLE
  7
STANDARD
  9
$CLAYER
  8
0
  9
$CELTYPE
  6
BYLAYER
  9
$CECOLOR
 62
   256
  9
$DIMSCALE
 40
1.0
  9
$DIMASZ
 40
2.5
  9
$DIMEXO
 40
2.0
  9
$DIMDLI
 40
0.38
  9
$DIMRND
 40
0.0
  9
$DIMDLE
 40
0.0
  9
$DIMEXE
 40
2.0
  9
$DIMTP
 40
0.0
  9
$DIMTM
 40
0.0
  9
$DIMTXT
 40
3.0
  9
$DIMCEN
 40
0.09
  9
$DIMTSZ
 40
0.0
  9
$DIMTOL
 70
     0
  9
$DIMLIM
 70
     0
  9
$DIMTIH
 70
     0
  9
$DIMTOH
 70
     0
  9
$DIMSE1
 70
     0
  9
$DIMSE2
 70
     0
  9
$DIMTAD
 70
     1
  9
$DIMZIN
 70
     0
  9
$DIMBLK
  1

  9
$DIMASO
 70
     1
  9
$DIMSHO
 70
     0
  9
$DIMPOST
  1

  9
$DIMAPOST
  1

  9
$DIMALT
 70
     0
  9
$DIMALTD
 70
     2
  9
$DIMALTF
 40
25.399999999999999
  9
$DIMLFAC
 40
1.0
  9
$DIMTOFL
 70
     0
  9
$DIMTVP
 40
1.6000000000000001
  9
$DIMTIX
 70
     1
  9
$DIMSOXD
 70
     0
  9
$DIMSAH
 70
     0
  9
$DIMBLK1
  1

  9
$DIMBLK2
  1

  9
$DIMSTYLE
  2
STANDARD
  9
$DIMCLRD
 70
     0
  9
$DIMCLRE
 70
     0
  9
$DIMCLRT
 70
     0
  9
$DIMTFAC
 40
1.0
  9
$DIMGAP
 40
0.09
  9
$LUNITS
 70
     2
  9
$LUPREC
 70
     4
  9
$SKETCHINC
 40
0.1
  9
$FILLETRAD
 40
2.5
  9
$AUNITS
 70
     0
  9
$AUPREC
 70
     0
  9
$MENU
  1
E:\r13\win\SUPPORT\ACAD
  9
$ELEVATION
 40
0.0
  9
$PELEVATION
 40
0.0
  9
$THICKNESS
 40
0.0
  9
$LIMCHECK
 70
     0
  9
$BLIPMODE
 70
     0
  9
$CHAMFERA
 40
0.0
  9
$CHAMFERB
 40
0.0
  9
$SKPOLY
 70
     0
  9
$TDCREATE
 40
2448650.5678784722
  9
$TDUPDATE
 40
2456598.6880709031
  9
$TDINDWG
 40
0.0259142245
  9
$TDUSRTIMER
 40
0.0259142245
  9
$USRTIMER
 70
     1
  9
$ANGBASE
 50
0.0
  9
$ANGDIR
 70
     0
  9
$PDMODE
 70
     0
  9
$PDSIZE
 40
0.0
  9
$PLINEWID
 40
0.0
  9
$COORDS
 70
     1
  9
$SPLFRAME
 70
     0
  9
$SPLINETYPE
 70
     6
  9
$SPLINESEGS
 70
     8
  9
$ATTDIA
 70
     0
  9
$ATTREQ
 70
     1
  9
$HANDLING
 70
     1
  9
$HANDSEED
  5
CF8
  9
$SURFTAB1
 70
     6
  9
$SURFTAB2
 70
     6
  9
$SURFTYPE
 70
     6
  9
$SURFU
 70
     6
  9
$SURFV
 70
     6
  9
$UCSNAME
  2

  9
$UCSORG
 10
0.0
 20
0.0
 30
0.0
  9
$UCSXDIR
 10
1.0
 20
0.0
 30
0.0
  9
$UCSYDIR
 10
0.0
 20
1.0
 30
0.0
  9
$PUCSNAME
  2

  9
$PUCSORG
 10
0.0
 20
0.0
 30
0.0
  9
$PUCSXDIR
 10
1.0
 20
0.0
 30
0.0
  9
$PUCSYDIR
 10
0.0
 20
1.0
 30
0.0
  9
$USERI1
 70
     0
  9
$USERI2
 70
     1
  9
$USERI3
 70
     1
  9
$USERI4
 70
     0
  9
$USERI5
 70
     0
  9
$USERR1
 40
0.0
  9
$USERR2
 40
0.0
  9
$USERR3
 40
0.0
  9
$USERR4
 40
0.0
  9
$USERR5
 40
0.0
  9
$WORLDVIEW
 70
     1
  9
$SHADEDGE
 70
     3
  9
$SHADEDIF
 70
    70
  9
$TILEMODE
 70
     1
  9
$MAXACTVP
 70
    16
  9
$PLIMCHECK
 70
     0
  9
$PEXTMIN
 10
1.0000000000000000E+020
 20
1.0000000000000000E+020
 30
1.0000000000000000E+020
  9
$PEXTMAX
 10
-1.0000000000000000E+020
 20
-1.0000000000000000E+020
 30
-1.0000000000000000E+020
  9
$PLIMMIN
 10
0.0
 20
0.0
  9
$PLIMMAX
 10
12.0
 20
9.0
  9
$UNITMODE
 70
     0
  9
$VISRETAIN
 70
     0
  9
$PLINEGEN
 70
     1
  9
$PSLTSCALE
 70
     0
  0
ENDSEC
  0
SECTION
  2
TABLES
  0
TABLE
  2
VPORT
 70
     1
  0
VPORT
  2
*ACTIVE
 70
     0
 10
0.0
 20
0.0
 11
1.0
 21
1.0
 12
187.49427839065231
 22
174.91677254346851
 13
0.0
 23
0.0
 14
10.0
 24
10.0
 15
10.0
 25
10.0
 16
0.0
 26
0.0
 36
1.0
 17
0.0
 27
0.0
 37
0.0
 40
358.92027899574339
 41
1.7807262569832401
 42
50.0
 43
0.0
 44
0.0
 50
0.0
 51
0.0
 71
     0
 72
   500
 73
     1
 74
     0
 75
     0
 76
     0
 77
     0
 78
     2
  0
ENDTAB
  0
TABLE
  2
LTYPE
 70
     4
  0
LTYPE
  2
CONTINUOUS
 70
     0
  3
Solid Line
 72
    65
 73
     0
 40
0.0
  0
LTYPE
  2
CENTER
 70
     0
  3
____ _ ____ _ ____ _ ____ _ ____ _ ____ _ ____
 72
    65
 73
     4
 40
2.0
 49
1.25
 49
-0.25
 49
0.25
 49
-0.25
  0
LTYPE
  2
HIDDEN
 70
     0
  3
_ _ _ _ _ _ _ _ _ _ _ _ _ _ _ _ _ _ _ _ _ _ _
 72
    65
 73
     2
 40
0.375
 49
0.25
 49
-0.125
  0
LTYPE
  2
PHANTOM2
 70
     0
  3
___ _ _ ___ _ _ ___ _ _ ___ _ _
 72
    65
 73
     6
 40
1.25
 49
0.625
 49
-0.125
 49
0.125
 49
-0.125
 49
0.125
 49
-0.125
  0
ENDTAB
  0
TABLE
  2
LAYER
 70
     4
  0
LAYER
  2
0
 70
     0
 62
     7
  6
CONTINUOUS
  0
LAYER
  2
1
 70
     0
 62
     1
  6
CENTER
  0
LAYER
  2
3
 70
     0
 62
     3
  6
CONTINUOUS
  0
LAYER
  2
2
 70
     0
 62
     2
  6
HIDDEN
  0
ENDTAB
  0
TABLE
  2
STYLE
 70
     2
  0
STYLE
  2
STANDARD
 70
     0
 40
0.0
 41
1.0
 50
0.0
 71
     0
 42
2.0
  3
TXT
  4
BIGFONT
  0
STYLE
  2
STANDARD1
 70
     0
 40
0.0
 41
1.0
 50
0.0
 71
     0
 42
3.0
  3
txt
  4

  0
ENDTAB
  0
TABLE
  2
VIEW
 70
     1
  0
VIEW
  2
ALL
 70
     0
 40
270.0
 10
220.99159663865549
 20
135.0
 41
0.0
 11
0.0
 21
0.0
 31
1.0
 12
0.0
 22
0.0
 32
0.0
 42
0.0
 43
0.0
 44
0.0
 50
0.0
 71
     0
  0
ENDTAB
  0
TABLE
  2
UCS
 70
     0
  0
ENDTAB
  0
TABLE
  2
APPID
 70
     3
  0
APPID
  2
ACAD
 70
     0
  0
APPID
  2
ACAD_MLEADERVER
 70
     0
  0
APPID
  2
ACAD_NAV_VCDISPLAY
 70
     0
  0
ENDTAB
  0
TABLE
  2
DIMSTYLE
 70
     1
  0
DIMSTYLE
  2
STANDARD
 70
     0
  3

  4

  5

  6

  7

 40
1.0
 41
0.18
 42
0.0625
 43
0.38
 44
0.18
 45
0.0
 46
0.0
 47
0.0
 48
0.0
140
0.18
141
0.09
142
0.0
143
25.399999999999999
144
1.0
145
0.0
146
1.0
147
0.09
 71
     0
 72
     0
 73
     1
 74
     1
 75
     0
 76
     0
 77
     0
 78
     0
170
     0
171
     2
172
     0
173
     0
174
     0
175
     0
176
     0
177
     0
178
     0
  0
ENDTAB
  0
ENDSEC
  0
SECTION
  2
BLOCKS
  0
BLOCK
  8
0
  2
$MODEL_SPACE
 70
     0
 10
0.0
 20
0.0
 30
0.0
  3
$MODEL_SPACE
  1

  0
ENDBLK
  5
217
  8
0
  0
BLOCK
 67
     1
  8
0
  2
$PAPER_SPACE
 70
     0
 10
0.0
 20
0.0
 30
0.0
  3
$PAPER_SPACE
  1

  0
ENDBLK
  5
215
 67
     1
  8
0
  0
ENDSEC
  0
SECTION
  2
ENTITIES
  0
LINE
  5
A26
  8
2
 10
120.2605205121928
 20
34.878756031164727
 30
0.0
 11
120.7840205121928
 21
34.355256031164721
 31
0.0
  0
LINE
  5
A27
  8
2
 10
120.7840205121928
 20
34.878756031164727
 30
0.0
 11
109.9840205121929
 21
34.878756031164727
 31
0.0
  0
LINE
  5
A28
  8
2
 10
120.7840205121928
 20
35.555256031164618
 30
0.0
 11
109.30752051219299
 21
35.555256031164653
 31
0.0
  0
LINE
  5
A29
  8
2
 10
104.7840205121928
 20
34.878756031164727
 30
0.0
 11
103.61228814087259
 21
35.555256031164653
 31
0.0
  0
LINE
  5
A2A
  8
2
 10
109.9840205121928
 20
34.878756031164727
 30
0.0
 11
104.7840205121928
 21
34.878756031164727
 31
0.0
  0
LINE
  5
A2B
  8
2
 10
109.9840205121928
 20
34.878756031164727
 30
0.0
 11
108.7840205121928
 21
36.078756031164723
 31
0.0
  0
LINE
  5
A2C
  8
2
 10
109.30752051219289
 20
35.555256031164653
 30
0.0
 11
99.784020512192853
 21
35.555256031164653
 31
0.0
  0
LINE
  5
A2D
  8
2
 10
99.784020512192853
 20
35.555256031164532
 30
0.0
 11
97.787060244854672
 21
38.878756031164727
 31
0.0
  0
LINE
  5
A2E
  8
2
 10
95.784020512192853
 20
29.87875603116473
 30
0.0
 11
96.784020512192853
 21
30.87875603116473
 31
0.0
  0
LINE
  5
A2F
  8
0
 10
95.784020512192853
 20
29.87875603116473
 30
0.0
 11
95.784020512192853
 21
29.87875603116473
 31
0.0
  0
LINE
  5
A30
  8
0
 10
95.784020512192853
 20
29.87875603116473
 30
0.0
 11
95.784020512192853
 21
29.87875603116473
 31
0.0
  0
ARC
  5
A31
  8
0
 10
103.0350171672433
 20
38.878756031164727
 30
0.0
 40
5.4802929220881831
 50
102.1149139619673
 51
257.88508603803439
  0
LINE
  5
A32
  8
0
 10
101.8848512640773
 20
44.236995378850111
 30
0.0
 11
105.7840205121928
 21
44.236995378850111
 31
0.0
  0
ARC
  5
A33
  8
0
 10
101.8409109535788
 20
23.798935837160862
 30
0.0
 40
4.2868538049564364
 50
181.01080706835589
 51
270.58729281267898
  0
ARC
  5
A34
  8
0
 10
99.206548738734114
 20
22.537851707950981
 30
0.0
 40
2.033184446384718
 50
100.873993214233
 51
144.3342482575689
  0
ARC
  5
A35
  8
0
 10
101.6440639114556
 20
12.946472633875571
 30
0.0
 40
11.92650485375184
 50
88.843161794993776
 51
103.68231588747609
  0
LINE
  5
AE9
  8
0
 10
122.2840205121928
 20
42.87875603116472
 30
0.0
 11
122.2840205121928
 21
34.878756031164727
 31
0.0
  0
LINE
  5
AEA
  8
0
 10
170.7840205121928
 20
41.678756031164731
 30
0.0
 11
170.78402051219271
 21
36.078756031164723
 31
0.0
  0
LINE
  5
AEB
  8
0
 10
120.7840205121928
 20
34.878756031164741
 30
0.0
 11
169.58402051219281
 21
34.878756031164727
 31
0.0
  0
LINE
  5
AEC
  8
3
 10
122.2840205121928
 20
35.555256031164653
 30
0.0
 11
170.2605205121927
 21
35.555256031164653
 31
0.0
  0
LINE
  5
AED
  8
3
 10
122.2840205121928
 20
42.202256031164907
 30
0.0
 11
170.2605205121927
 21
42.202256031164829
 31
0.0
  0
LINE
  5
AEE
  8
0
 10
120.7840205121928
 20
42.87875603116472
 30
0.0
 11
169.58402051219289
 21
42.87875603116472
 31
0.0
  0
LINE
  5
AEF
  8
0
 10
169.58402051219289
 20
42.87875603116472
 30
0.0
 11
170.7840205121928
 21
41.678756031164731
 31
0.0
  0
LINE
  5
AF0
  8
0
 10
170.78402051219271
 20
36.078756031164723
 30
0.0
 11
169.58402051219281
 21
34.878756031164727
 31
0.0
  0
LINE
  5
AF1
  8
0
 10
169.58402051219289
 20
42.878756031164748
 30
0.0
 11
169.58402051219281
 21
34.878756031164727
 31
0.0
  0
LINE
  5
AF2
  8
2
 10
109.9840205121928
 20
42.878756031164748
 30
0.0
 11
109.9840205121928
 21
34.878756031164698
 31
0.0
  0
LINE
  5
AF3
  8
2
 10
120.7840205121928
 20
42.202256031164829
 30
0.0
 11
109.30752051219299
 21
42.202256031164808
 31
0.0
  0
LINE
  5
AF4
  8
2
 10
120.7840205121928
 20
42.87875603116472
 30
0.0
 11
109.9840205121929
 21
42.87875603116472
 31
0.0
  0
LINE
  5
AF5
  8
2
 10
108.7840205121928
 20
41.678756031164731
 30
0.0
 11
108.7840205121928
 21
36.078756031164801
 31
0.0
  0
LINE
  5
AF6
  8
2
 10
109.9840205121928
 20
42.87875603116472
 30
0.0
 11
108.7840205121928
 21
41.678756031164731
 31
0.0
  0
LINE
  5
AF9
  8
0
 10
122.2840205121928
 20
39.178756466648593
 30
0.0
 11
120.7840205121928
 21
39.178756031164681
 31
0.0
  0
LINE
  5
AFA
  8
0
 10
122.28402033799919
 20
39.778756466648559
 30
0.0
 11
120.78402033799919
 21
39.778756031164683
 31
0.0
  0
LINE
  5
AFB
  8
0
 10
122.2840201783219
 20
40.328756466648542
 30
0.0
 11
120.7840201783218
 21
40.328756031164652
 31
0.0
  0
LINE
  5
AFC
  8
0
 10
122.2840200186444
 20
40.878756466648518
 30
0.0
 11
120.7840200186444
 21
40.878756031164642
 31
0.0
  0
LINE
  5
AFD
  8
0
 10
122.2840198734831
 20
41.378756466648518
 30
0.0
 11
120.7840198734831
 21
41.378756031164613
 31
0.0
  0
LINE
  5
AFE
  8
0
 10
122.28401972832189
 20
41.87875646664849
 30
0.0
 11
120.78401972832179
 21
41.878756031164613
 31
0.0
  0
LINE
  5
AFF
  8
0
 10
122.28401972832189
 20
35.878755595680957
 30
0.0
 11
120.78401972832179
 21
35.878756031164841
 31
0.0
  0
LINE
  5
B00
  8
0
 10
122.2840198734831
 20
36.378755595680929
 30
0.0
 11
120.7840198734831
 21
36.378756031164841
 31
0.0
  0
LINE
  5
B01
  8
0
 10
122.2840200186444
 20
36.878755595680929
 30
0.0
 11
120.7840200186444
 21
36.878756031164812
 31
0.0
  0
LINE
  5
B02
  8
0
 10
122.2840201783219
 20
37.428755595680911
 30
0.0
 11
120.7840201783218
 21
37.428756031164802
 31
0.0
  0
LINE
  5
B03
  8
0
 10
122.28402033799919
 20
37.978755595680887
 30
0.0
 11
120.78402033799919
 21
37.978756031164778
 31
0.0
  0
LINE
  5
B04
  8
0
 10
122.2840205121928
 20
38.57875559568086
 30
0.0
 11
120.7840205121928
 21
38.578756031164772
 31
0.0
  0
LINE
  5
B05
  8
0
 10
107.7840205121928
 20
30.87875603116478
 30
0.0
 11
119.7840205121928
 21
30.87875603116473
 31
0.0
  0
ARC
  5
B06
  8
0
 10
105.7840205121928
 20
19.8787560311645
 30
0.0
 40
1.0
 50
270.0
 51
0.0
  0
ARC
  5
B07
  8
0
 10
101.8848512640773
 20
23.8787560311645
 30
0.0
 40
5.0
 50
192.555857798586
 51
270.0
  0
LINE
  5
B08
  8
0
 10
106.7840205121928
 20
19.8787560311645
 30
0.0
 11
106.7840205121928
 21
57.87875603116489
 31
0.0
  0
LINE
  5
B09
  8
0
 10
119.7840205121928
 20
46.878756031164727
 30
0.0
 11
119.7840205121928
 21
30.87875603116473
 31
0.0
  0
LINE
  5
B0A
  8
0
 10
120.7840205121928
 20
31.87875603116473
 30
0.0
 11
119.7840205121928
 21
30.87875603116473
 31
0.0
  0
LINE
  5
B0B
  8
0
 10
119.7840205121928
 20
46.878756031164727
 30
0.0
 11
120.7840205121928
 21
45.87875603116472
 31
0.0
  0
LINE
  5
B0C
  8
0
 10
107.7840205121928
 20
46.878756031164727
 30
0.0
 11
119.7840205121928
 21
46.878756031164727
 31
0.0
  0
LINE
  5
B0D
  8
0
 10
120.7840205121928
 20
31.87875603116473
 30
0.0
 11
120.7840205121928
 21
45.87875603116472
 31
0.0
  0
ARC
  5
B0E
  8
0
 10
169.2346842260082
 20
38.87875603116467
 30
0.0
 40
74.000000000000014
 50
186.98570021621441
 51
192.555857798586
  0
LINE
  5
B0F
  8
0
 10
101.8848512640773
 20
18.8787560311645
 30
0.0
 11
105.7840205121928
 21
18.8787560311645
 31
0.0
  0
LINE
  5
B10
  8
1
 10
90.784020512192853
 20
38.878756031164727
 30
0.0
 11
175.7840205121928
 21
38.878756031164727
 31
0.0
  0
LINE
  5
B11
  8
1
 10
10.78402051219285
 20
38.878756031164727
 30
0.0
 11
60.784020512192853
 21
38.878756031164727
 31
0.0
  0
LINE
  5
B12
  8
1
 10
35.784020512192853
 20
63.878756031164727
 30
0.0
 11
35.784020512192853
 21
13.87875603116467
 31
0.0
  0
ARC
  5
B13
  8
0
 10
107.7840205121928
 20
47.87875603116472
 30
0.0
 40
1.0
 50
180.0
 51
270.0
  0
ARC
  5
B14
  8
0
 10
107.7840205121928
 20
29.87875603116478
 30
0.0
 40
1.0
 50
90.0
 51
180.0
  0
ARC
  5
B15
  8
0
 10
49.034020512192967
 20
61.828429231452411
 30
0.0
 40
9.0
 50
203.4617052299368
 51
276.53829477006332
  0
ARC
  5
B16
  8
0
 10
35.78402051219274
 20
38.878756031164727
 30
0.0
 40
20.000000000000242
 50
15.54005444564617
 51
44.459945554351862
  0
ARC
  5
B17
  8
0
 10
22.5340205121928
 20
61.828429231452411
 30
0.0
 40
9.0
 50
263.46170522993668
 51
336.5382947700615
  0
ARC
  5
B18
  8
0
 10
35.78402051219274
 20
38.8787560311645
 30
0.0
 40
20.000000000000242
 50
75.540054445644984
 51
104.45994555435161
  0
ARC
  5
B19
  8
0
 10
9.2840205121927966
 20
38.878756031164727
 30
0.0
 40
9.0
 50
323.46170522993691
 51
36.538294770062791
  0
ARC
  5
B1A
  8
0
 10
35.784020512192967
 20
38.878756031164549
 30
0.0
 40
20.000000000000242
 50
135.540054445648
 51
164.45994555435291
  0
ARC
  5
B1B
  8
0
 10
22.5340205121928
 20
15.92908283087703
 30
0.0
 40
9.0
 50
23.46170522993679
 51
96.538294770063246
  0
ARC
  5
B1C
  8
0
 10
35.784020512192967
 20
38.878756031164727
 30
0.0
 40
20.000000000000242
 50
195.54005444564609
 51
224.459945554352
  0
ARC
  5
B1D
  8
0
 10
49.034020512192853
 20
15.92908283087703
 30
0.0
 40
9.0
 50
83.461705229936754
 51
156.53829477006141
  0
ARC
  5
B1E
  8
0
 10
35.784020512192967
 20
38.878756031164897
 30
0.0
 40
20.000000000000242
 50
255.54005444564501
 51
284.45994555435169
  0
ARC
  5
B1F
  8
0
 10
62.284020512192967
 20
38.87875603116467
 30
0.0
 40
9.0
 50
143.4617052299366
 51
216.53829477006309
  0
ARC
  5
B20
  8
0
 10
35.78402051219274
 20
38.878756031164897
 30
0.0
 40
20.000000000000242
 50
315.54005444564569
 51
344.459945554353
  0
LINE
  5
B21
  8
0
 10
101.8848512640773
 20
19.512307232513329
 30
0.0
 11
105.7840205121928
 21
19.512307232513329
 31
0.0
  0
LINE
  5
B22
  8
0
 10
101.8848512640773
 20
24.870546580198749
 30
0.0
 11
105.7840205121928
 21
24.870546580198749
 31
0.0
  0
LINE
  5
B23
  8
0
 10
101.8848512640773
 20
33.520516683479322
 30
0.0
 11
105.7840205121928
 21
33.520516683479322
 31
0.0
  0
CIRCLE
  5
B24
  8
0
 10
35.784020512192967
 20
38.878756031164727
 30
0.0
 40
9.0
  0
LINE
  5
B25
  8
2
 10
96.784020512192853
 20
30.87875603116473
 30
0.0
 11
96.784020512192853
 21
46.878756031164727
 31
0.0
  0
LINE
  5
B26
  8
0
 10
95.784020512192853
 20
47.87875603116472
 30
0.0
 11
95.784020512192853
 21
47.87875603116472
 31
0.0
  0
LINE
  5
B27
  8
0
 10
95.784020512192853
 20
47.87875603116472
 30
0.0
 11
95.784020512192853
 21
29.87875603116473
 31
0.0
  0
ARC
  5
B28
  8
0
 10
169.2346842260082
 20
38.878756031164727
 30
0.0
 40
74.000000000000014
 50
167.44414220141391
 51
173.01429978378559
  0
ARC
  5
B29
  8
0
 10
101.8848512640773
 20
53.878756031164947
 30
0.0
 40
5.0
 50
90.0
 51
167.44414220141391
  0
LINE
  5
B2A
  8
0
 10
101.8848512640773
 20
58.878756031164947
 30
0.0
 11
105.7840205121928
 21
58.878756031164897
 31
0.0
  0
ARC
  5
B2B
  8
0
 10
105.7840205121928
 20
57.87875603116489
 30
0.0
 40
1.0
 50
0.0
 51
90.0
  0
LINE
  5
B2C
  8
0
 10
95.784020512192853
 20
47.87875603116472
 30
0.0
 11
95.784020512192853
 21
47.87875603116472
 31
0.0
  0
LINE
  5
B2D
  8
2
 10
95.784020512192853
 20
47.87875603116472
 30
0.0
 11
96.784020512192853
 21
46.878756031164727
 31
0.0
  0
LINE
  5
B2E
  8
0
 10
95.784020512192853
 20
29.87875603116473
 30
0.0
 11
95.784020512192853
 21
29.87875603116473
 31
0.0
  0
LINE
  5
B2F
  8
0
 10
95.784020512192853
 20
29.87875603116473
 30
0.0
 11
95.784020512192853
 21
29.87875603116473
 31
0.0
  0
LINE
  5
B30
  8
2
 10
109.30752051219289
 20
42.202256031164808
 30
0.0
 11
99.784020512192853
 21
42.202256031164808
 31
0.0
  0
LINE
  5
B31
  8
2
 10
109.9840205121928
 20
42.87875603116472
 30
0.0
 11
104.7840205121928
 21
42.87875603116472
 31
0.0
  0
LINE
  5
B32
  8
2
 10
99.784020512192853
 20
42.202256031164907
 30
0.0
 11
97.787060244854672
 21
38.878756031164727
 31
0.0
  0
LINE
  5
B33
  8
2
 10
104.7840205121927
 20
34.878756031164727
 30
0.0
 11
104.7840205121928
 21
42.87875603116472
 31
0.0
  0
LINE
  5
B34
  8
2
 10
99.784020512192853
 20
35.555256031164653
 30
0.0
 11
99.784020512192853
 21
42.202256031164808
 31
0.0
  0
LINE
  5
B35
  8
2
 10
104.7840205121928
 20
42.87875603116472
 30
0.0
 11
103.61228814087259
 21
42.202256031164808
 31
0.0
  0
LINE
  5
B36
  8
2
 10
120.2605205121928
 20
42.87875603116472
 30
0.0
 11
120.7840205121928
 21
43.40225603116474
 31
0.0
  0
LINE
  5
B8D
  8
0
 10
101.8848512640773
 20
58.245204829816103
 30
0.0
 11
105.7840205121928
 21
58.245204829816103
 31
0.0
  0
LINE
  5
B8E
  8
0
 10
101.8848512640773
 20
52.886965482130691
 30
0.0
 11
105.7840205121928
 21
52.886965482130691
 31
0.0
  0
ARC
  5
B8F
  8
0
 10
101.6440639114556
 20
64.811039428453853
 30
0.0
 40
11.92650485375184
 50
256.31768411252392
 51
271.15683820500618
  0
ARC
  5
B90
  8
0
 10
101.8409109535788
 20
53.958576225168578
 30
0.0
 40
4.2868538049564364
 50
89.412707187320976
 51
178.989192931644
  0
ARC
  5
B91
  8
0
 10
99.206548738734114
 20
55.219660354378462
 30
0.0
 40
2.033184446384718
 50
215.66575174243101
 51
259.12600678576689
  0
LINE
  5
BA7
  8
0
 10
122.2840195976767
 20
35.428755595680983
 30
0.0
 11
120.7840195976766
 21
35.428756031164873
 31
0.0
  0
LINE
  5
BA8
  8
0
 10
122.2840194670315
 20
34.978755595681008
 30
0.0
 11
120.7840194670314
 21
34.978756031164892
 31
0.0
  0
LINE
  5
BA9
  8
0
 10
122.2840195976767
 20
42.328756466648457
 30
0.0
 11
120.7840195976766
 21
42.328756031164581
 31
0.0
  0
LINE
  5
BAA
  8
0
 10
122.2840194670315
 20
42.778756466648453
 30
0.0
 11
120.7840194670314
 21
42.778756031164562
 31
0.0
  0
TEXT
  5
C61
  8
0
 62
     3
 10
0.0
 20
0.0
 30
0.0
 40
10.0
  1
HK40X50-SUS
  7
STANDARD1
  0
ENDSEC
  0
EOF
