  0
SECTION
  2
HEADER
  9
$ACADVER
  1
AC1009
  9
$INSBASE
 10
0.0
 20
0.0
 30
0.0
  9
$EXTMIN
 10
0.0
 20
-2.960436562073669
 30
0.0
  9
$EXTMAX
 10
330.0
 20
254.78185197433021
 30
0.0
  9
$LIMMIN
 10
0.0
 20
0.0
  9
$LIMMAX
 10
375.0
 20
270.0
  9
$ORTHOMODE
 70
     1
  9
$REGENMODE
 70
     1
  9
$FILLMODE
 70
     1
  9
$QTEXTMODE
 70
     0
  9
$MIRRTEXT
 70
     0
  9
$DRAGMODE
 70
     2
  9
$LTSCALE
 40
10.0
  9
$OSMODE
 70
    55
  9
$ATTMODE
 70
     1
  9
$TEXTSIZE
 40
0.2
  9
$TRACEWID
 40
0.05
  9
$TEXTSTYLE
  7
STANDARD
  9
$CLAYER
  8
0
  9
$CELTYPE
  6
BYLAYER
  9
$CECOLOR
 62
   256
  9
$DIMSCALE
 40
1.0
  9
$DIMASZ
 40
3.0
  9
$DIMEXO
 40
2.0
  9
$DIMDLI
 40
0.3799999999999999
  9
$DIMRND
 40
0.0
  9
$DIMDLE
 40
0.0
  9
$DIMEXE
 40
2.0
  9
$DIMTP
 40
0.0
  9
$DIMTM
 40
0.0
  9
$DIMTXT
 40
3.2000000000000002
  9
$DIMCEN
 40
0.09
  9
$DIMTSZ
 40
0.0
  9
$DIMTOL
 70
     0
  9
$DIMLIM
 70
     0
  9
$DIMTIH
 70
     0
  9
$DIMTOH
 70
     0
  9
$DIMSE1
 70
     0
  9
$DIMSE2
 70
     0
  9
$DIMTAD
 70
     1
  9
$DIMZIN
 70
     0
  9
$DIMBLK
  1

  9
$DIMASO
 70
     0
  9
$DIMSHO
 70
     0
  9
$DIMPOST
  1

  9
$DIMAPOST
  1

  9
$DIMALT
 70
     0
  9
$DIMALTD
 70
     2
  9
$DIMALTF
 40
25.399999999999999
  9
$DIMLFAC
 40
1.0
  9
$DIMTOFL
 70
     0
  9
$DIMTVP
 40
0.0
  9
$DIMTIX
 70
     0
  9
$DIMSOXD
 70
     0
  9
$DIMSAH
 70
     0
  9
$DIMBLK1
  1

  9
$DIMBLK2
  1

  9
$DIMSTYLE
  2
STANDARD
  9
$DIMCLRD
 70
     0
  9
$DIMCLRE
 70
     0
  9
$DIMCLRT
 70
     0
  9
$DIMTFAC
 40
1.0
  9
$DIMGAP
 40
0.09
  9
$LUNITS
 70
     2
  9
$LUPREC
 70
     4
  9
$SKETCHINC
 40
0.1
  9
$FILLETRAD
 40
0.0
  9
$AUNITS
 70
     0
  9
$AUPREC
 70
     0
  9
$MENU
  1
E:\r13\win\SUPPORT\ACAD
  9
$ELEVATION
 40
0.0
  9
$PELEVATION
 40
0.0
  9
$THICKNESS
 40
0.0
  9
$LIMCHECK
 70
     0
  9
$BLIPMODE
 70
     0
  9
$CHAMFERA
 40
0.0
  9
$CHAMFERB
 40
0.0
  9
$SKPOLY
 70
     0
  9
$TDCREATE
 40
2449840.6021412038
  9
$TDUPDATE
 40
2456598.6878401511
  9
$TDINDWG
 40
0.0149671296
  9
$TDUSRTIMER
 40
0.0149671296
  9
$USRTIMER
 70
     1
  9
$ANGBASE
 50
0.0
  9
$ANGDIR
 70
     0
  9
$PDMODE
 70
     0
  9
$PDSIZE
 40
0.0
  9
$PLINEWID
 40
0.0
  9
$COORDS
 70
     1
  9
$SPLFRAME
 70
     0
  9
$SPLINETYPE
 70
     6
  9
$SPLINESEGS
 70
     8
  9
$ATTDIA
 70
     0
  9
$ATTREQ
 70
     1
  9
$HANDLING
 70
     1
  9
$HANDSEED
  5
401
  9
$SURFTAB1
 70
     6
  9
$SURFTAB2
 70
     6
  9
$SURFTYPE
 70
     6
  9
$SURFU
 70
     6
  9
$SURFV
 70
     6
  9
$UCSNAME
  2

  9
$UCSORG
 10
0.0
 20
0.0
 30
0.0
  9
$UCSXDIR
 10
1.0
 20
0.0
 30
0.0
  9
$UCSYDIR
 10
0.0
 20
1.0
 30
0.0
  9
$PUCSNAME
  2

  9
$PUCSORG
 10
0.0
 20
0.0
 30
0.0
  9
$PUCSXDIR
 10
1.0
 20
0.0
 30
0.0
  9
$PUCSYDIR
 10
0.0
 20
1.0
 30
0.0
  9
$USERI1
 70
     0
  9
$USERI2
 70
     1
  9
$USERI3
 70
     0
  9
$USERI4
 70
     0
  9
$USERI5
 70
     0
  9
$USERR1
 40
0.0
  9
$USERR2
 40
0.0
  9
$USERR3
 40
0.0
  9
$USERR4
 40
0.0
  9
$USERR5
 40
0.0
  9
$WORLDVIEW
 70
     1
  9
$SHADEDGE
 70
     3
  9
$SHADEDIF
 70
    70
  9
$TILEMODE
 70
     1
  9
$MAXACTVP
 70
    16
  9
$PLIMCHECK
 70
     0
  9
$PEXTMIN
 10
1.0000000000000000E+020
 20
1.0000000000000000E+020
 30
1.0000000000000000E+020
  9
$PEXTMAX
 10
-1.0000000000000000E+020
 20
-1.0000000000000000E+020
 30
-1.0000000000000000E+020
  9
$PLIMMIN
 10
0.0
 20
0.0
  9
$PLIMMAX
 10
12.0
 20
9.0
  9
$UNITMODE
 70
     0
  9
$VISRETAIN
 70
     0
  9
$PLINEGEN
 70
     0
  9
$PSLTSCALE
 70
     0
  0
ENDSEC
  0
SECTION
  2
TABLES
  0
TABLE
  2
VPORT
 70
     1
  0
VPORT
  2
*ACTIVE
 70
     0
 10
0.0
 20
0.0
 11
1.0
 21
1.0
 12
187.49427839065231
 22
174.91677254346851
 13
0.0
 23
0.0
 14
10.0
 24
10.0
 15
10.0
 25
10.0
 16
0.0
 26
0.0
 36
1.0
 17
0.0
 27
0.0
 37
0.0
 40
358.92027899574339
 41
1.7807262569832401
 42
50.0
 43
0.0
 44
0.0
 50
0.0
 51
0.0
 71
     0
 72
   500
 73
     1
 74
     0
 75
     0
 76
     0
 77
     0
 78
     1
  0
ENDTAB
  0
TABLE
  2
LTYPE
 70
     4
  0
LTYPE
  2
CONTINUOUS
 70
     0
  3
Solid Line
 72
    65
 73
     0
 40
0.0
  0
LTYPE
  2
CENTER
 70
     0
  3
____ _ ____ _ ____ _ ____ _ ____ _ ____ _ ____
 72
    65
 73
     4
 40
2.0
 49
1.25
 49
-0.25
 49
0.25
 49
-0.25
  0
LTYPE
  2
HIDDEN
 70
     0
  3
_ _ _ _ _ _ _ _ _ _ _ _ _ _ _ _ _ _ _ _ _ _ _
 72
    65
 73
     2
 40
0.375
 49
0.25
 49
-0.125
  0
LTYPE
  2
PHANTOM2
 70
     0
  3
___ _ _ ___ _ _ ___ _ _ ___ _ _
 72
    65
 73
     6
 40
1.25
 49
0.625
 49
-0.125
 49
0.125
 49
-0.125
 49
0.125
 49
-0.125
  0
ENDTAB
  0
TABLE
  2
LAYER
 70
     3
  0
LAYER
  2
0
 70
     0
 62
     7
  6
CONTINUOUS
  0
LAYER
  2
1
 70
     0
 62
     1
  6
CENTER
  0
LAYER
  2
2
 70
     0
 62
     2
  6
HIDDEN
  0
ENDTAB
  0
TABLE
  2
STYLE
 70
     2
  0
STYLE
  2
STANDARD
 70
     0
 40
0.0
 41
1.0
 50
0.0
 71
     0
 42
0.2
  3
TXT
  4
BIGFONT
  0
STYLE
  2
STANDARD1
 70
     0
 40
0.0
 41
1.0
 50
0.0
 71
     0
 42
3.0
  3
txt
  4

  0
ENDTAB
  0
TABLE
  2
VIEW
 70
     1
  0
VIEW
  2
ALL
 70
     0
 40
270.0
 10
220.99159663865549
 20
135.0
 41
0.0
 11
0.0
 21
0.0
 31
1.0
 12
0.0
 22
0.0
 32
0.0
 42
0.0
 43
0.0
 44
0.0
 50
0.0
 71
     0
  0
ENDTAB
  0
TABLE
  2
UCS
 70
     0
  0
ENDTAB
  0
TABLE
  2
APPID
 70
     3
  0
APPID
  2
ACAD
 70
     0
  0
APPID
  2
ACAD_MLEADERVER
 70
     0
  0
APPID
  2
ACAD_NAV_VCDISPLAY
 70
     0
  0
ENDTAB
  0
TABLE
  2
DIMSTYLE
 70
     1
  0
DIMSTYLE
  2
STANDARD
 70
     0
  3

  4

  5

  6

  7

 40
1.0
 41
0.18
 42
0.0625
 43
0.38
 44
0.18
 45
0.0
 46
0.0
 47
0.0
 48
0.0
140
0.18
141
0.09
142
0.0
143
25.399999999999999
144
1.0
145
0.0
146
1.0
147
0.09
 71
     0
 72
     0
 73
     1
 74
     1
 75
     0
 76
     0
 77
     0
 78
     0
170
     0
171
     2
172
     0
173
     0
174
     0
175
     0
176
     0
177
     0
178
     0
  0
ENDTAB
  0
ENDSEC
  0
SECTION
  2
BLOCKS
  0
BLOCK
  8
0
  2
$MODEL_SPACE
 70
     0
 10
0.0
 20
0.0
 30
0.0
  3
$MODEL_SPACE
  1

  0
ENDBLK
  5
20A
  8
0
  0
BLOCK
 67
     1
  8
0
  2
$PAPER_SPACE
 70
     0
 10
0.0
 20
0.0
 30
0.0
  3
$PAPER_SPACE
  1

  0
ENDBLK
  5
208
 67
     1
  8
0
  0
ENDSEC
  0
SECTION
  2
ENTITIES
  0
ARC
  5
35
  8
0
 10
213.7231765597092
 20
173.73428289111959
 30
0.0
 40
25.0
 50
209.83186876736389
 51
270.16813123266093
  0
ARC
  5
36
  8
0
 10
188.47317655971861
 20
130.0
 30
0.0
 40
31.5
 50
23.50571829196868
 51
36.494281708090412
  0
ARC
  5
37
  8
0
 10
238.97317655971861
 20
130.00000000001091
 30
0.0
 40
25.0
 50
149.8318687673638
 51
210.1681312326609
  0
ARC
  5
38
  8
0
 10
188.47317655971861
 20
130.0
 30
0.0
 40
31.5
 50
323.50571829196872
 51
336.49428170809051
  0
ARC
  5
39
  8
0
 10
213.7231765597281
 20
86.265717108891295
 30
0.0
 40
25.0
 50
89.831868767363929
 51
150.1681312326609
  0
ARC
  5
3A
  8
0
 10
188.47317655971861
 20
130.0
 30
0.0
 40
31.5
 50
263.50571829196872
 51
276.49428170809051
  0
ARC
  5
3B
  8
0
 10
163.2231765597281
 20
86.265717108880381
 30
0.0
 40
25.0
 50
29.8318687673639
 51
90.168131232660869
  0
ARC
  5
3C
  8
0
 10
188.47317655971861
 20
130.0
 30
0.0
 40
31.5
 50
203.50571829196869
 51
216.49428170809051
  0
ARC
  5
3D
  8
0
 10
188.47317655971861
 20
130.0
 30
0.0
 40
31.5
 50
143.50571829196869
 51
156.4942817080904
  0
CIRCLE
  5
3E
  8
0
 10
188.47317655970599
 20
130.0
 30
0.0
 40
14.5
  0
ARC
  5
3F
  8
0
 10
188.47317655971861
 20
130.0
 30
0.0
 40
31.5
 50
83.505718291968705
 51
96.494281708090483
  0
ARC
  5
40
  8
0
 10
163.22317655970909
 20
173.73428289110871
 30
0.0
 40
25.0
 50
269.83186876736403
 51
330.16813123266093
  0
LINE
  5
41
  8
1
 10
188.47317655971861
 20
171.5
 30
0.0
 11
188.47317655971861
 21
88.499999999999986
 31
0.0
  0
LINE
  5
42
  8
1
 10
146.97317655971861
 20
130.0
 30
0.0
 11
229.97317655971861
 21
130.0
 31
0.0
  0
LINE
  5
43
  8
1
 10
330.0
 20
130.0
 30
0.0
 11
270.0
 21
130.0
 31
0.0
  0
LINE
  5
44
  8
0
 10
280.0
 20
144.5
 30
0.0
 11
280.0
 21
115.5
 31
0.0
  0
ARC
  5
45
  8
0
 10
378.94316550424293
 20
130.0
 30
0.0
 40
100.0
 50
188.33727918890571
 51
198.36081379392579
  0
LINE
  5
46
  8
0
 10
320.0
 20
118.5
 30
0.0
 11
319.0
 21
117.5
 31
0.0
  0
LINE
  5
47
  8
0
 10
319.0
 20
117.5
 30
0.0
 11
294.39999999999998
 21
117.5
 31
0.0
  0
LINE
  5
48
  8
0
 10
294.0
 20
99.500000000000014
 30
0.0
 11
293.0
 21
98.500000000000014
 31
0.0
  0
LINE
  5
49
  8
0
 10
293.0
 20
98.500000000000014
 30
0.0
 11
284.03399840221851
 21
98.500000000000014
 31
0.0
  0
ARC
  5
4A
  8
0
 10
294.39999999999998
 20
117.09999999999999
 30
0.0
 40
0.4
 50
90.0
 51
180.0
  0
LINE
  5
4B
  8
0
 10
294.0
 20
117.4365213423734
 30
0.0
 11
284.03399840221851
 21
117.4365213423734
 31
0.0
  0
LINE
  5
4C
  8
0
 10
284.03399840221851
 20
117.4365213423734
 30
0.0
 11
284.03399840221851
 21
111.2656094719713
 31
0.0
  0
LINE
  5
4D
  8
0
 10
284.03399840221851
 20
111.2656094719713
 30
0.0
 11
294.0
 21
111.2656094719713
 31
0.0
  0
ARC
  5
4E
  8
0
 10
284.83155275401822
 20
107.9403617318528
 30
0.0
 40
3.4195563275428089
 50
103.4875037603036
 51
180.40229076940079
  0
ARC
  5
4F
  8
0
 10
294.39999999999998
 20
142.90000000000001
 30
0.0
 40
0.4
 50
180.0
 51
270.0
  0
LINE
  5
50
  8
0
 10
293.0
 20
161.5
 30
0.0
 11
284.03399840221851
 21
161.5
 31
0.0
  0
LINE
  5
51
  8
0
 10
294.0
 20
160.5
 30
0.0
 11
293.0
 21
161.5
 31
0.0
  0
LINE
  5
52
  8
0
 10
319.0
 20
142.5
 30
0.0
 11
294.39999999999998
 21
142.5
 31
0.0
  0
LINE
  5
53
  8
0
 10
320.0
 20
141.5
 30
0.0
 11
319.0
 21
142.5
 31
0.0
  0
ARC
  5
54
  8
0
 10
378.94316550424293
 20
130.0
 30
0.0
 40
100.0
 50
161.6391862060741
 51
171.66272081109429
  0
LINE
  5
55
  8
0
 10
320.0
 20
118.5
 30
0.0
 11
320.0
 21
141.5
 31
0.0
  0
LINE
  5
56
  8
0
 10
319.0
 20
117.5
 30
0.0
 11
319.00000000000011
 21
142.5
 31
0.0
  0
LINE
  5
57
  8
0
 10
294.0
 20
99.500000000000014
 30
0.0
 11
294.0
 21
160.49999999999989
 31
0.0
  0
ARC
  5
58
  8
0
 10
312.82333538478173
 20
130.0
 30
0.0
 40
31.411254668927569
 50
180.0
 51
203.57614209695089
  0
LINE
  5
59
  8
2
 10
320.0
 20
132.5
 30
0.0
 11
295.0
 21
132.5
 31
0.0
  0
LINE
  5
5A
  8
2
 10
295.0
 20
127.5
 30
0.0
 11
295.0
 21
132.5
 31
0.0
  0
LINE
  5
5B
  8
2
 10
295.0
 20
132.5
 30
0.0
 11
292.50000000000011
 21
130.0
 31
0.0
  0
LINE
  5
5C
  8
2
 10
295.0
 20
127.5
 30
0.0
 11
292.50000000000011
 21
130.0
 31
0.0
  0
LINE
  5
5E
  8
2
 10
320.0
 20
127.5
 30
0.0
 11
295.0
 21
127.5
 31
0.0
  0
ARC
  5
5F
  8
0
 10
312.82333538478173
 20
130.0
 30
0.0
 40
31.411254668927569
 50
156.42385790304911
 51
180.0
  0
LINE
  5
60
  8
0
 10
284.03399840221851
 20
142.56347865762649
 30
0.0
 11
284.03399840221851
 21
148.7343905280286
 31
0.0
  0
ARC
  5
61
  8
0
 10
284.83155275401822
 20
152.0596382681471
 30
0.0
 40
3.4195563275428089
 50
179.59770923059921
 51
256.51249623969642
  0
LINE
  5
62
  8
0
 10
284.03399840221851
 20
148.7343905280286
 30
0.0
 11
294.0
 21
148.7343905280286
 31
0.0
  0
LINE
  5
63
  8
0
 10
294.0
 20
142.56347865762649
 30
0.0
 11
284.03399840221851
 21
142.56347865762649
 31
0.0
  0
LINE
  5
64
  8
0
 10
81.946353119437276
 20
142.56347865762649
 30
0.0
 11
91.912354717218804
 21
142.56347865762649
 31
0.0
  0
LINE
  5
65
  8
0
 10
91.912354717218804
 20
148.7343905280286
 30
0.0
 11
81.946353119437276
 21
148.7343905280286
 31
0.0
  0
ARC
  5
66
  8
0
 10
91.114800365419043
 20
152.0596382681471
 30
0.0
 40
3.4195563275428089
 50
283.4875037603037
 51
0.4022907694008302
  0
LINE
  5
67
  8
0
 10
91.912354717218804
 20
142.56347865762649
 30
0.0
 11
91.912354717218804
 21
148.7343905280286
 31
0.0
  0
ARC
  5
68
  8
0
 10
63.123017734655598
 20
130.0
 30
0.0
 40
31.411254668927569
 50
360.0
 51
23.576142096950889
  0
LINE
  5
69
  8
2
 10
55.946353119437269
 20
127.5
 30
0.0
 11
80.946353119437276
 21
127.5
 31
0.0
  0
LINE
  5
6A
  8
2
 10
80.946353119437276
 20
132.5
 30
0.0
 11
80.946353119437276
 21
127.5
 31
0.0
  0
LINE
  5
6B
  8
2
 10
80.946353119437276
 20
127.5
 30
0.0
 11
83.446353119437219
 21
130.0
 31
0.0
  0
LINE
  5
6C
  8
2
 10
80.946353119437276
 20
132.5
 30
0.0
 11
83.446353119437219
 21
130.0
 31
0.0
  0
LINE
  5
6E
  8
2
 10
55.946353119437269
 20
132.5
 30
0.0
 11
80.946353119437276
 21
132.5
 31
0.0
  0
ARC
  5
6F
  8
0
 10
63.123017734655598
 20
130.0
 30
0.0
 40
31.411254668927569
 50
336.42385790304911
 51
0.0000000000000509
  0
LINE
  5
70
  8
0
 10
81.946353119437276
 20
99.500000000000014
 30
0.0
 11
81.946353119437276
 21
160.49999999999989
 31
0.0
  0
LINE
  5
71
  8
0
 10
56.946353119437269
 20
117.5
 30
0.0
 11
56.946353119437219
 21
142.5
 31
0.0
  0
LINE
  5
72
  8
0
 10
55.946353119437269
 20
118.5
 30
0.0
 11
55.946353119437269
 21
141.5
 31
0.0
  0
ARC
  5
73
  8
0
 10
-2.996812384805593
 20
130.0
 30
0.0
 40
100.0
 50
8.3372791889056792
 51
18.360813793925871
  0
LINE
  5
74
  8
0
 10
55.946353119437269
 20
141.5
 30
0.0
 11
56.946353119437269
 21
142.5
 31
0.0
  0
LINE
  5
75
  8
0
 10
56.946353119437269
 20
142.5
 30
0.0
 11
81.546353119437242
 21
142.5
 31
0.0
  0
LINE
  5
76
  8
0
 10
81.946353119437276
 20
160.5
 30
0.0
 11
82.946353119437276
 21
161.5
 31
0.0
  0
LINE
  5
77
  8
0
 10
82.946353119437276
 20
161.5
 30
0.0
 11
91.912354717218804
 21
161.5
 31
0.0
  0
ARC
  5
78
  8
0
 10
81.546353119437242
 20
142.90000000000001
 30
0.0
 40
0.4
 50
270.00000000000011
 51
0.0000000000000254
  0
ARC
  5
79
  8
0
 10
91.114800365419043
 20
107.9403617318528
 30
0.0
 40
3.4195563275428089
 50
359.59770923059921
 51
76.512496239696361
  0
LINE
  5
7A
  8
0
 10
91.912354717218804
 20
111.2656094719713
 30
0.0
 11
81.946353119437276
 21
111.2656094719713
 31
0.0
  0
LINE
  5
7B
  8
0
 10
91.912354717218804
 20
117.4365213423734
 30
0.0
 11
91.912354717218804
 21
111.2656094719713
 31
0.0
  0
LINE
  5
7C
  8
0
 10
81.946353119437276
 20
117.4365213423734
 30
0.0
 11
91.912354717218804
 21
117.4365213423734
 31
0.0
  0
ARC
  5
7D
  8
0
 10
81.546353119437242
 20
117.09999999999999
 30
0.0
 40
0.4
 50
0.0000000000000254
 51
90.000000000000028
  0
LINE
  5
7E
  8
0
 10
82.946353119437276
 20
98.500000000000014
 30
0.0
 11
91.912354717218804
 21
98.500000000000014
 31
0.0
  0
LINE
  5
7F
  8
0
 10
81.946353119437276
 20
99.500000000000014
 30
0.0
 11
82.946353119437276
 21
98.500000000000014
 31
0.0
  0
LINE
  5
80
  8
0
 10
56.946353119437269
 20
117.5
 30
0.0
 11
81.546353119437242
 21
117.5
 31
0.0
  0
LINE
  5
81
  8
0
 10
55.946353119437269
 20
118.5
 30
0.0
 11
56.946353119437269
 21
117.5
 31
0.0
  0
ARC
  5
82
  8
0
 10
-2.996812384805593
 20
130.0
 30
0.0
 40
100.0
 50
341.63918620607421
 51
351.66272081109429
  0
LINE
  5
83
  8
0
 10
95.946353119437276
 20
144.5
 30
0.0
 11
95.946353119437276
 21
115.5
 31
0.0
  0
LINE
  5
84
  8
1
 10
45.946353119437269
 20
130.0
 30
0.0
 11
105.94635311943721
 21
130.0
 31
0.0
  0
LINE
  5
85
  8
2
 10
190.97317655971861
 20
19.136204444052279
 30
0.0
 11
190.97317655971861
 21
44.136204444052282
 31
0.0
  0
LINE
  5
87
  8
2
 10
190.97317655971861
 20
44.136204444052282
 30
0.0
 11
188.47317655971861
 21
46.636204444052218
 31
0.0
  0
LINE
  5
88
  8
2
 10
185.97317655971861
 20
44.136204444052282
 30
0.0
 11
188.47317655971861
 21
46.636204444052218
 31
0.0
  0
LINE
  5
89
  8
2
 10
190.97317655971861
 20
44.136204444052282
 30
0.0
 11
185.97317655971861
 21
44.136204444052282
 31
0.0
  0
LINE
  5
8A
  8
2
 10
185.97317655971861
 20
19.136204444052279
 30
0.0
 11
185.97317655971861
 21
44.136204444052282
 31
0.0
  0
LINE
  5
8B
  8
0
 10
200.97317655971861
 20
20.136204444052279
 30
0.0
 11
175.97317655971861
 21
20.136204444052229
 31
0.0
  0
LINE
  5
8C
  8
0
 10
199.97317655971861
 20
19.136204444052279
 30
0.0
 11
176.97317655971861
 21
19.136204444052279
 31
0.0
  0
LINE
  5
8D
  8
0
 10
176.97317655971861
 20
19.136204444052279
 30
0.0
 11
175.97317655971861
 21
20.136204444052289
 31
0.0
  0
LINE
  5
8E
  8
0
 10
175.97317655971861
 20
20.136204444052289
 30
0.0
 11
175.97317655971861
 21
44.736204444052241
 31
0.0
  0
ARC
  5
8F
  8
0
 10
175.5731765597186
 20
44.736204444052241
 30
0.0
 40
0.4
 50
0.0000000000000368
 51
90.000000000000028
  0
ARC
  5
90
  8
0
 10
201.37317655971859
 20
44.736204444052241
 30
0.0
 40
0.4
 50
90.000000000000028
 51
180.0
  0
LINE
  5
91
  8
0
 10
200.97317655971861
 20
20.136204444052279
 30
0.0
 11
200.97317655971861
 21
44.736204444052241
 31
0.0
  0
LINE
  5
92
  8
0
 10
199.97317655971861
 20
19.136204444052279
 30
0.0
 11
200.97317655971861
 21
20.136204444052279
 31
0.0
  0
LINE
  5
93
  8
0
 10
217.3593151735827
 20
45.136204444052268
 30
0.0
 11
159.58703794586
 21
45.136204444052289
 31
0.0
  0
LINE
  5
94
  8
1
 10
188.47317655971861
 20
9.1362044440522858
 30
0.0
 11
188.47317655971861
 21
69.136204444052282
 31
0.0
  0
LINE
  5
95
  8
0
 10
173.97317655971861
 20
59.136204444052282
 30
0.0
 11
202.97317655971861
 21
59.136204444052282
 31
0.0
  0
ARC
  5
96
  8
0
 10
188.47317655971861
 20
-39.806961060190588
 30
0.0
 40
100.0
 50
75.226414849092848
 51
81.662720811094331
  0
ARC
  5
97
  8
0
 10
188.47317655971861
 20
-39.806961060190588
 30
0.0
 40
100.0
 50
98.337279188905683
 51
104.77358515090739
  0
LINE
  5
98
  8
0
 10
159.58703794586
 20
55.102206041833817
 30
0.0
 11
163.14981557537871
 21
55.102206041833817
 31
0.0
  0
LINE
  5
99
  8
0
 10
159.58703794586
 20
55.102206041833803
 30
0.0
 11
159.58703794586
 21
45.136204444052289
 31
0.0
  0
LINE
  5
9A
  8
0
 10
163.14981557537871
 20
55.102206041833817
 30
0.0
 11
163.14981557537871
 21
45.136204444052289
 31
0.0
  0
LINE
  5
9B
  8
0
 10
184.910398930208
 20
55.102206041833817
 30
0.0
 11
184.91039893020809
 21
45.136204444052289
 31
0.0
  0
LINE
  5
9C
  8
0
 10
192.0359541892428
 20
55.102206041833817
 30
0.0
 11
192.0359541892428
 21
45.136204444052282
 31
0.0
  0
LINE
  5
9D
  8
0
 10
213.79653754406669
 20
55.102206041833817
 30
0.0
 11
213.79653754406669
 21
45.136204444052282
 31
0.0
  0
LINE
  5
9E
  8
0
 10
217.3593151735827
 20
55.102206041833817
 30
0.0
 11
217.3593151735827
 21
45.136204444052282
 31
0.0
  0
LINE
  5
9F
  8
0
 10
213.79653754406669
 20
55.102206041833817
 30
0.0
 11
217.3593151735827
 21
55.102206041833817
 31
0.0
  0
LINE
  5
A0
  8
0
 10
184.91039893020809
 20
55.102206041833817
 30
0.0
 11
192.0359541892428
 21
55.102206041833817
 31
0.0
  0
ARC
  5
A1
  8
0
 10
174.03010725279319
 20
34.384581778022188
 30
0.0
 40
23.400869687302059
 50
62.29285530506256
 51
117.7071446949368
  0
ARC
  5
A2
  8
0
 10
202.91624586665469
 20
34.384581778033663
 30
0.0
 40
23.40086968729069
 50
62.292855305055603
 51
117.7071446949442
  0
POLYLINE
  5
A3
  8
0
 66
     1
 10
0.0
 20
0.0
 30
0.0
 70
     2
  0
VERTEX
  5
A4
  8
0
 10
159.58703794586
 20
55.102206041833817
 30
0.0
 42
0.0126797854940075
  0
VERTEX
  5
A5
  8
0
 10
160.48054909094199
 20
55.371501792426812
 30
0.0
 42
0.01950535619276
 70
     1
  0
VERTEX
  5
A6
  8
0
 10
161.04905339730621
 20
55.583605616029843
 30
0.0
 42
0.0027070604663837
  0
VERTEX
  5
A7
  8
0
 10
161.88915136014791
 20
55.940295376218707
 30
0.0
 42
0.0101006955439238
 70
     1
  0
VERTEX
  5
A8
  8
0
 10
162.11180260443859
 20
56.041635689612079
 30
0.0
 42
0.0363833292958664
  0
VERTEX
  5
A9
  8
0
 10
162.41008208974719
 20
56.212445245982167
 30
0.0
 42
0.0286881728505271
 70
     1
  0
VERTEX
  5
AA
  8
0
 10
162.75689753859979
 20
56.476184050917901
 30
0.0
 42
0.0949908764331623
  0
VERTEX
  5
AB
  8
0
 10
162.85251510161669
 20
56.595921796537539
 30
0.0
 42
0.0458578496150585
 70
     1
  0
VERTEX
  5
AC
  8
0
 10
162.97317655971869
 20
56.88714424101174
 30
0.0
  0
SEQEND
  5
AD
  8
0
  0
POLYLINE
  5
AE
  8
0
 66
     1
 10
0.0
 20
0.0
 30
0.0
 70
     2
  0
VERTEX
  5
AF
  8
0
 10
217.3593151735773
 20
55.102206041833817
 30
0.0
 42
-0.0126797854940075
  0
VERTEX
  5
B0
  8
0
 10
216.4658040284952
 20
55.371501792426812
 30
0.0
 42
-0.01950535619276
 70
     1
  0
VERTEX
  5
B1
  8
0
 10
215.89729972213101
 20
55.583605616029843
 30
0.0
 42
-0.0027070604663837
  0
VERTEX
  5
B2
  8
0
 10
215.0572017592894
 20
55.940295376218707
 30
0.0
 42
-0.0101006955439238
 70
     1
  0
VERTEX
  5
B3
  8
0
 10
214.8345505149986
 20
56.041635689612079
 30
0.0
 42
-0.0363833292958664
  0
VERTEX
  5
B4
  8
0
 10
214.53627102969
 20
56.212445245982167
 30
0.0
 42
-0.0286881728505271
 70
     1
  0
VERTEX
  5
B5
  8
0
 10
214.18945558083749
 20
56.476184050917901
 30
0.0
 42
-0.0949908764331623
  0
VERTEX
  5
B6
  8
0
 10
214.0938380178205
 20
56.595921796537539
 30
0.0
 42
-0.0458578496150585
 70
     1
  0
VERTEX
  5
B7
  8
0
 10
213.97317655971861
 20
56.88714424101174
 30
0.0
  0
SEQEND
  5
B8
  8
0
  0
ARC
  5
B9
  8
0
 10
137.97317655971861
 20
130.00000000001091
 30
0.0
 40
25.0
 50
329.83186876733907
 51
30.168131232636171
  0
POLYLINE
  5
BA
  8
0
 66
     1
 10
0.0
 20
0.0
 30
0.0
 70
     2
  0
VERTEX
  5
BB
  8
0
 10
217.3593151735773
 20
208.81585037654861
 30
0.0
 42
0.0126797854940075
  0
VERTEX
  5
BC
  8
0
 10
216.4658040284952
 20
208.54655462595559
 30
0.0
 42
0.01950535619276
 70
     1
  0
VERTEX
  5
BD
  8
0
 10
215.89729972213101
 20
208.33445080235259
 30
0.0
 42
0.0027070604663837
  0
VERTEX
  5
BE
  8
0
 10
215.0572017592894
 20
207.97776104216371
 30
0.0
 42
0.0101006955439238
 70
     1
  0
VERTEX
  5
BF
  8
0
 10
214.8345505149986
 20
207.8764207287704
 30
0.0
 42
0.0363833292958664
  0
VERTEX
  5
C0
  8
0
 10
214.53627102969
 20
207.7056111724003
 30
0.0
 42
0.0286881728505271
 70
     1
  0
VERTEX
  5
C1
  8
0
 10
214.18945558083749
 20
207.4418723674645
 30
0.0
 42
0.0949908764331623
  0
VERTEX
  5
C2
  8
0
 10
214.0938380178205
 20
207.3221346218449
 30
0.0
 42
0.0458578496150585
 70
     1
  0
VERTEX
  5
C3
  8
0
 10
213.97317655971861
 20
207.03091217737071
 30
0.0
  0
SEQEND
  5
C4
  8
0
  0
POLYLINE
  5
C5
  8
0
 66
     1
 10
0.0
 20
0.0
 30
0.0
 70
     2
  0
VERTEX
  5
C6
  8
0
 10
159.58703794586
 20
208.81585037654861
 30
0.0
 42
-0.0126797854940075
  0
VERTEX
  5
C7
  8
0
 10
160.48054909094199
 20
208.54655462595559
 30
0.0
 42
-0.01950535619276
 70
     1
  0
VERTEX
  5
C8
  8
0
 10
161.04905339730621
 20
208.33445080235259
 30
0.0
 42
-0.0027070604663837
  0
VERTEX
  5
C9
  8
0
 10
161.88915136014791
 20
207.97776104216371
 30
0.0
 42
-0.0101006955439238
 70
     1
  0
VERTEX
  5
CA
  8
0
 10
162.11180260443859
 20
207.8764207287704
 30
0.0
 42
-0.0363833292958664
  0
VERTEX
  5
CB
  8
0
 10
162.41008208974719
 20
207.7056111724003
 30
0.0
 42
-0.0286881728505271
 70
     1
  0
VERTEX
  5
CC
  8
0
 10
162.75689753859979
 20
207.4418723674645
 30
0.0
 42
-0.0949908764331623
  0
VERTEX
  5
CD
  8
0
 10
162.85251510161669
 20
207.3221346218449
 30
0.0
 42
-0.0458578496150585
 70
     1
  0
VERTEX
  5
CE
  8
0
 10
162.97317655971869
 20
207.03091217737071
 30
0.0
  0
SEQEND
  5
CF
  8
0
  0
ARC
  5
D0
  8
0
 10
202.91624586665469
 20
229.5334746403488
 30
0.0
 40
23.40086968729069
 50
242.29285530505581
 51
297.70714469494442
  0
ARC
  5
D1
  8
0
 10
174.03010725279319
 20
229.5334746403602
 30
0.0
 40
23.400869687302059
 50
242.29285530506331
 51
297.70714469493748
  0
LINE
  5
D2
  8
0
 10
184.91039893020809
 20
208.81585037654861
 30
0.0
 11
192.0359541892428
 21
208.81585037654861
 31
0.0
  0
LINE
  5
D3
  8
0
 10
213.79653754406669
 20
208.81585037654861
 30
0.0
 11
217.3593151735827
 21
208.81585037654861
 31
0.0
  0
LINE
  5
D4
  8
0
 10
217.3593151735827
 20
208.81585037654861
 30
0.0
 11
217.3593151735827
 21
218.78185197433021
 31
0.0
  0
LINE
  5
D5
  8
0
 10
213.79653754406669
 20
208.81585037654861
 30
0.0
 11
213.79653754406669
 21
218.78185197433021
 31
0.0
  0
LINE
  5
D6
  8
0
 10
192.0359541892428
 20
208.81585037654861
 30
0.0
 11
192.0359541892428
 21
218.78185197433021
 31
0.0
  0
LINE
  5
D7
  8
0
 10
184.910398930208
 20
208.81585037654861
 30
0.0
 11
184.91039893020809
 21
218.78185197433021
 31
0.0
  0
LINE
  5
D8
  8
0
 10
163.14981557537871
 20
208.81585037654861
 30
0.0
 11
163.14981557537871
 21
218.78185197433021
 31
0.0
  0
LINE
  5
D9
  8
0
 10
159.58703794586
 20
208.81585037654861
 30
0.0
 11
159.58703794586
 21
218.78185197433021
 31
0.0
  0
LINE
  5
DA
  8
0
 10
159.58703794586
 20
208.81585037654861
 30
0.0
 11
163.14981557537871
 21
208.81585037654861
 31
0.0
  0
ARC
  5
DB
  8
0
 10
188.47317655971861
 20
303.72501747857302
 30
0.0
 40
100.0
 50
255.22641484909249
 51
261.66272081109429
  0
ARC
  5
DC
  8
0
 10
188.47317655971861
 20
303.72501747857302
 30
0.0
 40
100.0
 50
278.33727918890571
 51
284.77358515090719
  0
LINE
  5
DD
  8
0
 10
173.97317655971861
 20
204.78185197433021
 30
0.0
 11
202.97317655971861
 21
204.78185197433021
 31
0.0
  0
LINE
  5
DE
  8
1
 10
188.47317655971861
 20
254.78185197433021
 30
0.0
 11
188.47317655971861
 21
194.7818519743301
 31
0.0
  0
LINE
  5
DF
  8
0
 10
217.3593151735827
 20
218.78185197433021
 30
0.0
 11
159.58703794586
 21
218.78185197433021
 31
0.0
  0
LINE
  5
E0
  8
0
 10
199.97317655971861
 20
244.78185197433021
 30
0.0
 11
200.97317655971861
 21
243.78185197433021
 31
0.0
  0
LINE
  5
E1
  8
0
 10
200.97317655971861
 20
243.78185197433021
 30
0.0
 11
200.97317655971861
 21
219.18185197433019
 31
0.0
  0
ARC
  5
E2
  8
0
 10
201.37317655971859
 20
219.18185197433019
 30
0.0
 40
0.4
 50
180.0
 51
270.0
  0
ARC
  5
E3
  8
0
 10
175.5731765597186
 20
219.18185197433019
 30
0.0
 40
0.4
 50
270.0
 51
360.0
  0
LINE
  5
E4
  8
0
 10
175.97317655971861
 20
243.78185197433021
 30
0.0
 11
175.97317655971861
 21
219.18185197433019
 31
0.0
  0
LINE
  5
E5
  8
0
 10
176.97317655971861
 20
244.78185197433021
 30
0.0
 11
175.97317655971861
 21
243.78185197433021
 31
0.0
  0
LINE
  5
E6
  8
0
 10
199.97317655971861
 20
244.78185197433021
 30
0.0
 11
176.97317655971861
 21
244.78185197433021
 31
0.0
  0
LINE
  5
E7
  8
0
 10
200.97317655971861
 20
243.78185197433021
 30
0.0
 11
175.97317655971861
 21
243.78185197433021
 31
0.0
  0
LINE
  5
E8
  8
2
 10
185.97317655971861
 20
244.78185197433021
 30
0.0
 11
185.97317655971861
 21
219.78185197433021
 31
0.0
  0
LINE
  5
E9
  8
2
 10
190.97317655971861
 20
219.78185197433021
 30
0.0
 11
185.97317655971861
 21
219.78185197433021
 31
0.0
  0
LINE
  5
EA
  8
2
 10
185.97317655971861
 20
219.78185197433021
 30
0.0
 11
188.47317655971861
 21
217.28185197433021
 31
0.0
  0
LINE
  5
EB
  8
2
 10
190.97317655971861
 20
219.78185197433021
 30
0.0
 11
188.47317655971861
 21
217.28185197433021
 31
0.0
  0
LINE
  5
ED
  8
2
 10
190.97317655971861
 20
244.78185197433021
 30
0.0
 11
190.97317655971861
 21
219.78185197433021
 31
0.0
  0
TEXT
  5
36A
  8
0
 62
     3
 10
0.0
 20
0.0
 30
0.0
 40
10.0
  1
HK4
  7
STANDARD1
  0
ENDSEC
  0
EOF
