  0
SECTION
  2
HEADER
  9
$ACADVER
  1
AC1009
  9
$INSBASE
 10
0.0
 20
0.0
 30
0.0
  9
$EXTMIN
 10
0.0
 20
-2.960436562073669
 30
0.0
  9
$EXTMAX
 10
305.0
 20
238.4957253921379
 30
0.0
  9
$LIMMIN
 10
0.0
 20
0.0
  9
$LIMMAX
 10
375.0
 20
270.0
  9
$ORTHOMODE
 70
     1
  9
$REGENMODE
 70
     1
  9
$FILLMODE
 70
     1
  9
$QTEXTMODE
 70
     0
  9
$MIRRTEXT
 70
     0
  9
$DRAGMODE
 70
     2
  9
$LTSCALE
 40
10.0
  9
$OSMODE
 70
    55
  9
$ATTMODE
 70
     1
  9
$TEXTSIZE
 40
0.2
  9
$TRACEWID
 40
0.05
  9
$TEXTSTYLE
  7
STANDARD
  9
$CLAYER
  8
0
  9
$CELTYPE
  6
BYLAYER
  9
$CECOLOR
 62
   256
  9
$DIMSCALE
 40
1.0
  9
$DIMASZ
 40
3.0
  9
$DIMEXO
 40
2.0
  9
$DIMDLI
 40
0.3799999999999999
  9
$DIMRND
 40
0.0
  9
$DIMDLE
 40
0.0
  9
$DIMEXE
 40
2.0
  9
$DIMTP
 40
0.0
  9
$DIMTM
 40
0.0
  9
$DIMTXT
 40
3.2000000000000002
  9
$DIMCEN
 40
0.09
  9
$DIMTSZ
 40
0.0
  9
$DIMTOL
 70
     0
  9
$DIMLIM
 70
     0
  9
$DIMTIH
 70
     0
  9
$DIMTOH
 70
     0
  9
$DIMSE1
 70
     0
  9
$DIMSE2
 70
     0
  9
$DIMTAD
 70
     1
  9
$DIMZIN
 70
     0
  9
$DIMBLK
  1

  9
$DIMASO
 70
     0
  9
$DIMSHO
 70
     0
  9
$DIMPOST
  1

  9
$DIMAPOST
  1

  9
$DIMALT
 70
     0
  9
$DIMALTD
 70
     2
  9
$DIMALTF
 40
25.399999999999999
  9
$DIMLFAC
 40
1.0
  9
$DIMTOFL
 70
     0
  9
$DIMTVP
 40
0.0
  9
$DIMTIX
 70
     0
  9
$DIMSOXD
 70
     0
  9
$DIMSAH
 70
     0
  9
$DIMBLK1
  1

  9
$DIMBLK2
  1

  9
$DIMSTYLE
  2
STANDARD
  9
$DIMCLRD
 70
     0
  9
$DIMCLRE
 70
     0
  9
$DIMCLRT
 70
     0
  9
$DIMTFAC
 40
1.0
  9
$DIMGAP
 40
0.09
  9
$LUNITS
 70
     2
  9
$LUPREC
 70
     4
  9
$SKETCHINC
 40
0.1
  9
$FILLETRAD
 40
0.0
  9
$AUNITS
 70
     0
  9
$AUPREC
 70
     0
  9
$MENU
  1
E:\r13\win\SUPPORT\ACAD
  9
$ELEVATION
 40
0.0
  9
$PELEVATION
 40
0.0
  9
$THICKNESS
 40
0.0
  9
$LIMCHECK
 70
     0
  9
$BLIPMODE
 70
     0
  9
$CHAMFERA
 40
0.0
  9
$CHAMFERB
 40
0.0
  9
$SKPOLY
 70
     0
  9
$TDCREATE
 40
2449840.6020949068
  9
$TDUPDATE
 40
2456598.6876178822
  9
$TDINDWG
 40
0.0101470949
  9
$TDUSRTIMER
 40
0.0101470949
  9
$USRTIMER
 70
     1
  9
$ANGBASE
 50
0.0
  9
$ANGDIR
 70
     0
  9
$PDMODE
 70
     0
  9
$PDSIZE
 40
0.0
  9
$PLINEWID
 40
0.0
  9
$COORDS
 70
     1
  9
$SPLFRAME
 70
     0
  9
$SPLINETYPE
 70
     6
  9
$SPLINESEGS
 70
     8
  9
$ATTDIA
 70
     0
  9
$ATTREQ
 70
     1
  9
$HANDLING
 70
     1
  9
$HANDSEED
  5
358
  9
$SURFTAB1
 70
     6
  9
$SURFTAB2
 70
     6
  9
$SURFTYPE
 70
     6
  9
$SURFU
 70
     6
  9
$SURFV
 70
     6
  9
$UCSNAME
  2

  9
$UCSORG
 10
0.0
 20
0.0
 30
0.0
  9
$UCSXDIR
 10
1.0
 20
0.0
 30
0.0
  9
$UCSYDIR
 10
0.0
 20
1.0
 30
0.0
  9
$PUCSNAME
  2

  9
$PUCSORG
 10
0.0
 20
0.0
 30
0.0
  9
$PUCSXDIR
 10
1.0
 20
0.0
 30
0.0
  9
$PUCSYDIR
 10
0.0
 20
1.0
 30
0.0
  9
$USERI1
 70
     0
  9
$USERI2
 70
     1
  9
$USERI3
 70
     0
  9
$USERI4
 70
     0
  9
$USERI5
 70
     0
  9
$USERR1
 40
0.0
  9
$USERR2
 40
0.0
  9
$USERR3
 40
0.0
  9
$USERR4
 40
0.0
  9
$USERR5
 40
0.0
  9
$WORLDVIEW
 70
     1
  9
$SHADEDGE
 70
     3
  9
$SHADEDIF
 70
    70
  9
$TILEMODE
 70
     1
  9
$MAXACTVP
 70
    16
  9
$PLIMCHECK
 70
     0
  9
$PEXTMIN
 10
1.0000000000000000E+020
 20
1.0000000000000000E+020
 30
1.0000000000000000E+020
  9
$PEXTMAX
 10
-1.0000000000000000E+020
 20
-1.0000000000000000E+020
 30
-1.0000000000000000E+020
  9
$PLIMMIN
 10
0.0
 20
0.0
  9
$PLIMMAX
 10
12.0
 20
9.0
  9
$UNITMODE
 70
     0
  9
$VISRETAIN
 70
     0
  9
$PLINEGEN
 70
     0
  9
$PSLTSCALE
 70
     0
  0
ENDSEC
  0
SECTION
  2
TABLES
  0
TABLE
  2
VPORT
 70
     1
  0
VPORT
  2
*ACTIVE
 70
     0
 10
0.0
 20
0.0
 11
1.0
 21
1.0
 12
187.49427839065231
 22
174.91677254346851
 13
0.0
 23
0.0
 14
10.0
 24
10.0
 15
10.0
 25
10.0
 16
0.0
 26
0.0
 36
1.0
 17
0.0
 27
0.0
 37
0.0
 40
358.92027899574339
 41
1.7807262569832401
 42
50.0
 43
0.0
 44
0.0
 50
0.0
 51
0.0
 71
     0
 72
   500
 73
     1
 74
     0
 75
     0
 76
     0
 77
     0
 78
     2
  0
ENDTAB
  0
TABLE
  2
LTYPE
 70
     4
  0
LTYPE
  2
CONTINUOUS
 70
     0
  3
Solid Line
 72
    65
 73
     0
 40
0.0
  0
LTYPE
  2
CENTER
 70
     0
  3
____ _ ____ _ ____ _ ____ _ ____ _ ____ _ ____
 72
    65
 73
     4
 40
2.0
 49
1.25
 49
-0.25
 49
0.25
 49
-0.25
  0
LTYPE
  2
HIDDEN
 70
     0
  3
_ _ _ _ _ _ _ _ _ _ _ _ _ _ _ _ _ _ _ _ _ _ _
 72
    65
 73
     2
 40
0.375
 49
0.25
 49
-0.125
  0
LTYPE
  2
PHANTOM2
 70
     0
  3
___ _ _ ___ _ _ ___ _ _ ___ _ _
 72
    65
 73
     6
 40
1.25
 49
0.625
 49
-0.125
 49
0.125
 49
-0.125
 49
0.125
 49
-0.125
  0
ENDTAB
  0
TABLE
  2
LAYER
 70
     3
  0
LAYER
  2
0
 70
     0
 62
     7
  6
CONTINUOUS
  0
LAYER
  2
1
 70
     0
 62
     1
  6
CENTER
  0
LAYER
  2
2
 70
     0
 62
     2
  6
HIDDEN
  0
ENDTAB
  0
TABLE
  2
STYLE
 70
     2
  0
STYLE
  2
STANDARD
 70
     0
 40
0.0
 41
1.0
 50
0.0
 71
     0
 42
0.2
  3
TXT
  4
BIGFONT
  0
STYLE
  2
STANDARD1
 70
     0
 40
0.0
 41
1.0
 50
0.0
 71
     0
 42
3.0
  3
txt
  4

  0
ENDTAB
  0
TABLE
  2
VIEW
 70
     1
  0
VIEW
  2
ALL
 70
     0
 40
270.0
 10
220.99159663865549
 20
135.0
 41
0.0
 11
0.0
 21
0.0
 31
1.0
 12
0.0
 22
0.0
 32
0.0
 42
0.0
 43
0.0
 44
0.0
 50
0.0
 71
     0
  0
ENDTAB
  0
TABLE
  2
UCS
 70
     0
  0
ENDTAB
  0
TABLE
  2
APPID
 70
     3
  0
APPID
  2
ACAD
 70
     0
  0
APPID
  2
ACAD_MLEADERVER
 70
     0
  0
APPID
  2
ACAD_NAV_VCDISPLAY
 70
     0
  0
ENDTAB
  0
TABLE
  2
DIMSTYLE
 70
     1
  0
DIMSTYLE
  2
STANDARD
 70
     0
  3

  4

  5

  6

  7

 40
1.0
 41
0.18
 42
0.0625
 43
0.38
 44
0.18
 45
0.0
 46
0.0
 47
0.0
 48
0.0
140
0.18
141
0.09
142
0.0
143
25.399999999999999
144
1.0
145
0.0
146
1.0
147
0.09
 71
     0
 72
     0
 73
     1
 74
     1
 75
     0
 76
     0
 77
     0
 78
     0
170
     0
171
     2
172
     0
173
     0
174
     0
175
     0
176
     0
177
     0
178
     0
  0
ENDTAB
  0
ENDSEC
  0
SECTION
  2
BLOCKS
  0
BLOCK
  8
0
  2
$MODEL_SPACE
 70
     0
 10
0.0
 20
0.0
 30
0.0
  3
$MODEL_SPACE
  1

  0
ENDBLK
  5
20C
  8
0
  0
BLOCK
 67
     1
  8
0
  2
$PAPER_SPACE
 70
     0
 10
0.0
 20
0.0
 30
0.0
  3
$PAPER_SPACE
  1

  0
ENDBLK
  5
20A
 67
     1
  8
0
  0
BLOCK
  8
0
  2
STDGX5
 70
     0
 10
0.0
 20
0.0
 30
0.0
  3
STDGX5
  1

  0
ENDBLK
  5
12A
  8
0
  0
ENDSEC
  0
SECTION
  2
ENTITIES
  0
ARC
  5
35
  8
0
 10
190.00000000002791
 20
139.99999999998391
 30
0.0
 40
20.0
 50
20.492381059894431
 51
39.50761894010553
  0
ARC
  5
36
  8
0
 10
206.0000000000139
 20
167.71281292109381
 30
0.0
 40
15.0
 50
212.17470645329041
 51
267.82529354676711
  0
ARC
  5
37
  8
0
 10
190.00000000002791
 20
139.99999999995171
 30
0.0
 40
20.0
 50
320.49238105989451
 51
339.5076189401056
  0
ARC
  5
38
  8
0
 10
222.0000000000278
 20
139.99999999996771
 30
0.0
 40
15.0
 50
152.17470645329041
 51
207.8252935467672
  0
ARC
  5
39
  8
0
 10
190.0
 20
139.99999999993551
 30
0.0
 40
20.0
 50
260.49238105989451
 51
279.5076189401056
  0
ARC
  5
3A
  8
0
 10
206.0000000000139
 20
112.2871870788417
 30
0.0
 40
15.0
 50
92.174706453290455
 51
147.8252935467672
  0
ARC
  5
3B
  8
0
 10
189.99999999997209
 20
139.99999999995171
 30
0.0
 40
20.0
 50
200.49238105989451
 51
219.5076189401056
  0
ARC
  5
3C
  8
0
 10
173.99999999998599
 20
112.2871870788417
 30
0.0
 40
15.0
 50
32.174706453290419
 51
87.825293546767227
  0
ARC
  5
3D
  8
0
 10
189.99999999997209
 20
139.9999999999838
 30
0.0
 40
20.0
 50
140.4923810598944
 51
159.50761894010549
  0
CIRCLE
  5
3E
  8
0
 10
190.0
 20
139.99999999996771
 30
0.0
 40
9.0
  0
ARC
  5
3F
  8
0
 10
173.9999999999861
 20
167.7128129210939
 30
0.0
 40
15.0
 50
272.17470645329053
 51
327.82529354676723
  0
ARC
  5
40
  8
0
 10
190.0
 20
140.0
 30
0.0
 40
20.0
 50
80.492381059894484
 51
99.507618940105573
  0
LINE
  5
41
  8
1
 10
190.0
 20
165.0
 30
0.0
 11
190.0
 21
115.0
 31
0.0
  0
LINE
  5
42
  8
1
 10
165.0
 20
140.0
 30
0.0
 11
215.0
 21
140.0
 31
0.0
  0
LINE
  5
43
  8
0
 10
275.0
 20
148.9999999999709
 30
0.0
 11
275.0
 21
131.0000000000291
 31
0.0
  0
ARC
  5
44
  8
0
 10
334.32115979986003
 20
140.0
 30
0.0
 40
60.0
 50
188.6269265586505
 51
199.47122063449069
  0
LINE
  5
45
  8
1
 10
305.0
 20
140.0
 30
0.0
 11
269.9999999999996
 21
140.0
 31
0.0
  0
LINE
  5
46
  8
0
 10
300.0
 20
132.5000000000291
 30
0.0
 11
299.5
 21
132.0000000000291
 31
0.0
  0
LINE
  5
47
  8
0
 10
299.5
 20
132.0000000000291
 30
0.0
 11
284.39999999999998
 21
132.0000000000291
 31
0.0
  0
LINE
  5
48
  8
0
 10
284.0
 20
120.5
 30
0.0
 11
283.5
 21
120.0
 31
0.0
  0
LINE
  5
49
  8
0
 10
283.5
 20
120.0
 30
0.0
 11
277.75261730493622
 21
120.0
 31
0.0
  0
ARC
  5
4A
  8
0
 10
284.39999999999998
 20
131.6000000000291
 30
0.0
 40
0.4
 50
90.0
 51
180.0
  0
ARC
  5
4B
  8
0
 10
292.30093460843602
 20
140.0
 30
0.0
 40
16.145486357565382
 50
180.00000000000011
 51
205.7000773423301
  0
LINE
  5
4C
  8
0
 10
284.0
 20
132.99834352749161
 30
0.0
 11
277.75261730493611
 21
132.99834352749161
 31
0.0
  0
LINE
  5
4D
  8
0
 10
277.75261730493611
 20
132.99834352749161
 30
0.0
 11
277.75261730493622
 21
127.27638356224629
 31
0.0
  0
LINE
  5
4E
  8
0
 10
277.75261730493622
 20
127.27638356224629
 30
0.0
 11
284.0
 21
127.27638356224629
 31
0.0
  0
ARC
  5
4F
  8
0
 10
278.34797691789942
 20
125.16313391343181
 30
0.0
 40
2.1955129575939001
 50
105.7339646281376
 51
177.01228349194139
  0
ARC
  5
50
  8
0
 10
284.39999999999998
 20
148.3999999999709
 30
0.0
 40
0.4
 50
180.0
 51
270.0
  0
LINE
  5
51
  8
0
 10
283.5
 20
160.0
 30
0.0
 11
277.75261730493622
 21
160.0
 31
0.0
  0
LINE
  5
52
  8
0
 10
284.0
 20
159.5
 30
0.0
 11
283.5
 21
160.0
 31
0.0
  0
LINE
  5
53
  8
0
 10
299.5
 20
147.9999999999709
 30
0.0
 11
284.39999999999998
 21
147.9999999999709
 31
0.0
  0
LINE
  5
54
  8
0
 10
300.0
 20
147.4999999999709
 30
0.0
 11
299.5
 21
147.9999999999709
 31
0.0
  0
ARC
  5
55
  8
0
 10
334.32115979986003
 20
140.0
 30
0.0
 40
60.0
 50
160.52877936550931
 51
171.3730734413495
  0
LINE
  5
56
  8
0
 10
300.0
 20
132.5000000000291
 30
0.0
 11
300.0
 21
147.4999999999709
 31
0.0
  0
LINE
  5
57
  8
0
 10
284.0
 20
148.39999730257259
 30
0.0
 11
284.0
 21
159.5
 31
0.0
  0
LINE
  5
58
  8
2
 10
300.0
 20
142.5
 30
0.0
 11
284.0
 21
142.5
 31
0.0
  0
LINE
  5
59
  8
2
 10
284.0
 20
140.0
 30
0.0
 11
284.0
 21
142.5
 31
0.0
  0
LINE
  5
5A
  8
2
 10
284.0
 20
142.5
 30
0.0
 11
282.55662432702587
 21
140.0
 31
0.0
  0
LINE
  5
5B
  8
0
 10
284.0
 20
148.39999698418791
 30
0.0
 11
284.0
 21
120.5
 31
0.0
  0
ARC
  5
5C
  8
0
 10
278.34797691789942
 20
154.83686608656819
 30
0.0
 40
2.1955129575939001
 50
182.98771650805861
 51
254.26603537186239
  0
LINE
  5
5D
  8
0
 10
277.75261730493611
 20
147.0016564725083
 30
0.0
 11
277.75261730493622
 21
152.72361643775361
 31
0.0
  0
ARC
  5
5E
  8
0
 10
292.30093460843602
 20
140.0
 30
0.0
 40
16.145486357565382
 50
154.2999226576699
 51
179.99999999999989
  0
LINE
  5
5F
  8
0
 10
284.0
 20
147.0016564725083
 30
0.0
 11
277.75261730493611
 21
147.0016564725083
 31
0.0
  0
LINE
  5
60
  8
0
 10
277.75261730493622
 20
152.72361643775361
 30
0.0
 11
284.0
 21
152.72361643775361
 31
0.0
  0
LINE
  5
61
  8
2
 10
284.0
 20
137.5
 30
0.0
 11
282.55662432702587
 21
140.0
 31
0.0
  0
LINE
  5
62
  8
2
 10
284.0
 20
140.0
 30
0.0
 11
284.0
 21
137.5
 31
0.0
  0
LINE
  5
63
  8
2
 10
300.0
 20
137.5
 30
0.0
 11
284.0
 21
137.5
 31
0.0
  0
LINE
  5
64
  8
2
 10
80.0
 20
137.5
 30
0.0
 11
96.0
 21
137.5
 31
0.0
  0
LINE
  5
65
  8
2
 10
96.0
 20
140.0
 30
0.0
 11
96.0
 21
137.5
 31
0.0
  0
LINE
  5
66
  8
2
 10
96.0
 20
137.5
 30
0.0
 11
97.443375672974071
 21
140.0
 31
0.0
  0
LINE
  5
67
  8
0
 10
102.24738269506381
 20
152.72361643775361
 30
0.0
 11
96.0
 21
152.72361643775361
 31
0.0
  0
LINE
  5
68
  8
0
 10
96.0
 20
147.0016564725083
 30
0.0
 11
102.24738269506391
 21
147.0016564725083
 31
0.0
  0
ARC
  5
69
  8
0
 10
87.699065391564034
 20
140.0
 30
0.0
 40
16.145486357565382
 50
0.0000000000000763
 51
25.700077342330101
  0
LINE
  5
6A
  8
0
 10
102.24738269506391
 20
147.0016564725083
 30
0.0
 11
102.24738269506381
 21
152.72361643775361
 31
0.0
  0
ARC
  5
6B
  8
0
 10
101.6520230821006
 20
154.83686608656819
 30
0.0
 40
2.1955129575939001
 50
285.73396462813758
 51
357.01228349194139
  0
LINE
  5
6C
  8
0
 10
96.0
 20
148.39999698418791
 30
0.0
 11
96.0
 21
120.5
 31
0.0
  0
LINE
  5
6D
  8
2
 10
96.0
 20
142.5
 30
0.0
 11
97.443375672974071
 21
140.0
 31
0.0
  0
LINE
  5
6E
  8
2
 10
96.0
 20
140.0
 30
0.0
 11
96.0
 21
142.5
 31
0.0
  0
LINE
  5
6F
  8
2
 10
80.0
 20
142.5
 30
0.0
 11
96.0
 21
142.5
 31
0.0
  0
LINE
  5
70
  8
0
 10
96.0
 20
148.39999730257259
 30
0.0
 11
96.0
 21
159.5
 31
0.0
  0
LINE
  5
71
  8
0
 10
80.0
 20
132.5000000000291
 30
0.0
 11
80.0
 21
147.4999999999709
 31
0.0
  0
ARC
  5
72
  8
0
 10
45.67884020014003
 20
140.0
 30
0.0
 40
60.0
 50
8.6269265586505401
 51
19.47122063449071
  0
LINE
  5
73
  8
0
 10
80.0
 20
147.4999999999709
 30
0.0
 11
80.5
 21
147.9999999999709
 31
0.0
  0
LINE
  5
74
  8
0
 10
80.5
 20
147.9999999999709
 30
0.0
 11
95.599999999999994
 21
147.9999999999709
 31
0.0
  0
LINE
  5
75
  8
0
 10
96.0
 20
159.5
 30
0.0
 11
96.5
 21
160.0
 31
0.0
  0
LINE
  5
76
  8
0
 10
96.5
 20
160.0
 30
0.0
 11
102.24738269506381
 21
160.0
 31
0.0
  0
ARC
  5
77
  8
0
 10
95.599999999999994
 20
148.3999999999709
 30
0.0
 40
0.4
 50
270.00000000000011
 51
0.0000000000000254
  0
ARC
  5
78
  8
0
 10
101.6520230821006
 20
125.16313391343181
 30
0.0
 40
2.1955129575939001
 50
2.9877165080586181
 51
74.266035371862415
  0
LINE
  5
79
  8
0
 10
102.24738269506381
 20
127.27638356224629
 30
0.0
 11
96.0
 21
127.27638356224629
 31
0.0
  0
LINE
  5
7A
  8
0
 10
102.24738269506391
 20
132.99834352749161
 30
0.0
 11
102.24738269506381
 21
127.27638356224629
 31
0.0
  0
LINE
  5
7B
  8
0
 10
96.0
 20
132.99834352749161
 30
0.0
 11
102.24738269506391
 21
132.99834352749161
 31
0.0
  0
ARC
  5
7C
  8
0
 10
87.699065391564034
 20
140.0
 30
0.0
 40
16.145486357565382
 50
334.29992265766992
 51
360.0
  0
ARC
  5
7D
  8
0
 10
95.599999999999994
 20
131.6000000000291
 30
0.0
 40
0.4
 50
0.0000000000000254
 51
90.000000000000028
  0
LINE
  5
7E
  8
0
 10
96.5
 20
120.0
 30
0.0
 11
102.24738269506381
 21
120.0
 31
0.0
  0
LINE
  5
7F
  8
0
 10
96.0
 20
120.5
 30
0.0
 11
96.5
 21
120.0
 31
0.0
  0
LINE
  5
80
  8
0
 10
80.5
 20
132.0000000000291
 30
0.0
 11
95.599999999999994
 21
132.0000000000291
 31
0.0
  0
LINE
  5
81
  8
0
 10
80.0
 20
132.5000000000291
 30
0.0
 11
80.5
 21
132.0000000000291
 31
0.0
  0
LINE
  5
82
  8
1
 10
74.999999999999972
 20
140.0
 30
0.0
 11
110.0000000000004
 21
140.0
 31
0.0
  0
ARC
  5
83
  8
0
 10
45.67884020014003
 20
140.0
 30
0.0
 40
60.0
 50
340.52877936550942
 51
351.3730734413495
  0
LINE
  5
84
  8
0
 10
105.0
 20
148.9999999999709
 30
0.0
 11
105.0
 21
131.0000000000291
 31
0.0
  0
LINE
  5
85
  8
2
 10
192.5
 20
46.504274607862079
 30
0.0
 11
192.5
 21
62.504274607862087
 31
0.0
  0
LINE
  5
86
  8
2
 10
190.0
 20
62.504274607862087
 30
0.0
 11
192.5
 21
62.504274607862087
 31
0.0
  0
LINE
  5
87
  8
2
 10
192.5
 20
62.504274607862087
 30
0.0
 11
190.0
 21
63.94765028083615
 31
0.0
  0
LINE
  5
88
  8
2
 10
187.5
 20
62.504274607862087
 30
0.0
 11
190.0
 21
63.94765028083615
 31
0.0
  0
LINE
  5
89
  8
2
 10
190.0
 20
62.504274607862087
 30
0.0
 11
187.5
 21
62.504274607862087
 31
0.0
  0
LINE
  5
8A
  8
2
 10
187.5
 20
46.504274607862079
 30
0.0
 11
187.5
 21
62.504274607862087
 31
0.0
  0
LINE
  5
8B
  8
0
 10
197.4999999999709
 20
46.504274607862079
 30
0.0
 11
182.5000000000291
 21
46.504274607862079
 31
0.0
  0
LINE
  5
8C
  8
0
 10
182.5000000000291
 20
46.504274607862079
 30
0.0
 11
182.0000000000291
 21
47.004274607862079
 31
0.0
  0
LINE
  5
8D
  8
0
 10
182.0000000000291
 20
47.004274607862079
 30
0.0
 11
182.0000000000291
 21
62.104274607862081
 31
0.0
  0
ARC
  5
8E
  8
0
 10
181.6000000000291
 20
62.104274607862081
 30
0.0
 40
0.4
 50
0.0000000000000368
 51
90.000000000000028
  0
ARC
  5
8F
  8
0
 10
198.3999999999709
 20
62.104274607862081
 30
0.0
 40
0.4
 50
90.000000000000028
 51
180.0
  0
LINE
  5
90
  8
0
 10
197.9999999999709
 20
47.004274607862079
 30
0.0
 11
197.9999999999709
 21
62.104274607862081
 31
0.0
  0
LINE
  5
91
  8
0
 10
197.4999999999709
 20
46.504274607862079
 30
0.0
 11
197.9999999999709
 21
47.004274607862079
 31
0.0
  0
LINE
  5
92
  8
0
 10
171.26562499996859
 20
62.504274607862101
 30
0.0
 11
208.73437500003141
 21
62.504274607862087
 31
0.0
  0
LINE
  5
93
  8
1
 10
190.0
 20
41.504274607862058
 30
0.0
 11
190.0
 21
76.504274607862484
 31
0.0
  0
LINE
  5
94
  8
0
 10
181.0000000000291
 20
71.504274607862115
 30
0.0
 11
198.9999999999709
 21
71.504274607862087
 31
0.0
  0
ARC
  5
95
  8
0
 10
190.0
 20
12.18311480800212
 30
0.0
 40
60.0
 50
73.540750371712505
 51
81.373073441349504
  0
ARC
  5
96
  8
0
 10
190.0
 20
12.18311480800212
 30
0.0
 40
60.0
 50
98.626926558650524
 51
106.45924962828779
  0
LINE
  5
97
  8
0
 10
171.26562499996859
 20
68.751657302927285
 30
0.0
 11
171.26562499996859
 21
62.504274607862087
 31
0.0
  0
LINE
  5
98
  8
0
 10
174.5692001261923
 20
68.751657302927285
 30
0.0
 11
174.5692001261923
 21
62.504274607862101
 31
0.0
  0
LINE
  5
99
  8
0
 10
186.69642487377621
 20
68.751657302927285
 30
0.0
 11
186.69642487377621
 21
62.504274607862087
 31
0.0
  0
LINE
  5
9A
  8
0
 10
193.30357512622371
 20
68.751657302927285
 30
0.0
 11
193.30357512622371
 21
62.504274607862087
 31
0.0
  0
LINE
  5
9B
  8
0
 10
205.43079987380759
 20
68.751657302927271
 30
0.0
 11
205.43079987380759
 21
62.504274607862087
 31
0.0
  0
LINE
  5
9C
  8
0
 10
208.73437500003129
 20
68.751657302927271
 30
0.0
 11
208.73437500003141
 21
62.504274607862087
 31
0.0
  0
LINE
  5
9D
  8
0
 10
171.26562499996859
 20
68.751657302927285
 30
0.0
 11
174.5692001261923
 21
68.751657302927285
 31
0.0
  0
LINE
  5
9E
  8
0
 10
205.43079987380759
 20
68.751657302927285
 30
0.0
 11
208.73437500003129
 21
68.751657302927271
 31
0.0
  0
LINE
  5
9F
  8
0
 10
186.69642487377621
 20
68.751657302927285
 30
0.0
 11
193.30357512622371
 21
68.751657302927285
 31
0.0
  0
ARC
  5
A0
  8
0
 10
180.63281249998431
 20
58.275486422005507
 30
0.0
 40
12.10444345461106
 50
59.937722391640143
 51
120.06227760835981
  0
ARC
  5
A1
  8
0
 10
199.3671875000156
 20
58.275486422011568
 30
0.0
 40
12.104443454605761
 50
59.937722391625279
 51
120.0622776083739
  0
POLYLINE
  5
A2
  8
0
 66
     1
 10
0.0
 20
0.0
 30
0.0
 70
     2
  0
VERTEX
  5
A3
  8
0
 10
171.26562499996871
 20
68.751657302927299
 30
0.0
 42
0.0138065791304276
  0
VERTEX
  5
A4
  8
0
 10
171.72343796338961
 20
68.895038905193715
 30
0.0
 42
0.0210887339996195
 70
     1
  0
VERTEX
  5
A5
  8
0
 10
172.01596305397669
 20
69.009608673743074
 30
0.0
 42
0.0031213255004679
  0
VERTEX
  5
A6
  8
0
 10
172.4440350345418
 20
69.201651575628546
 30
0.0
 42
0.0113734851181305
 70
     1
  0
VERTEX
  5
A7
  8
0
 10
172.55995149371489
 20
69.257745256251255
 30
0.0
 42
0.0381350976853965
  0
VERTEX
  5
A8
  8
0
 10
172.71062847157859
 20
69.350058943894027
 30
0.0
 42
0.0291629071108784
 70
     1
  0
VERTEX
  5
A9
  8
0
 10
172.88958146498081
 20
69.496024193538759
 30
0.0
 42
0.0947619703303213
  0
VERTEX
  5
AA
  8
0
 10
172.940614039953
 20
69.564665261182569
 30
0.0
 42
0.0472423574528974
 70
     1
  0
VERTEX
  5
AB
  8
0
 10
172.9999999999722
 20
69.724404331257134
 30
0.0
  0
SEQEND
  5
AC
  8
0
  0
ARC
  5
AD
  8
0
 10
157.9999999999722
 20
139.99999999996771
 30
0.0
 40
15.0
 50
332.17470645323277
 51
27.825293546709648
  0
POLYLINE
  5
AE
  8
0
 66
     1
 10
0.0
 20
0.0
 30
0.0
 70
     2
  0
VERTEX
  5
AF
  8
0
 10
208.73437500003129
 20
68.751657302927299
 30
0.0
 42
-0.0138065791304276
  0
VERTEX
  5
B0
  8
0
 10
208.27656203661039
 20
68.895038905193715
 30
0.0
 42
-0.0210887339996195
 70
     1
  0
VERTEX
  5
B1
  8
0
 10
207.98403694602331
 20
69.009608673743074
 30
0.0
 42
-0.0031213255004679
  0
VERTEX
  5
B2
  8
0
 10
207.55596496545809
 20
69.201651575628546
 30
0.0
 42
-0.0113734851181305
 70
     1
  0
VERTEX
  5
B3
  8
0
 10
207.44004850628511
 20
69.257745256251255
 30
0.0
 42
-0.0381350976853965
  0
VERTEX
  5
B4
  8
0
 10
207.28937152842141
 20
69.350058943894027
 30
0.0
 42
-0.0291629071108784
 70
     1
  0
VERTEX
  5
B5
  8
0
 10
207.11041853501911
 20
69.496024193538759
 30
0.0
 42
-0.0947619703303213
  0
VERTEX
  5
B6
  8
0
 10
207.059385960047
 20
69.564665261182569
 30
0.0
 42
-0.0472423574528974
 70
     1
  0
VERTEX
  5
B7
  8
0
 10
207.00000000002771
 20
69.724404331257134
 30
0.0
  0
SEQEND
  5
B8
  8
0
  0
POLYLINE
  5
B9
  8
0
 66
     1
 10
0.0
 20
0.0
 30
0.0
 70
     2
  0
VERTEX
  5
BA
  8
0
 10
208.73437500003129
 20
211.2483426970727
 30
0.0
 42
0.0138065791304276
  0
VERTEX
  5
BB
  8
0
 10
208.27656203661039
 20
211.1049610948063
 30
0.0
 42
0.0210887339996195
 70
     1
  0
VERTEX
  5
BC
  8
0
 10
207.98403694602331
 20
210.990391326257
 30
0.0
 42
0.0031213255004679
  0
VERTEX
  5
BD
  8
0
 10
207.55596496545809
 20
210.7983484243714
 30
0.0
 42
0.0113734851181305
 70
     1
  0
VERTEX
  5
BE
  8
0
 10
207.44004850628511
 20
210.7422547437487
 30
0.0
 42
0.0381350976853965
  0
VERTEX
  5
BF
  8
0
 10
207.28937152842141
 20
210.649941056106
 30
0.0
 42
0.0291629071108784
 70
     1
  0
VERTEX
  5
C0
  8
0
 10
207.11041853501911
 20
210.5039758064612
 30
0.0
 42
0.0947619703303213
  0
VERTEX
  5
C1
  8
0
 10
207.059385960047
 20
210.4353347388174
 30
0.0
 42
0.0472423574528974
 70
     1
  0
VERTEX
  5
C2
  8
0
 10
207.00000000002771
 20
210.27559566874291
 30
0.0
  0
SEQEND
  5
C3
  8
0
  0
POLYLINE
  5
C4
  8
0
 66
     1
 10
0.0
 20
0.0
 30
0.0
 70
     2
  0
VERTEX
  5
C5
  8
0
 10
171.26562499996871
 20
211.2483426970727
 30
0.0
 42
-0.0138065791304276
  0
VERTEX
  5
C6
  8
0
 10
171.72343796338961
 20
211.1049610948063
 30
0.0
 42
-0.0210887339996195
 70
     1
  0
VERTEX
  5
C7
  8
0
 10
172.01596305397669
 20
210.990391326257
 30
0.0
 42
-0.0031213255004679
  0
VERTEX
  5
C8
  8
0
 10
172.4440350345418
 20
210.7983484243714
 30
0.0
 42
-0.0113734851181305
 70
     1
  0
VERTEX
  5
C9
  8
0
 10
172.55995149371489
 20
210.7422547437487
 30
0.0
 42
-0.0381350976853965
  0
VERTEX
  5
CA
  8
0
 10
172.71062847157859
 20
210.649941056106
 30
0.0
 42
-0.0291629071108784
 70
     1
  0
VERTEX
  5
CB
  8
0
 10
172.88958146498081
 20
210.5039758064612
 30
0.0
 42
-0.0947619703303213
  0
VERTEX
  5
CC
  8
0
 10
172.940614039953
 20
210.4353347388174
 30
0.0
 42
-0.0472423574528974
 70
     1
  0
VERTEX
  5
CD
  8
0
 10
172.9999999999722
 20
210.27559566874291
 30
0.0
  0
SEQEND
  5
CE
  8
0
  0
ARC
  5
CF
  8
0
 10
199.3671875000156
 20
221.7245135779884
 30
0.0
 40
12.104443454605761
 50
239.9377223916261
 51
300.06227760837481
  0
ARC
  5
D0
  8
0
 10
180.63281249998431
 20
221.72451357799449
 30
0.0
 40
12.10444345461106
 50
239.93772239164019
 51
300.06227760835992
  0
LINE
  5
D1
  8
0
 10
186.69642487377621
 20
211.2483426970727
 30
0.0
 11
193.30357512622371
 21
211.2483426970727
 31
0.0
  0
LINE
  5
D2
  8
0
 10
205.43079987380759
 20
211.2483426970727
 30
0.0
 11
208.73437500003129
 21
211.2483426970727
 31
0.0
  0
LINE
  5
D3
  8
0
 10
171.26562499996859
 20
211.2483426970727
 30
0.0
 11
174.5692001261923
 21
211.2483426970727
 31
0.0
  0
LINE
  5
D4
  8
0
 10
208.73437500003129
 20
211.2483426970727
 30
0.0
 11
208.73437500003141
 21
217.4957253921379
 31
0.0
  0
LINE
  5
D5
  8
0
 10
205.43079987380759
 20
211.2483426970727
 30
0.0
 11
205.43079987380759
 21
217.4957253921379
 31
0.0
  0
LINE
  5
D6
  8
0
 10
193.30357512622371
 20
211.2483426970727
 30
0.0
 11
193.30357512622371
 21
217.4957253921379
 31
0.0
  0
LINE
  5
D7
  8
0
 10
186.69642487377621
 20
211.2483426970727
 30
0.0
 11
186.69642487377621
 21
217.4957253921379
 31
0.0
  0
LINE
  5
D8
  8
0
 10
174.5692001261923
 20
211.2483426970727
 30
0.0
 11
174.5692001261923
 21
217.4957253921379
 31
0.0
  0
LINE
  5
D9
  8
0
 10
171.26562499996859
 20
211.2483426970727
 30
0.0
 11
171.26562499996859
 21
217.4957253921379
 31
0.0
  0
ARC
  5
DA
  8
0
 10
190.0
 20
267.81688519199793
 30
0.0
 40
60.0
 50
253.54075037171219
 51
261.3730734413495
  0
ARC
  5
DB
  8
0
 10
190.0
 20
267.81688519199793
 30
0.0
 40
60.0
 50
278.6269265586505
 51
286.45924962828752
  0
LINE
  5
DC
  8
0
 10
181.0000000000291
 20
208.4957253921379
 30
0.0
 11
198.9999999999709
 21
208.4957253921379
 31
0.0
  0
LINE
  5
DD
  8
1
 10
190.0
 20
238.4957253921379
 30
0.0
 11
190.0
 21
203.4957253921375
 31
0.0
  0
LINE
  5
DE
  8
0
 10
171.26562499996859
 20
217.4957253921379
 30
0.0
 11
208.73437500003141
 21
217.4957253921379
 31
0.0
  0
LINE
  5
DF
  8
0
 10
197.4999999999709
 20
233.4957253921379
 30
0.0
 11
197.9999999999709
 21
232.9957253921379
 31
0.0
  0
LINE
  5
E0
  8
0
 10
197.9999999999709
 20
232.9957253921379
 30
0.0
 11
197.9999999999709
 21
217.8957253921379
 31
0.0
  0
ARC
  5
E1
  8
0
 10
198.3999999999709
 20
217.8957253921379
 30
0.0
 40
0.4
 50
180.0
 51
270.0
  0
ARC
  5
E2
  8
0
 10
181.6000000000291
 20
217.8957253921379
 30
0.0
 40
0.4
 50
270.0
 51
360.0
  0
LINE
  5
E3
  8
0
 10
182.0000000000291
 20
232.9957253921379
 30
0.0
 11
182.0000000000291
 21
217.8957253921379
 31
0.0
  0
LINE
  5
E4
  8
0
 10
182.5000000000291
 20
233.4957253921379
 30
0.0
 11
182.0000000000291
 21
232.9957253921379
 31
0.0
  0
LINE
  5
E5
  8
0
 10
197.4999999999709
 20
233.4957253921379
 30
0.0
 11
182.5000000000291
 21
233.4957253921379
 31
0.0
  0
LINE
  5
E6
  8
2
 10
187.5
 20
233.4957253921379
 30
0.0
 11
187.5
 21
217.4957253921379
 31
0.0
  0
LINE
  5
E7
  8
2
 10
190.0
 20
217.4957253921379
 30
0.0
 11
187.5
 21
217.4957253921379
 31
0.0
  0
LINE
  5
E8
  8
2
 10
187.5
 20
217.4957253921379
 30
0.0
 11
190.0
 21
216.0523497191638
 31
0.0
  0
LINE
  5
E9
  8
2
 10
192.5
 20
217.4957253921379
 30
0.0
 11
190.0
 21
216.0523497191638
 31
0.0
  0
LINE
  5
EA
  8
2
 10
190.0
 20
217.4957253921379
 30
0.0
 11
192.5
 21
217.4957253921379
 31
0.0
  0
LINE
  5
EB
  8
2
 10
192.5
 20
233.4957253921379
 30
0.0
 11
192.5
 21
217.4957253921379
 31
0.0
  0
LINE
  5
EC
  8
0
 10
80.5
 20
147.9999999999709
 30
0.0
 11
80.5
 21
132.0000000000291
 31
0.0
  0
LINE
  5
ED
  8
0
 10
182.0000000000291
 20
47.004274607862108
 30
0.0
 11
197.9999999999709
 21
47.004274607862108
 31
0.0
  0
LINE
  5
EE
  8
0
 10
182.0000000000291
 20
232.9957253921379
 30
0.0
 11
197.9999999999709
 21
232.9957253921379
 31
0.0
  0
LINE
  5
EF
  8
0
 10
299.5
 20
147.9999999999709
 30
0.0
 11
299.5
 21
132.0000000000291
 31
0.0
  0
INSERT
  5
1C7
  8
0
  2
STDGX5
 10
0.0
 20
0.0
 30
0.0
  0
INSERT
  5
1C8
  8
0
  2
STDGX5
 10
0.0
 20
0.0
 30
0.0
  0
INSERT
  5
1C9
  8
0
  2
STDGX5
 10
275.0
 20
0.0
 30
0.0
  0
INSERT
  5
1CA
  8
0
  2
STDGX5
 10
275.0
 20
0.0
 30
0.0
  0
TEXT
  5
2C1
  8
0
 62
     3
 10
0.0
 20
0.0
 30
0.0
 40
10.0
  1
HK2
  7
STANDARD1
  0
ENDSEC
  0
EOF
