  0
SECTION
  2
HEADER
  9
$ACADVER
  1
AC1009
  9
$INSBASE
 10
0.0
 20
0.0
 30
0.0
  9
$EXTMIN
 10
0.0
 20
-1.4802182810368341
 30
0.0
  9
$EXTMAX
 10
135.8490340315565
 20
31.50259791454744
 30
0.0
  9
$LIMMIN
 10
0.0
 20
0.0
  9
$LIMMAX
 10
375.0
 20
270.0
  9
$ORTHOMODE
 70
     1
  9
$REGENMODE
 70
     1
  9
$FILLMODE
 70
     1
  9
$QTEXTMODE
 70
     0
  9
$MIRRTEXT
 70
     0
  9
$DRAGMODE
 70
     2
  9
$LTSCALE
 40
10.0
  9
$OSMODE
 70
  3071
  9
$ATTMODE
 70
     1
  9
$TEXTSIZE
 40
2.0
  9
$TRACEWID
 40
0.05
  9
$TEXTSTYLE
  7
STANDARD
  9
$CLAYER
  8
0
  9
$CELTYPE
  6
BYLAYER
  9
$CECOLOR
 62
   256
  9
$DIMSCALE
 40
1.0
  9
$DIMASZ
 40
2.5
  9
$DIMEXO
 40
2.0
  9
$DIMDLI
 40
0.38
  9
$DIMRND
 40
0.0
  9
$DIMDLE
 40
0.0
  9
$DIMEXE
 40
2.0
  9
$DIMTP
 40
0.0
  9
$DIMTM
 40
0.0
  9
$DIMTXT
 40
3.0
  9
$DIMCEN
 40
0.09
  9
$DIMTSZ
 40
0.0
  9
$DIMTOL
 70
     0
  9
$DIMLIM
 70
     0
  9
$DIMTIH
 70
     0
  9
$DIMTOH
 70
     0
  9
$DIMSE1
 70
     0
  9
$DIMSE2
 70
     0
  9
$DIMTAD
 70
     1
  9
$DIMZIN
 70
     0
  9
$DIMBLK
  1

  9
$DIMASO
 70
     1
  9
$DIMSHO
 70
     0
  9
$DIMPOST
  1

  9
$DIMAPOST
  1

  9
$DIMALT
 70
     0
  9
$DIMALTD
 70
     2
  9
$DIMALTF
 40
25.399999999999999
  9
$DIMLFAC
 40
1.0
  9
$DIMTOFL
 70
     0
  9
$DIMTVP
 40
1.6000000000000001
  9
$DIMTIX
 70
     1
  9
$DIMSOXD
 70
     0
  9
$DIMSAH
 70
     0
  9
$DIMBLK1
  1

  9
$DIMBLK2
  1

  9
$DIMSTYLE
  2
STANDARD
  9
$DIMCLRD
 70
     0
  9
$DIMCLRE
 70
     0
  9
$DIMCLRT
 70
     0
  9
$DIMTFAC
 40
1.0
  9
$DIMGAP
 40
0.09
  9
$LUNITS
 70
     2
  9
$LUPREC
 70
     4
  9
$SKETCHINC
 40
0.1
  9
$FILLETRAD
 40
2.5
  9
$AUNITS
 70
     0
  9
$AUPREC
 70
     0
  9
$MENU
  1
E:\r13\win\SUPPORT\ACAD
  9
$ELEVATION
 40
0.0
  9
$PELEVATION
 40
0.0
  9
$THICKNESS
 40
0.0
  9
$LIMCHECK
 70
     0
  9
$BLIPMODE
 70
     0
  9
$CHAMFERA
 40
0.0
  9
$CHAMFERB
 40
0.0
  9
$SKPOLY
 70
     0
  9
$TDCREATE
 40
2448650.5678784722
  9
$TDUPDATE
 40
2456598.6925897342
  9
$TDINDWG
 40
0.0291122917
  9
$TDUSRTIMER
 40
0.0291122917
  9
$USRTIMER
 70
     1
  9
$ANGBASE
 50
0.0
  9
$ANGDIR
 70
     0
  9
$PDMODE
 70
     0
  9
$PDSIZE
 40
0.0
  9
$PLINEWID
 40
0.0
  9
$COORDS
 70
     1
  9
$SPLFRAME
 70
     0
  9
$SPLINETYPE
 70
     6
  9
$SPLINESEGS
 70
     8
  9
$ATTDIA
 70
     0
  9
$ATTREQ
 70
     1
  9
$HANDLING
 70
     1
  9
$HANDSEED
  5
7A2
  9
$SURFTAB1
 70
     6
  9
$SURFTAB2
 70
     6
  9
$SURFTYPE
 70
     6
  9
$SURFU
 70
     6
  9
$SURFV
 70
     6
  9
$UCSNAME
  2

  9
$UCSORG
 10
0.0
 20
0.0
 30
0.0
  9
$UCSXDIR
 10
1.0
 20
0.0
 30
0.0
  9
$UCSYDIR
 10
0.0
 20
1.0
 30
0.0
  9
$PUCSNAME
  2

  9
$PUCSORG
 10
0.0
 20
0.0
 30
0.0
  9
$PUCSXDIR
 10
1.0
 20
0.0
 30
0.0
  9
$PUCSYDIR
 10
0.0
 20
1.0
 30
0.0
  9
$USERI1
 70
     0
  9
$USERI2
 70
     1
  9
$USERI3
 70
     1
  9
$USERI4
 70
     0
  9
$USERI5
 70
     0
  9
$USERR1
 40
0.0
  9
$USERR2
 40
0.0
  9
$USERR3
 40
0.0
  9
$USERR4
 40
0.0
  9
$USERR5
 40
0.0
  9
$WORLDVIEW
 70
     1
  9
$SHADEDGE
 70
     3
  9
$SHADEDIF
 70
    70
  9
$TILEMODE
 70
     1
  9
$MAXACTVP
 70
    16
  9
$PLIMCHECK
 70
     0
  9
$PEXTMIN
 10
1.0000000000000000E+020
 20
1.0000000000000000E+020
 30
1.0000000000000000E+020
  9
$PEXTMAX
 10
-1.0000000000000000E+020
 20
-1.0000000000000000E+020
 30
-1.0000000000000000E+020
  9
$PLIMMIN
 10
0.0
 20
0.0
  9
$PLIMMAX
 10
12.0
 20
9.0
  9
$UNITMODE
 70
     0
  9
$VISRETAIN
 70
     0
  9
$PLINEGEN
 70
     1
  9
$PSLTSCALE
 70
     0
  0
ENDSEC
  0
SECTION
  2
TABLES
  0
TABLE
  2
VPORT
 70
     1
  0
VPORT
  2
*ACTIVE
 70
     0
 10
0.0
 20
0.0
 11
1.0
 21
1.0
 12
187.49427839065231
 22
134.84202934784381
 13
0.0
 23
0.0
 14
10.0
 24
10.0
 15
10.0
 25
10.0
 16
0.0
 26
0.0
 36
1.0
 17
0.0
 27
0.0
 37
0.0
 40
275.78743625673241
 41
2.304913294797688
 42
50.0
 43
0.0
 44
0.0
 50
0.0
 51
0.0
 71
     0
 72
   500
 73
     1
 74
     0
 75
     0
 76
     0
 77
     0
 78
     2
  0
ENDTAB
  0
TABLE
  2
LTYPE
 70
     3
  0
LTYPE
  2
CONTINUOUS
 70
     0
  3
Solid Line
 72
    65
 73
     0
 40
0.0
  0
LTYPE
  2
CENTER
 70
     0
  3
____ _ ____ _ ____ _ ____ _ ____ _ ____ _ ____
 72
    65
 73
     4
 40
2.0
 49
1.25
 49
-0.25
 49
0.25
 49
-0.25
  0
LTYPE
  2
PHANTOM2
 70
     0
  3
___ _ _ ___ _ _ ___ _ _ ___ _ _
 72
    65
 73
     6
 40
1.25
 49
0.625
 49
-0.125
 49
0.125
 49
-0.125
 49
0.125
 49
-0.125
  0
ENDTAB
  0
TABLE
  2
LAYER
 70
     3
  0
LAYER
  2
0
 70
     0
 62
     7
  6
CONTINUOUS
  0
LAYER
  2
1
 70
     0
 62
     1
  6
CENTER
  0
LAYER
  2
3
 70
     0
 62
     3
  6
CONTINUOUS
  0
ENDTAB
  0
TABLE
  2
STYLE
 70
     2
  0
STYLE
  2
STANDARD
 70
     0
 40
0.0
 41
1.0
 50
0.0
 71
     0
 42
2.0
  3
TXT
  4
BIGFONT
  0
STYLE
  2
STANDARD1
 70
     0
 40
0.0
 41
1.0
 50
0.0
 71
     0
 42
3.0
  3
txt
  4

  0
ENDTAB
  0
TABLE
  2
VIEW
 70
     1
  0
VIEW
  2
ALL
 70
     0
 40
270.0
 10
220.99159663865549
 20
135.0
 41
0.0
 11
0.0
 21
0.0
 31
1.0
 12
0.0
 22
0.0
 32
0.0
 42
0.0
 43
0.0
 44
0.0
 50
0.0
 71
     0
  0
ENDTAB
  0
TABLE
  2
UCS
 70
     0
  0
ENDTAB
  0
TABLE
  2
APPID
 70
     3
  0
APPID
  2
ACAD
 70
     0
  0
APPID
  2
ACAD_MLEADERVER
 70
     0
  0
APPID
  2
ACAD_NAV_VCDISPLAY
 70
     0
  0
ENDTAB
  0
TABLE
  2
DIMSTYLE
 70
     1
  0
DIMSTYLE
  2
STANDARD
 70
     0
  3

  4

  5

  6

  7

 40
1.0
 41
0.18
 42
0.0625
 43
0.38
 44
0.18
 45
0.0
 46
0.0
 47
0.0
 48
0.0
140
0.18
141
0.09
142
0.0
143
25.399999999999999
144
1.0
145
0.0
146
1.0
147
0.09
 71
     0
 72
     0
 73
     1
 74
     1
 75
     0
 76
     0
 77
     0
 78
     0
170
     0
171
     2
172
     0
173
     0
174
     0
175
     0
176
     0
177
     0
178
     0
  0
ENDTAB
  0
ENDSEC
  0
SECTION
  2
BLOCKS
  0
BLOCK
  8
0
  2
$MODEL_SPACE
 70
     0
 10
0.0
 20
0.0
 30
0.0
  3
$MODEL_SPACE
  1

  0
ENDBLK
  5
217
  8
0
  0
BLOCK
 67
     1
  8
0
  2
$PAPER_SPACE
 70
     0
 10
0.0
 20
0.0
 30
0.0
  3
$PAPER_SPACE
  1

  0
ENDBLK
  5
215
 67
     1
  8
0
  0
ENDSEC
  0
SECTION
  2
ENTITIES
  0
LINE
  5
5CD
  8
0
 10
70.849034031556343
 20
20.402597914547471
 30
0.0
 11
72.849034031556343
 21
20.402597914547489
 31
0.0
  0
LINE
  5
5CE
  8
0
 10
70.849034031556343
 20
20.202597914547471
 30
0.0
 11
72.849034031556343
 21
20.202597914547479
 31
0.0
  0
LINE
  5
5CF
  8
0
 10
70.849034031556343
 20
20.002597914547461
 30
0.0
 11
72.849034031556343
 21
20.002597914547479
 31
0.0
  0
LINE
  5
5D0
  8
0
 10
70.849034031556343
 20
19.802597914547459
 30
0.0
 11
72.849034031556343
 21
19.802597914547469
 31
0.0
  0
LINE
  5
5D1
  8
0
 10
70.849034031556343
 20
19.20259791454745
 30
0.0
 11
72.849034031556343
 21
19.202597914547461
 31
0.0
  0
LINE
  5
5D2
  8
0
 10
70.849034031556343
 20
19.40259791454746
 30
0.0
 11
72.849034031556343
 21
19.402597914547471
 31
0.0
  0
LINE
  5
5D3
  8
0
 10
70.849034031556343
 20
19.602597914547459
 30
0.0
 11
72.849034031556343
 21
19.60259791454747
 31
0.0
  0
LINE
  5
5D4
  8
0
 10
70.849034031556343
 20
18.402597914547439
 30
0.0
 11
72.849034031556343
 21
18.40259791454746
 31
0.0
  0
LINE
  5
5D5
  8
0
 10
70.849034031556343
 20
18.202597914547439
 30
0.0
 11
72.849034031556343
 21
18.20259791454745
 31
0.0
  0
LINE
  5
5D6
  8
0
 10
70.849034031556343
 20
18.00259791454744
 30
0.0
 11
72.849034031556343
 21
18.002597914547451
 31
0.0
  0
LINE
  5
5D7
  8
0
 10
70.849034031556343
 20
18.602597914547442
 30
0.0
 11
72.849034031556343
 21
18.602597914547459
 31
0.0
  0
LINE
  5
5D8
  8
0
 10
70.849034031556343
 20
18.802597914547452
 30
0.0
 11
72.849034031556343
 21
18.802597914547459
 31
0.0
  0
LINE
  5
5D9
  8
0
 10
70.849034031556343
 20
19.002597914547451
 30
0.0
 11
72.849034031556343
 21
19.002597914547461
 31
0.0
  0
LINE
  5
5DA
  8
0
 10
70.849034031556343
 20
17.402597914547432
 30
0.0
 11
72.849034031556343
 21
17.402597914547439
 31
0.0
  0
LINE
  5
5DB
  8
0
 10
70.849034031556343
 20
17.202597914547422
 30
0.0
 11
72.849034031556343
 21
17.202597914547439
 31
0.0
  0
LINE
  5
5DC
  8
0
 10
70.849034031556343
 20
17.002597914547419
 30
0.0
 11
72.849034031556343
 21
17.00259791454743
 31
0.0
  0
LINE
  5
5DD
  8
0
 10
70.849034031556343
 20
16.40259791454741
 30
0.0
 11
72.849034031556343
 21
16.402597914547432
 31
0.0
  0
LINE
  5
5DE
  8
0
 10
70.849034031556343
 20
16.60259791454741
 30
0.0
 11
72.849034031556343
 21
16.602597914547431
 31
0.0
  0
LINE
  5
5DF
  8
0
 10
70.849034031556343
 20
16.80259791454742
 30
0.0
 11
72.849034031556343
 21
16.80259791454743
 31
0.0
  0
LINE
  5
5E0
  8
0
 10
70.849034031556343
 20
17.80259791454743
 30
0.0
 11
72.849034031556343
 21
17.802597914547452
 31
0.0
  0
LINE
  5
5E1
  8
0
 10
70.849034031556343
 20
17.602597914547431
 30
0.0
 11
72.849034031556343
 21
17.602597914547442
 31
0.0
  0
LINE
  5
5E2
  8
0
 10
70.849034031556343
 20
16.002597914547412
 30
0.0
 11
72.849034031556343
 21
16.002597914547419
 31
0.0
  0
LINE
  5
5E3
  8
0
 10
70.849034031556343
 20
15.8025979145474
 30
0.0
 11
72.849034031556343
 21
15.80259791454742
 31
0.0
  0
LINE
  5
5E4
  8
0
 10
70.849034031556343
 20
15.602597914547401
 30
0.0
 11
72.849034031556343
 21
15.60259791454742
 31
0.0
  0
LINE
  5
5E5
  8
0
 10
70.849034031556343
 20
16.202597914547411
 30
0.0
 11
72.849034031556343
 21
16.202597914547422
 31
0.0
  0
LINE
  5
5E6
  8
0
 10
70.849034031556343
 20
15.4025979145474
 30
0.0
 11
72.849034031556343
 21
15.40259791454741
 31
0.0
  0
LINE
  5
5E7
  8
0
 10
70.849034031556343
 20
25.60259791454753
 30
0.0
 11
72.849034031556343
 21
25.60259791454752
 31
0.0
  0
LINE
  5
5E8
  8
0
 10
70.849034031556343
 20
24.802597914547519
 30
0.0
 11
72.849034031556343
 21
24.802597914547508
 31
0.0
  0
LINE
  5
5E9
  8
0
 10
70.849034031556343
 20
25.402597914547531
 30
0.0
 11
72.849034031556343
 21
25.40259791454751
 31
0.0
  0
LINE
  5
5EA
  8
0
 10
70.849034031556343
 20
25.202597914547528
 30
0.0
 11
72.849034031556343
 21
25.202597914547511
 31
0.0
  0
LINE
  5
5EB
  8
0
 10
70.849034031556343
 20
25.002597914547518
 30
0.0
 11
72.849034031556343
 21
25.002597914547511
 31
0.0
  0
LINE
  5
5EC
  8
0
 10
70.849034031556343
 20
23.402597914547499
 30
0.0
 11
72.849034031556343
 21
23.402597914547481
 31
0.0
  0
LINE
  5
5ED
  8
0
 10
70.849034031556343
 20
23.2025979145475
 30
0.0
 11
72.849034031556343
 21
23.202597914547479
 31
0.0
  0
LINE
  5
5EE
  8
0
 10
70.849034031556343
 20
24.202597914547511
 30
0.0
 11
72.849034031556343
 21
24.2025979145475
 31
0.0
  0
LINE
  5
5EF
  8
0
 10
70.849034031556343
 20
24.40259791454752
 30
0.0
 11
72.849034031556343
 21
24.402597914547499
 31
0.0
  0
LINE
  5
5F0
  8
0
 10
70.849034031556343
 20
24.60259791454752
 30
0.0
 11
72.849034031556343
 21
24.602597914547498
 31
0.0
  0
LINE
  5
5F1
  8
0
 10
70.849034031556343
 20
24.002597914547511
 30
0.0
 11
72.849034031556343
 21
24.00259791454749
 31
0.0
  0
LINE
  5
5F2
  8
0
 10
70.849034031556343
 20
23.802597914547508
 30
0.0
 11
72.849034031556343
 21
23.802597914547491
 31
0.0
  0
LINE
  5
5F3
  8
0
 10
70.849034031556343
 20
23.602597914547498
 30
0.0
 11
72.849034031556343
 21
23.602597914547491
 31
0.0
  0
LINE
  5
5F4
  8
0
 10
70.849034031556343
 20
22.002597914547479
 30
0.0
 11
72.849034031556343
 21
22.002597914547469
 31
0.0
  0
LINE
  5
5F5
  8
0
 10
70.849034031556343
 20
22.202597914547479
 30
0.0
 11
72.849034031556343
 21
22.202597914547471
 31
0.0
  0
LINE
  5
5F6
  8
0
 10
70.849034031556343
 20
22.402597914547481
 30
0.0
 11
72.849034031556343
 21
22.402597914547471
 31
0.0
  0
LINE
  5
5F7
  8
0
 10
70.849034031556343
 20
23.00259791454749
 30
0.0
 11
72.849034031556343
 21
23.002597914547479
 31
0.0
  0
LINE
  5
5F8
  8
0
 10
70.849034031556343
 20
22.802597914547491
 30
0.0
 11
72.849034031556343
 21
22.802597914547469
 31
0.0
  0
LINE
  5
5F9
  8
0
 10
70.849034031556343
 20
22.602597914547491
 30
0.0
 11
72.849034031556343
 21
22.60259791454747
 31
0.0
  0
LINE
  5
5FA
  8
0
 10
70.849034031556343
 20
21.402597914547471
 30
0.0
 11
72.849034031556343
 21
21.40259791454746
 31
0.0
  0
LINE
  5
5FB
  8
0
 10
70.849034031556343
 20
21.60259791454747
 30
0.0
 11
72.849034031556343
 21
21.602597914547459
 31
0.0
  0
LINE
  5
5FC
  8
0
 10
70.849034031556343
 20
21.80259791454748
 30
0.0
 11
72.849034031556343
 21
21.802597914547459
 31
0.0
  0
LINE
  5
5FD
  8
0
 10
70.849034031556343
 20
21.202597914547471
 30
0.0
 11
72.849034031556343
 21
21.202597914547461
 31
0.0
  0
LINE
  5
5FE
  8
0
 10
70.849034031556343
 20
21.002597914547461
 30
0.0
 11
72.849034031556343
 21
21.002597914547451
 31
0.0
  0
LINE
  5
5FF
  8
0
 10
70.849034031556343
 20
20.802597914547459
 30
0.0
 11
72.849034031556343
 21
20.802597914547452
 31
0.0
  0
LINE
  5
600
  8
0
 10
70.849034031556343
 20
20.602597914547459
 30
0.0
 11
72.849034031556343
 21
20.602597914547449
 31
0.0
  0
LINE
  5
601
  8
1
 10
17.84903403155619
 20
9.5025979145474935
 30
0.0
 11
17.84903403155619
 21
31.50259791454744
 31
0.0
  0
LINE
  5
602
  8
1
 10
6.8490340315562426
 20
20.502597914547469
 30
0.0
 11
28.84903403155619
 21
20.502597914547469
 31
0.0
  0
CIRCLE
  5
603
  8
0
 10
17.84903403155619
 20
20.502597914547469
 30
0.0
 40
5.9999999999999707
  0
CIRCLE
  5
604
  8
3
 10
17.84903403155619
 20
20.50259791454744
 30
0.0
 40
5.0530000000000816
  0
LINE
  5
605
  8
0
 10
53.84903403155618
 20
24.502597914547479
 30
0.0
 11
53.849034031556243
 21
16.502597914547479
 31
0.0
  0
LINE
  5
606
  8
0
 10
53.84903403155618
 20
24.502597914547479
 30
0.0
 11
55.84903403155613
 21
26.502597914547479
 31
0.0
  0
LINE
  5
607
  8
0
 10
53.849034031556243
 20
16.502597914547479
 30
0.0
 11
55.8490340315563
 21
14.502597914547479
 31
0.0
  0
LINE
  5
608
  8
0
 10
55.849034031556251
 20
26.502597914547511
 30
0.0
 11
55.8490340315563
 21
14.502597914547479
 31
0.0
  0
LINE
  5
609
  8
0
 10
128.8490340315563
 20
26.502597914547511
 30
0.0
 11
128.8490340315563
 21
14.502597914547479
 31
0.0
  0
LINE
  5
60A
  8
0
 10
130.8490340315563
 20
16.502597914547479
 30
0.0
 11
128.8490340315563
 21
14.502597914547479
 31
0.0
  0
LINE
  5
60B
  8
0
 10
130.84903403155641
 20
24.502597914547479
 30
0.0
 11
128.84903403155641
 21
26.502597914547479
 31
0.0
  0
LINE
  5
60C
  8
3
 10
54.902034031556177
 20
25.55559791454753
 30
0.0
 11
70.849034031556343
 21
25.55559791454753
 31
0.0
  0
LINE
  5
60D
  8
3
 10
54.902034031556362
 20
15.44959791454739
 30
0.0
 11
70.849034031556343
 21
15.44959791454742
 31
0.0
  0
LINE
  5
60E
  8
0
 10
130.84903403155641
 20
24.502597914547479
 30
0.0
 11
130.8490340315563
 21
16.502597914547479
 31
0.0
  0
LINE
  5
60F
  8
1
 10
48.84903403155618
 20
20.502597914547469
 30
0.0
 11
135.8490340315565
 21
20.50259791454749
 31
0.0
  0
LINE
  5
612
  8
0
 10
70.849034031556343
 20
14.502597914547479
 30
0.0
 11
70.849034031556343
 21
26.502597914547479
 31
0.0
  0
LINE
  5
613
  8
0
 10
72.849034031556343
 20
26.502597914547479
 30
0.0
 11
72.849034031556343
 21
14.502597914547479
 31
0.0
  0
LINE
  5
614
  8
0
 10
55.849034031556322
 20
14.502597914547479
 30
0.0
 11
128.8490340315563
 21
14.50259791454749
 31
0.0
  0
LINE
  5
615
  8
0
 10
128.8490340315563
 20
26.502597914547479
 30
0.0
 11
55.849034031556251
 21
26.50259791454749
 31
0.0
  0
LINE
  5
631
  8
3
 10
72.849034031556343
 20
15.44959791454742
 30
0.0
 11
129.79603403155619
 21
15.44959791454748
 31
0.0
  0
LINE
  5
632
  8
3
 10
72.849034031556371
 20
25.55559791454753
 30
0.0
 11
129.7960340315563
 21
25.55559791454753
 31
0.0
  0
LINE
  5
633
  8
0
 10
70.849034031556343
 20
14.802597914547389
 30
0.0
 11
72.849034031556343
 21
14.8025979145474
 31
0.0
  0
LINE
  5
634
  8
0
 10
70.849034031556343
 20
15.00259791454739
 30
0.0
 11
72.849034031556343
 21
15.00259791454741
 31
0.0
  0
LINE
  5
635
  8
0
 10
70.849034031556343
 20
15.2025979145474
 30
0.0
 11
72.849034031556343
 21
15.202597914547409
 31
0.0
  0
LINE
  5
636
  8
0
 10
70.849034031556343
 20
14.60259791454739
 30
0.0
 11
72.849034031556343
 21
14.602597914547401
 31
0.0
  0
LINE
  5
637
  8
0
 10
70.849034031556343
 20
25.80259791454754
 30
0.0
 11
72.849034031556343
 21
25.802597914547519
 31
0.0
  0
LINE
  5
638
  8
0
 10
70.849034031556343
 20
26.00259791454754
 30
0.0
 11
72.849034031556343
 21
26.002597914547518
 31
0.0
  0
LINE
  5
639
  8
0
 10
70.849034031556343
 20
26.202597914547539
 30
0.0
 11
72.849034031556343
 21
26.202597914547528
 31
0.0
  0
LINE
  5
63A
  8
0
 10
70.849034031556343
 20
26.402597914547538
 30
0.0
 11
72.849034031556343
 21
26.402597914547531
 31
0.0
  0
TEXT
  5
70D
  8
0
 62
     3
 10
0.0
 20
0.0
 30
0.0
 40
5.0
  1
GS12060
  7
STANDARD1
  0
ENDSEC
  0
EOF
