  0
SECTION
  2
HEADER
  9
$ACADVER
  1
AC1009
  9
$INSBASE
 10
0.0
 20
0.0
 30
0.0
  9
$EXTMIN
 10
0.0
 20
-1.4802182810368341
 30
0.0
  9
$EXTMAX
 10
95.068967783594061
 20
20.90384462406524
 30
0.0
  9
$LIMMIN
 10
0.0
 20
0.0
  9
$LIMMAX
 10
375.0
 20
270.0
  9
$ORTHOMODE
 70
     0
  9
$REGENMODE
 70
     1
  9
$FILLMODE
 70
     1
  9
$QTEXTMODE
 70
     0
  9
$MIRRTEXT
 70
     0
  9
$DRAGMODE
 70
     2
  9
$LTSCALE
 40
10.0
  9
$OSMODE
 70
  3071
  9
$ATTMODE
 70
     1
  9
$TEXTSIZE
 40
2.0
  9
$TRACEWID
 40
0.05
  9
$TEXTSTYLE
  7
STANDARD
  9
$CLAYER
  8
0
  9
$CELTYPE
  6
BYLAYER
  9
$CECOLOR
 62
   256
  9
$DIMSCALE
 40
1.0
  9
$DIMASZ
 40
2.5
  9
$DIMEXO
 40
2.0
  9
$DIMDLI
 40
0.38
  9
$DIMRND
 40
0.0
  9
$DIMDLE
 40
0.0
  9
$DIMEXE
 40
2.0
  9
$DIMTP
 40
0.0
  9
$DIMTM
 40
0.0
  9
$DIMTXT
 40
3.0
  9
$DIMCEN
 40
0.09
  9
$DIMTSZ
 40
0.0
  9
$DIMTOL
 70
     0
  9
$DIMLIM
 70
     0
  9
$DIMTIH
 70
     0
  9
$DIMTOH
 70
     0
  9
$DIMSE1
 70
     0
  9
$DIMSE2
 70
     0
  9
$DIMTAD
 70
     1
  9
$DIMZIN
 70
     0
  9
$DIMBLK
  1

  9
$DIMASO
 70
     1
  9
$DIMSHO
 70
     0
  9
$DIMPOST
  1

  9
$DIMAPOST
  1

  9
$DIMALT
 70
     0
  9
$DIMALTD
 70
     2
  9
$DIMALTF
 40
25.399999999999999
  9
$DIMLFAC
 40
1.0
  9
$DIMTOFL
 70
     0
  9
$DIMTVP
 40
1.6000000000000001
  9
$DIMTIX
 70
     1
  9
$DIMSOXD
 70
     0
  9
$DIMSAH
 70
     0
  9
$DIMBLK1
  1

  9
$DIMBLK2
  1

  9
$DIMSTYLE
  2
STANDARD
  9
$DIMCLRD
 70
     0
  9
$DIMCLRE
 70
     0
  9
$DIMCLRT
 70
     0
  9
$DIMTFAC
 40
1.0
  9
$DIMGAP
 40
0.09
  9
$LUNITS
 70
     2
  9
$LUPREC
 70
     4
  9
$SKETCHINC
 40
0.1
  9
$FILLETRAD
 40
2.5
  9
$AUNITS
 70
     0
  9
$AUPREC
 70
     0
  9
$MENU
  1
E:\r13\win\SUPPORT\ACAD
  9
$ELEVATION
 40
0.0
  9
$PELEVATION
 40
0.0
  9
$THICKNESS
 40
0.0
  9
$LIMCHECK
 70
     0
  9
$BLIPMODE
 70
     0
  9
$CHAMFERA
 40
0.0
  9
$CHAMFERB
 40
0.0
  9
$SKPOLY
 70
     0
  9
$TDCREATE
 40
2448650.5678784722
  9
$TDUPDATE
 40
2456598.6923987502
  9
$TDINDWG
 40
0.0285086227
  9
$TDUSRTIMER
 40
0.0285086227
  9
$USRTIMER
 70
     1
  9
$ANGBASE
 50
0.0
  9
$ANGDIR
 70
     0
  9
$PDMODE
 70
     0
  9
$PDSIZE
 40
0.0
  9
$PLINEWID
 40
0.0
  9
$COORDS
 70
     1
  9
$SPLFRAME
 70
     0
  9
$SPLINETYPE
 70
     6
  9
$SPLINESEGS
 70
     8
  9
$ATTDIA
 70
     0
  9
$ATTREQ
 70
     1
  9
$HANDLING
 70
     1
  9
$HANDSEED
  5
77D
  9
$SURFTAB1
 70
     6
  9
$SURFTAB2
 70
     6
  9
$SURFTYPE
 70
     6
  9
$SURFU
 70
     6
  9
$SURFV
 70
     6
  9
$UCSNAME
  2

  9
$UCSORG
 10
0.0
 20
0.0
 30
0.0
  9
$UCSXDIR
 10
1.0
 20
0.0
 30
0.0
  9
$UCSYDIR
 10
0.0
 20
1.0
 30
0.0
  9
$PUCSNAME
  2

  9
$PUCSORG
 10
0.0
 20
0.0
 30
0.0
  9
$PUCSXDIR
 10
1.0
 20
0.0
 30
0.0
  9
$PUCSYDIR
 10
0.0
 20
1.0
 30
0.0
  9
$USERI1
 70
     0
  9
$USERI2
 70
     1
  9
$USERI3
 70
     1
  9
$USERI4
 70
     0
  9
$USERI5
 70
     0
  9
$USERR1
 40
0.0
  9
$USERR2
 40
0.0
  9
$USERR3
 40
0.0
  9
$USERR4
 40
0.0
  9
$USERR5
 40
0.0
  9
$WORLDVIEW
 70
     1
  9
$SHADEDGE
 70
     3
  9
$SHADEDIF
 70
    70
  9
$TILEMODE
 70
     1
  9
$MAXACTVP
 70
    16
  9
$PLIMCHECK
 70
     0
  9
$PEXTMIN
 10
1.0000000000000000E+020
 20
1.0000000000000000E+020
 30
1.0000000000000000E+020
  9
$PEXTMAX
 10
-1.0000000000000000E+020
 20
-1.0000000000000000E+020
 30
-1.0000000000000000E+020
  9
$PLIMMIN
 10
0.0
 20
0.0
  9
$PLIMMAX
 10
12.0
 20
9.0
  9
$UNITMODE
 70
     0
  9
$VISRETAIN
 70
     0
  9
$PLINEGEN
 70
     1
  9
$PSLTSCALE
 70
     0
  0
ENDSEC
  0
SECTION
  2
TABLES
  0
TABLE
  2
VPORT
 70
     1
  0
VPORT
  2
*ACTIVE
 70
     0
 10
0.0
 20
0.0
 11
1.0
 21
1.0
 12
187.49427839065231
 22
134.84202934784381
 13
0.0
 23
0.0
 14
10.0
 24
10.0
 15
10.0
 25
10.0
 16
0.0
 26
0.0
 36
1.0
 17
0.0
 27
0.0
 37
0.0
 40
275.78743625673241
 41
2.304913294797688
 42
50.0
 43
0.0
 44
0.0
 50
0.0
 51
0.0
 71
     0
 72
   500
 73
     1
 74
     0
 75
     0
 76
     0
 77
     0
 78
     2
  0
ENDTAB
  0
TABLE
  2
LTYPE
 70
     3
  0
LTYPE
  2
CONTINUOUS
 70
     0
  3
Solid Line
 72
    65
 73
     0
 40
0.0
  0
LTYPE
  2
CENTER
 70
     0
  3
____ _ ____ _ ____ _ ____ _ ____ _ ____ _ ____
 72
    65
 73
     4
 40
2.0
 49
1.25
 49
-0.25
 49
0.25
 49
-0.25
  0
LTYPE
  2
PHANTOM2
 70
     0
  3
___ _ _ ___ _ _ ___ _ _ ___ _ _
 72
    65
 73
     6
 40
1.25
 49
0.625
 49
-0.125
 49
0.125
 49
-0.125
 49
0.125
 49
-0.125
  0
ENDTAB
  0
TABLE
  2
LAYER
 70
     3
  0
LAYER
  2
0
 70
     0
 62
     7
  6
CONTINUOUS
  0
LAYER
  2
1
 70
     0
 62
     1
  6
CENTER
  0
LAYER
  2
3
 70
     0
 62
     3
  6
CONTINUOUS
  0
ENDTAB
  0
TABLE
  2
STYLE
 70
     2
  0
STYLE
  2
STANDARD
 70
     0
 40
0.0
 41
1.0
 50
0.0
 71
     0
 42
2.0
  3
TXT
  4
BIGFONT
  0
STYLE
  2
STANDARD1
 70
     0
 40
0.0
 41
1.0
 50
0.0
 71
     0
 42
3.0
  3
txt
  4

  0
ENDTAB
  0
TABLE
  2
VIEW
 70
     1
  0
VIEW
  2
ALL
 70
     0
 40
270.0
 10
220.99159663865549
 20
135.0
 41
0.0
 11
0.0
 21
0.0
 31
1.0
 12
0.0
 22
0.0
 32
0.0
 42
0.0
 43
0.0
 44
0.0
 50
0.0
 71
     0
  0
ENDTAB
  0
TABLE
  2
UCS
 70
     0
  0
ENDTAB
  0
TABLE
  2
APPID
 70
     3
  0
APPID
  2
ACAD
 70
     0
  0
APPID
  2
ACAD_MLEADERVER
 70
     0
  0
APPID
  2
ACAD_NAV_VCDISPLAY
 70
     0
  0
ENDTAB
  0
TABLE
  2
DIMSTYLE
 70
     1
  0
DIMSTYLE
  2
STANDARD
 70
     0
  3

  4

  5

  6

  7

 40
1.0
 41
0.18
 42
0.0625
 43
0.38
 44
0.18
 45
0.0
 46
0.0
 47
0.0
 48
0.0
140
0.18
141
0.09
142
0.0
143
25.399999999999999
144
1.0
145
0.0
146
1.0
147
0.09
 71
     0
 72
     0
 73
     1
 74
     1
 75
     0
 76
     0
 77
     0
 78
     0
170
     0
171
     2
172
     0
173
     0
174
     0
175
     0
176
     0
177
     0
178
     0
  0
ENDTAB
  0
ENDSEC
  0
SECTION
  2
BLOCKS
  0
BLOCK
  8
0
  2
$MODEL_SPACE
 70
     0
 10
0.0
 20
0.0
 30
0.0
  3
$MODEL_SPACE
  1

  0
ENDBLK
  5
217
  8
0
  0
BLOCK
 67
     1
  8
0
  2
$PAPER_SPACE
 70
     0
 10
0.0
 20
0.0
 30
0.0
  3
$PAPER_SPACE
  1

  0
ENDBLK
  5
215
 67
     1
  8
0
  0
ENDSEC
  0
SECTION
  2
ENTITIES
  0
LINE
  5
5BB
  8
0
 10
42.568967783594061
 20
14.303844624065331
 30
0.0
 11
44.068967783594047
 21
14.303844624065331
 31
0.0
  0
LINE
  5
5BC
  8
0
 10
42.568967783594061
 20
14.10384462406534
 30
0.0
 11
44.068967783594047
 21
14.10384462406534
 31
0.0
  0
LINE
  5
5BD
  8
0
 10
42.568967783594061
 20
13.903844624065361
 30
0.0
 11
44.068967783594047
 21
13.903844624065361
 31
0.0
  0
LINE
  5
5BE
  8
0
 10
42.568967783594061
 20
13.70384462406537
 30
0.0
 11
44.068967783594047
 21
13.70384462406537
 31
0.0
  0
LINE
  5
5BF
  8
0
 10
42.568967783594061
 20
13.103844624065401
 30
0.0
 11
44.068967783594047
 21
13.103844624065401
 31
0.0
  0
LINE
  5
5C0
  8
0
 10
42.568967783594061
 20
13.303844624065389
 30
0.0
 11
44.068967783594047
 21
13.303844624065389
 31
0.0
  0
LINE
  5
5C1
  8
0
 10
42.568967783594061
 20
13.50384462406538
 30
0.0
 11
44.068967783594047
 21
13.50384462406538
 31
0.0
  0
LINE
  5
5C2
  8
0
 10
42.568967783594061
 20
12.303844624065469
 30
0.0
 11
44.068967783594047
 21
12.303844624065469
 31
0.0
  0
LINE
  5
5C3
  8
0
 10
42.568967783594061
 20
12.10384462406549
 30
0.0
 11
44.068967783594047
 21
12.10384462406549
 31
0.0
  0
LINE
  5
5C4
  8
0
 10
42.568967783594061
 20
11.903844624065499
 30
0.0
 11
44.068967783594047
 21
11.903844624065499
 31
0.0
  0
LINE
  5
5C5
  8
0
 10
42.568967783594061
 20
12.50384462406546
 30
0.0
 11
44.068967783594047
 21
12.50384462406546
 31
0.0
  0
LINE
  5
5C6
  8
0
 10
42.568967783594061
 20
12.70384462406545
 30
0.0
 11
44.068967783594047
 21
12.70384462406545
 31
0.0
  0
LINE
  5
5C7
  8
0
 10
42.568967783594061
 20
12.903844624065441
 30
0.0
 11
44.068967783594047
 21
12.903844624065441
 31
0.0
  0
LINE
  5
5C8
  8
0
 10
42.568967783594061
 20
11.30384462406553
 30
0.0
 11
44.068967783594047
 21
11.30384462406553
 31
0.0
  0
LINE
  5
5C9
  8
0
 10
42.568967783594061
 20
11.50384462406552
 30
0.0
 11
44.068967783594047
 21
11.50384462406552
 31
0.0
  0
LINE
  5
5CA
  8
0
 10
42.568967783594061
 20
11.703844624065511
 30
0.0
 11
44.068967783594047
 21
11.703844624065511
 31
0.0
  0
LINE
  5
5CB
  8
0
 10
42.568967783594061
 20
11.103844624065539
 30
0.0
 11
44.068967783594047
 21
11.103844624065539
 31
0.0
  0
LINE
  5
5CC
  8
0
 10
42.568967783594061
 20
17.703844624065049
 30
0.0
 11
44.068967783594047
 21
17.703844624065049
 31
0.0
  0
LINE
  5
5CD
  8
0
 10
42.568967783594061
 20
17.10384462406509
 30
0.0
 11
44.068967783594047
 21
17.10384462406509
 31
0.0
  0
LINE
  5
5CE
  8
0
 10
42.568967783594061
 20
17.303844624065079
 30
0.0
 11
44.068967783594047
 21
17.303844624065079
 31
0.0
  0
LINE
  5
5CF
  8
0
 10
42.568967783594061
 20
17.503844624065071
 30
0.0
 11
44.068967783594047
 21
17.503844624065071
 31
0.0
  0
LINE
  5
5D0
  8
0
 10
42.568967783594061
 20
15.90384462406516
 30
0.0
 11
44.068967783594047
 21
15.90384462406516
 31
0.0
  0
LINE
  5
5D1
  8
0
 10
42.568967783594061
 20
16.10384462406514
 30
0.0
 11
44.068967783594047
 21
16.10384462406514
 31
0.0
  0
LINE
  5
5D2
  8
0
 10
42.568967783594061
 20
16.303844624065128
 30
0.0
 11
44.068967783594047
 21
16.303844624065128
 31
0.0
  0
LINE
  5
5D3
  8
0
 10
42.568967783594061
 20
16.903844624065101
 30
0.0
 11
44.068967783594047
 21
16.903844624065101
 31
0.0
  0
LINE
  5
5D4
  8
0
 10
42.568967783594061
 20
16.703844624065109
 30
0.0
 11
44.068967783594047
 21
16.703844624065109
 31
0.0
  0
LINE
  5
5D5
  8
0
 10
42.568967783594061
 20
16.50384462406512
 30
0.0
 11
44.068967783594047
 21
16.50384462406512
 31
0.0
  0
LINE
  5
5D6
  8
0
 10
42.568967783594061
 20
15.303844624065221
 30
0.0
 11
44.068967783594047
 21
15.303844624065221
 31
0.0
  0
LINE
  5
5D7
  8
0
 10
42.568967783594061
 20
15.503844624065209
 30
0.0
 11
44.068967783594047
 21
15.503844624065209
 31
0.0
  0
LINE
  5
5D8
  8
0
 10
42.568967783594061
 20
15.7038446240652
 30
0.0
 11
44.068967783594047
 21
15.7038446240652
 31
0.0
  0
LINE
  5
5D9
  8
0
 10
42.568967783594061
 20
15.10384462406523
 30
0.0
 11
44.068967783594047
 21
15.10384462406523
 31
0.0
  0
LINE
  5
5DA
  8
0
 10
42.568967783594061
 20
14.90384462406524
 30
0.0
 11
44.068967783594047
 21
14.90384462406524
 31
0.0
  0
LINE
  5
5DB
  8
0
 10
42.568967783594061
 20
14.703844624065249
 30
0.0
 11
44.068967783594047
 21
14.703844624065249
 31
0.0
  0
LINE
  5
5DC
  8
0
 10
42.568967783594061
 20
14.503844624065261
 30
0.0
 11
44.068967783594047
 21
14.503844624065261
 31
0.0
  0
LINE
  5
5DD
  8
1
 10
11.56896778359423
 20
7.903844624065357
 30
0.0
 11
11.56896778359423
 21
20.90384462406524
 31
0.0
  0
LINE
  5
5DE
  8
1
 10
5.0689677835942879
 20
14.4038446240653
 30
0.0
 11
18.068967783594172
 21
14.4038446240653
 31
0.0
  0
CIRCLE
  5
5DF
  8
0
 10
11.56896778359423
 20
14.4038446240653
 30
0.0
 40
3.9999999999999432
  0
CIRCLE
  5
5E0
  8
3
 10
11.56896778359423
 20
14.4038446240653
 30
0.0
 40
3.3235000000001662
  0
LINE
  5
5E1
  8
0
 10
31.76896778359411
 20
18.4038446240653
 30
0.0
 11
31.768967783594171
 21
10.40384462406527
 31
0.0
  0
LINE
  5
5E2
  8
0
 10
30.568967783594228
 20
11.603844624065291
 30
0.0
 11
31.768967783594171
 21
10.40384462406527
 31
0.0
  0
LINE
  5
5E3
  8
0
 10
31.768967783594171
 20
18.403844624065272
 30
0.0
 11
30.568967783594118
 21
17.20384462406528
 31
0.0
  0
LINE
  5
5E4
  8
0
 10
30.568967783594118
 20
17.20384462406528
 30
0.0
 11
30.568967783594228
 21
11.603844624065291
 31
0.0
  0
LINE
  5
5E5
  8
0
 10
92.568967783594104
 20
17.20384462406528
 30
0.0
 11
92.568967783594005
 21
11.603844624065291
 31
0.0
  0
LINE
  5
5E6
  8
0
 10
31.768967783594171
 20
10.40384462406533
 30
0.0
 11
91.368967783594073
 21
10.40384462406527
 31
0.0
  0
LINE
  5
5E7
  8
3
 10
31.092467783594302
 20
11.080344624065191
 30
0.0
 11
42.568967783594061
 21
11.080344624065191
 31
0.0
  0
LINE
  5
5E8
  8
3
 10
31.092467783594248
 20
17.727344624065442
 30
0.0
 11
42.568967783594061
 21
17.72734462406542
 31
0.0
  0
LINE
  5
5E9
  8
0
 10
31.768967783594121
 20
18.403844624065329
 30
0.0
 11
91.368967783594073
 21
18.403844624065272
 31
0.0
  0
LINE
  5
5EA
  8
0
 10
91.368967783594073
 20
18.403844624065272
 30
0.0
 11
92.568967783594104
 21
17.20384462406528
 31
0.0
  0
LINE
  5
5EB
  8
0
 10
92.568967783594005
 20
11.603844624065291
 30
0.0
 11
91.368967783594073
 21
10.40384462406527
 31
0.0
  0
LINE
  5
5EC
  8
0
 10
91.368967783594115
 20
18.4038446240653
 30
0.0
 11
91.368967783594073
 21
10.40384462406527
 31
0.0
  0
LINE
  5
5ED
  8
1
 10
28.068967783594179
 20
14.4038446240653
 30
0.0
 11
95.068967783594061
 21
14.40384462406524
 31
0.0
  0
LINE
  5
5EE
  8
0
 10
44.068967783594047
 20
17.88210549363049
 30
0.0
 11
42.568967783594061
 21
17.88210549363049
 31
0.0
  0
LINE
  5
5EF
  8
0
 10
44.068967783594047
 20
10.92558375450005
 30
0.0
 11
42.568967783594061
 21
10.92558375450005
 31
0.0
  0
LINE
  5
5F0
  8
0
 10
42.568967783594061
 20
10.40384462406527
 30
0.0
 11
42.568967783594061
 21
18.403844624065272
 31
0.0
  0
LINE
  5
5F1
  8
0
 10
44.068967783594047
 20
18.403844624065272
 30
0.0
 11
44.068967783594047
 21
10.40384462406527
 31
0.0
  0
LINE
  5
60D
  8
3
 10
44.068967783594047
 20
11.080344624065191
 30
0.0
 11
92.045467783593935
 21
11.080344624065191
 31
0.0
  0
LINE
  5
60E
  8
3
 10
44.068967783594047
 20
17.727344624065399
 30
0.0
 11
92.045467783593978
 21
17.727344624065381
 31
0.0
  0
LINE
  5
612
  8
0
 10
44.068967783594047
 20
18.26036636319591
 30
0.0
 11
42.568967783594061
 21
18.26036636319591
 31
0.0
  0
LINE
  5
613
  8
0
 10
42.568967783594061
 20
18.082105493630479
 30
0.0
 11
44.068967783594047
 21
18.082105493630479
 31
0.0
  0
LINE
  5
614
  8
0
 10
44.068967783594047
 20
10.547322884934561
 30
0.0
 11
42.568967783594061
 21
10.547322884934561
 31
0.0
  0
LINE
  5
615
  8
0
 10
42.568967783594061
 20
10.725583754500059
 30
0.0
 11
44.068967783594047
 21
10.725583754500059
 31
0.0
  0
TEXT
  5
6E8
  8
0
 62
     3
 10
0.0
 20
0.0
 30
0.0
 40
5.0
  1
GS08050
  7
STANDARD1
  0
ENDSEC
  0
EOF
