  0
SECTION
  2
HEADER
  9
$ACADVER
  1
AC1009
  9
$INSBASE
 10
0.0
 20
0.0
 30
0.0
  9
$EXTMIN
 10
0.0
 20
-1.4802182810368341
 30
0.0
  9
$EXTMAX
 10
96.333974085218415
 20
15.615393515908799
 30
0.0
  9
$LIMMIN
 10
0.0
 20
0.0
  9
$LIMMAX
 10
375.0
 20
270.0
  9
$ORTHOMODE
 70
     0
  9
$REGENMODE
 70
     1
  9
$FILLMODE
 70
     1
  9
$QTEXTMODE
 70
     0
  9
$MIRRTEXT
 70
     0
  9
$DRAGMODE
 70
     2
  9
$LTSCALE
 40
10.0
  9
$OSMODE
 70
  3071
  9
$ATTMODE
 70
     1
  9
$TEXTSIZE
 40
2.0
  9
$TRACEWID
 40
0.05
  9
$TEXTSTYLE
  7
STANDARD
  9
$CLAYER
  8
0
  9
$CELTYPE
  6
BYLAYER
  9
$CECOLOR
 62
   256
  9
$DIMSCALE
 40
1.0
  9
$DIMASZ
 40
2.5
  9
$DIMEXO
 40
2.0
  9
$DIMDLI
 40
0.38
  9
$DIMRND
 40
0.0
  9
$DIMDLE
 40
0.0
  9
$DIMEXE
 40
2.0
  9
$DIMTP
 40
0.0
  9
$DIMTM
 40
0.0
  9
$DIMTXT
 40
3.0
  9
$DIMCEN
 40
0.09
  9
$DIMTSZ
 40
0.0
  9
$DIMTOL
 70
     0
  9
$DIMLIM
 70
     0
  9
$DIMTIH
 70
     0
  9
$DIMTOH
 70
     0
  9
$DIMSE1
 70
     0
  9
$DIMSE2
 70
     0
  9
$DIMTAD
 70
     1
  9
$DIMZIN
 70
     0
  9
$DIMBLK
  1

  9
$DIMASO
 70
     1
  9
$DIMSHO
 70
     0
  9
$DIMPOST
  1

  9
$DIMAPOST
  1

  9
$DIMALT
 70
     0
  9
$DIMALTD
 70
     2
  9
$DIMALTF
 40
25.399999999999999
  9
$DIMLFAC
 40
1.0
  9
$DIMTOFL
 70
     0
  9
$DIMTVP
 40
1.6000000000000001
  9
$DIMTIX
 70
     1
  9
$DIMSOXD
 70
     0
  9
$DIMSAH
 70
     0
  9
$DIMBLK1
  1

  9
$DIMBLK2
  1

  9
$DIMSTYLE
  2
STANDARD
  9
$DIMCLRD
 70
     0
  9
$DIMCLRE
 70
     0
  9
$DIMCLRT
 70
     0
  9
$DIMTFAC
 40
1.0
  9
$DIMGAP
 40
0.09
  9
$LUNITS
 70
     2
  9
$LUPREC
 70
     4
  9
$SKETCHINC
 40
0.1
  9
$FILLETRAD
 40
2.5
  9
$AUNITS
 70
     0
  9
$AUPREC
 70
     0
  9
$MENU
  1
E:\r13\win\SUPPORT\ACAD
  9
$ELEVATION
 40
0.0
  9
$PELEVATION
 40
0.0
  9
$THICKNESS
 40
0.0
  9
$LIMCHECK
 70
     0
  9
$BLIPMODE
 70
     0
  9
$CHAMFERA
 40
0.0
  9
$CHAMFERB
 40
0.0
  9
$SKPOLY
 70
     0
  9
$TDCREATE
 40
2448650.5678784722
  9
$TDUPDATE
 40
2456598.6922597219
  9
$TDINDWG
 40
0.0327340741
  9
$TDUSRTIMER
 40
0.0327340741
  9
$USRTIMER
 70
     1
  9
$ANGBASE
 50
0.0
  9
$ANGDIR
 70
     0
  9
$PDMODE
 70
     0
  9
$PDSIZE
 40
0.0
  9
$PLINEWID
 40
0.0
  9
$COORDS
 70
     1
  9
$SPLFRAME
 70
     0
  9
$SPLINETYPE
 70
     6
  9
$SPLINESEGS
 70
     8
  9
$ATTDIA
 70
     0
  9
$ATTREQ
 70
     1
  9
$HANDLING
 70
     1
  9
$HANDSEED
  5
7A8
  9
$SURFTAB1
 70
     6
  9
$SURFTAB2
 70
     6
  9
$SURFTYPE
 70
     6
  9
$SURFU
 70
     6
  9
$SURFV
 70
     6
  9
$UCSNAME
  2

  9
$UCSORG
 10
0.0
 20
0.0
 30
0.0
  9
$UCSXDIR
 10
1.0
 20
0.0
 30
0.0
  9
$UCSYDIR
 10
0.0
 20
1.0
 30
0.0
  9
$PUCSNAME
  2

  9
$PUCSORG
 10
0.0
 20
0.0
 30
0.0
  9
$PUCSXDIR
 10
1.0
 20
0.0
 30
0.0
  9
$PUCSYDIR
 10
0.0
 20
1.0
 30
0.0
  9
$USERI1
 70
     0
  9
$USERI2
 70
     1
  9
$USERI3
 70
     1
  9
$USERI4
 70
     0
  9
$USERI5
 70
     0
  9
$USERR1
 40
0.0
  9
$USERR2
 40
0.0
  9
$USERR3
 40
0.0
  9
$USERR4
 40
0.0
  9
$USERR5
 40
0.0
  9
$WORLDVIEW
 70
     1
  9
$SHADEDGE
 70
     3
  9
$SHADEDIF
 70
    70
  9
$TILEMODE
 70
     1
  9
$MAXACTVP
 70
    16
  9
$PLIMCHECK
 70
     0
  9
$PEXTMIN
 10
1.0000000000000000E+020
 20
1.0000000000000000E+020
 30
1.0000000000000000E+020
  9
$PEXTMAX
 10
-1.0000000000000000E+020
 20
-1.0000000000000000E+020
 30
-1.0000000000000000E+020
  9
$PLIMMIN
 10
0.0
 20
0.0
  9
$PLIMMAX
 10
12.0
 20
9.0
  9
$UNITMODE
 70
     0
  9
$VISRETAIN
 70
     0
  9
$PLINEGEN
 70
     1
  9
$PSLTSCALE
 70
     0
  0
ENDSEC
  0
SECTION
  2
TABLES
  0
TABLE
  2
VPORT
 70
     1
  0
VPORT
  2
*ACTIVE
 70
     0
 10
0.0
 20
0.0
 11
1.0
 21
1.0
 12
187.49427839065231
 22
134.8472183595006
 13
0.0
 23
0.0
 14
10.0
 24
10.0
 15
10.0
 25
10.0
 16
0.0
 26
0.0
 36
1.0
 17
0.0
 27
0.0
 37
0.0
 40
275.77684817069792
 41
2.304913294797688
 42
50.0
 43
0.0
 44
0.0
 50
0.0
 51
0.0
 71
     0
 72
   500
 73
     1
 74
     0
 75
     0
 76
     0
 77
     0
 78
     2
  0
ENDTAB
  0
TABLE
  2
LTYPE
 70
     3
  0
LTYPE
  2
CONTINUOUS
 70
     0
  3
Solid Line
 72
    65
 73
     0
 40
0.0
  0
LTYPE
  2
CENTER
 70
     0
  3
____ _ ____ _ ____ _ ____ _ ____ _ ____ _ ____
 72
    65
 73
     4
 40
2.0
 49
1.25
 49
-0.25
 49
0.25
 49
-0.25
  0
LTYPE
  2
PHANTOM2
 70
     0
  3
___ _ _ ___ _ _ ___ _ _ ___ _ _
 72
    65
 73
     6
 40
1.25
 49
0.625
 49
-0.125
 49
0.125
 49
-0.125
 49
0.125
 49
-0.125
  0
ENDTAB
  0
TABLE
  2
LAYER
 70
     3
  0
LAYER
  2
0
 70
     0
 62
     7
  6
CONTINUOUS
  0
LAYER
  2
1
 70
     0
 62
     1
  6
CENTER
  0
LAYER
  2
3
 70
     0
 62
     3
  6
CONTINUOUS
  0
ENDTAB
  0
TABLE
  2
STYLE
 70
     2
  0
STYLE
  2
STANDARD
 70
     0
 40
0.0
 41
1.0
 50
0.0
 71
     0
 42
2.0
  3
TXT
  4
BIGFONT
  0
STYLE
  2
STANDARD1
 70
     0
 40
0.0
 41
1.0
 50
0.0
 71
     0
 42
3.0
  3
txt
  4

  0
ENDTAB
  0
TABLE
  2
VIEW
 70
     1
  0
VIEW
  2
ALL
 70
     0
 40
270.0
 10
220.99159663865549
 20
135.0
 41
0.0
 11
0.0
 21
0.0
 31
1.0
 12
0.0
 22
0.0
 32
0.0
 42
0.0
 43
0.0
 44
0.0
 50
0.0
 71
     0
  0
ENDTAB
  0
TABLE
  2
UCS
 70
     0
  0
ENDTAB
  0
TABLE
  2
APPID
 70
     3
  0
APPID
  2
ACAD
 70
     0
  0
APPID
  2
ACAD_MLEADERVER
 70
     0
  0
APPID
  2
ACAD_NAV_VCDISPLAY
 70
     0
  0
ENDTAB
  0
TABLE
  2
DIMSTYLE
 70
     1
  0
DIMSTYLE
  2
STANDARD
 70
     0
  3

  4

  5

  6

  7

 40
1.0
 41
0.18
 42
0.0625
 43
0.38
 44
0.18
 45
0.0
 46
0.0
 47
0.0
 48
0.0
140
0.18
141
0.09
142
0.0
143
25.399999999999999
144
1.0
145
0.0
146
1.0
147
0.09
 71
     0
 72
     0
 73
     1
 74
     1
 75
     0
 76
     0
 77
     0
 78
     0
170
     0
171
     2
172
     0
173
     0
174
     0
175
     0
176
     0
177
     0
178
     0
  0
ENDTAB
  0
ENDSEC
  0
SECTION
  2
BLOCKS
  0
BLOCK
  8
0
  2
$MODEL_SPACE
 70
     0
 10
0.0
 20
0.0
 30
0.0
  3
$MODEL_SPACE
  1

  0
ENDBLK
  5
217
  8
0
  0
BLOCK
 67
     1
  8
0
  2
$PAPER_SPACE
 70
     0
 10
0.0
 20
0.0
 30
0.0
  3
$PAPER_SPACE
  1

  0
ENDBLK
  5
215
 67
     1
  8
0
  0
ENDSEC
  0
SECTION
  2
ENTITIES
  0
LINE
  5
5C5
  8
1
 10
8.3339740852183581
 20
5.6153935159087487
 30
0.0
 11
8.3339740852183581
 21
15.615393515908799
 31
0.0
  0
LINE
  5
5C6
  8
1
 10
3.3339740852183009
 20
10.615393515908769
 30
0.0
 11
13.33397408521841
 21
10.615393515908769
 31
0.0
  0
CIRCLE
  5
5C7
  8
0
 10
8.3339740852183581
 20
10.615393515908769
 30
0.0
 40
2.500000000000028
  0
CIRCLE
  5
5C8
  8
3
 10
8.3339740852183581
 20
10.615393515908769
 30
0.0
 40
2.067000000000291
  0
LINE
  5
5C9
  8
0
 10
33.833974085218422
 20
8.4653935159089144
 30
0.0
 11
34.833974085218422
 21
8.465393515908886
 31
0.0
  0
LINE
  5
5CA
  8
0
 10
33.833974085218422
 20
10.56539351590879
 30
0.0
 11
34.833974085218422
 21
10.56539351590876
 31
0.0
  0
LINE
  5
5CB
  8
0
 10
33.833974085218422
 20
10.465393515908801
 30
0.0
 11
34.833974085218422
 21
10.465393515908771
 31
0.0
  0
LINE
  5
5CC
  8
0
 10
33.833974085218422
 20
10.365393515908799
 30
0.0
 11
34.833974085218422
 21
10.36539351590878
 31
0.0
  0
LINE
  5
5CD
  8
0
 10
33.833974085218422
 20
10.26539351590881
 30
0.0
 11
34.833974085218422
 21
10.26539351590878
 31
0.0
  0
LINE
  5
5CE
  8
0
 10
33.833974085218422
 20
10.16539351590882
 30
0.0
 11
34.833974085218422
 21
10.165393515908789
 31
0.0
  0
LINE
  5
5CF
  8
0
 10
33.833974085218422
 20
10.06539351590882
 30
0.0
 11
34.833974085218422
 21
10.06539351590879
 31
0.0
  0
LINE
  5
5D0
  8
0
 10
33.833974085218422
 20
9.9653935159088292
 30
0.0
 11
34.833974085218422
 21
9.9653935159088007
 31
0.0
  0
LINE
  5
5D1
  8
0
 10
33.833974085218422
 20
9.3653935159088633
 30
0.0
 11
34.833974085218422
 21
9.3653935159088348
 31
0.0
  0
LINE
  5
5D2
  8
0
 10
33.833974085218422
 20
9.4653935159088576
 30
0.0
 11
34.833974085218422
 21
9.4653935159088292
 31
0.0
  0
LINE
  5
5D3
  8
0
 10
33.833974085218422
 20
9.5653935159088501
 30
0.0
 11
34.833974085218422
 21
9.5653935159088235
 31
0.0
  0
LINE
  5
5D4
  8
0
 10
33.833974085218422
 20
9.6653935159088462
 30
0.0
 11
34.833974085218422
 21
9.6653935159088178
 31
0.0
  0
LINE
  5
5D5
  8
0
 10
33.833974085218422
 20
9.7653935159088405
 30
0.0
 11
34.833974085218422
 21
9.7653935159088121
 31
0.0
  0
LINE
  5
5D6
  8
0
 10
33.833974085218422
 20
9.8653935159088348
 30
0.0
 11
34.833974085218422
 21
9.8653935159088064
 31
0.0
  0
LINE
  5
5D7
  8
0
 10
33.833974085218422
 20
9.2653935159088672
 30
0.0
 11
34.833974085218422
 21
9.2653935159088405
 31
0.0
  0
LINE
  5
5D8
  8
0
 10
33.833974085218422
 20
9.1653935159088746
 30
0.0
 11
34.833974085218422
 21
9.1653935159088462
 31
0.0
  0
LINE
  5
5D9
  8
0
 10
33.833974085218422
 20
9.0653935159088803
 30
0.0
 11
34.833974085218422
 21
9.0653935159088501
 31
0.0
  0
LINE
  5
5DA
  8
0
 10
33.833974085218422
 20
8.965393515908886
 30
0.0
 11
34.833974085218422
 21
8.9653935159088576
 31
0.0
  0
LINE
  5
5DB
  8
0
 10
33.833974085218422
 20
8.8653935159088917
 30
0.0
 11
34.833974085218422
 21
8.8653935159088633
 31
0.0
  0
LINE
  5
5DC
  8
0
 10
33.833974085218422
 20
8.5653935159089087
 30
0.0
 11
34.833974085218422
 21
8.5653935159088803
 31
0.0
  0
LINE
  5
5DD
  8
0
 10
33.833974085218422
 20
8.6653935159089031
 30
0.0
 11
34.833974085218422
 21
8.6653935159088746
 31
0.0
  0
LINE
  5
5DE
  8
0
 10
33.833974085218422
 20
8.7653935159088974
 30
0.0
 11
34.833974085218422
 21
8.7653935159088672
 31
0.0
  0
LINE
  5
5DF
  8
0
 10
33.833974085218422
 20
12.76539351590867
 30
0.0
 11
34.833974085218422
 21
12.7653935159087
 31
0.0
  0
LINE
  5
5E0
  8
0
 10
33.833974085218422
 20
12.46539351590868
 30
0.0
 11
34.833974085218422
 21
12.46539351590871
 31
0.0
  0
LINE
  5
5E1
  8
0
 10
33.833974085218422
 20
12.56539351590868
 30
0.0
 11
34.833974085218422
 21
12.56539351590871
 31
0.0
  0
LINE
  5
5E2
  8
0
 10
33.833974085218422
 20
12.66539351590867
 30
0.0
 11
34.833974085218422
 21
12.665393515908701
 31
0.0
  0
LINE
  5
5E3
  8
0
 10
33.833974085218422
 20
12.365393515908689
 30
0.0
 11
34.833974085218422
 21
12.365393515908719
 31
0.0
  0
LINE
  5
5E4
  8
0
 10
33.833974085218422
 20
12.2653935159087
 30
0.0
 11
34.833974085218422
 21
12.26539351590872
 31
0.0
  0
LINE
  5
5E5
  8
0
 10
33.833974085218422
 20
12.165393515908701
 30
0.0
 11
34.833974085218422
 21
12.165393515908731
 31
0.0
  0
LINE
  5
5E6
  8
0
 10
33.833974085218422
 20
12.06539351590871
 30
0.0
 11
34.833974085218422
 21
12.06539351590874
 31
0.0
  0
LINE
  5
5E7
  8
0
 10
33.833974085218422
 20
11.96539351590871
 30
0.0
 11
34.833974085218422
 21
11.96539351590874
 31
0.0
  0
LINE
  5
5E8
  8
0
 10
33.833974085218422
 20
11.36539351590875
 30
0.0
 11
34.833974085218422
 21
11.36539351590878
 31
0.0
  0
LINE
  5
5E9
  8
0
 10
33.833974085218422
 20
11.46539351590874
 30
0.0
 11
34.833974085218422
 21
11.465393515908771
 31
0.0
  0
LINE
  5
5EA
  8
0
 10
33.833974085218422
 20
11.56539351590874
 30
0.0
 11
34.833974085218422
 21
11.56539351590876
 31
0.0
  0
LINE
  5
5EB
  8
0
 10
33.833974085218422
 20
11.665393515908731
 30
0.0
 11
34.833974085218422
 21
11.665393515908759
 31
0.0
  0
LINE
  5
5EC
  8
0
 10
33.833974085218422
 20
11.76539351590872
 30
0.0
 11
34.833974085218422
 21
11.76539351590875
 31
0.0
  0
LINE
  5
5ED
  8
0
 10
33.833974085218422
 20
11.865393515908719
 30
0.0
 11
34.833974085218422
 21
11.86539351590875
 31
0.0
  0
LINE
  5
5EE
  8
0
 10
33.833974085218422
 20
11.26539351590875
 30
0.0
 11
34.833974085218422
 21
11.26539351590878
 31
0.0
  0
LINE
  5
5EF
  8
0
 10
33.833974085218422
 20
11.165393515908759
 30
0.0
 11
34.833974085218422
 21
11.165393515908789
 31
0.0
  0
LINE
  5
5F0
  8
0
 10
33.833974085218422
 20
11.06539351590877
 30
0.0
 11
34.833974085218422
 21
11.06539351590879
 31
0.0
  0
LINE
  5
5F1
  8
0
 10
33.833974085218422
 20
10.965393515908771
 30
0.0
 11
34.833974085218422
 21
10.965393515908801
 31
0.0
  0
LINE
  5
5F2
  8
0
 10
33.833974085218422
 20
10.86539351590878
 30
0.0
 11
34.833974085218422
 21
10.865393515908799
 31
0.0
  0
LINE
  5
5F3
  8
0
 10
33.833974085218422
 20
10.76539351590878
 30
0.0
 11
34.833974085218422
 21
10.76539351590881
 31
0.0
  0
LINE
  5
5F4
  8
0
 10
33.833974085218422
 20
10.665393515908789
 30
0.0
 11
34.833974085218422
 21
10.66539351590882
 31
0.0
  0
LINE
  5
5F5
  8
0
 10
25.833974085218419
 20
12.215393515908771
 30
0.0
 11
25.833974085218419
 21
9.0153935159087553
 31
0.0
  0
LINE
  5
5F6
  8
0
 10
26.733974085218389
 20
13.11539351590878
 30
0.0
 11
25.833974085218419
 21
12.215393515908771
 31
0.0
  0
LINE
  5
5F7
  8
0
 10
25.833974085218419
 20
9.0153935159087553
 30
0.0
 11
26.733974085218389
 21
8.1153935159087496
 31
0.0
  0
LINE
  5
5F8
  8
0
 10
26.733974085218389
 20
13.11539351590875
 30
0.0
 11
26.733974085218389
 21
8.1153935159087496
 31
0.0
  0
LINE
  5
5F9
  8
0
 10
92.933974085218438
 20
13.11539351590875
 30
0.0
 11
92.933974085218438
 21
8.1153935159087496
 31
0.0
  0
LINE
  5
5FA
  8
0
 10
93.833974085218415
 20
9.0153935159087553
 30
0.0
 11
92.933974085218438
 21
8.1153935159087496
 31
0.0
  0
LINE
  5
5FB
  8
0
 10
92.933974085218438
 20
13.11539351590878
 30
0.0
 11
93.833974085218415
 21
12.215393515908771
 31
0.0
  0
LINE
  5
5FC
  8
0
 10
93.833974085218415
 20
12.215393515908771
 30
0.0
 11
93.833974085218415
 21
9.0153935159087553
 31
0.0
  0
LINE
  5
5FD
  8
3
 10
26.30097408521868
 20
12.682393515909039
 30
0.0
 11
33.833974085218422
 21
12.682393515909011
 31
0.0
  0
LINE
  5
5FE
  8
3
 10
26.30097408521857
 20
8.5483935159086002
 30
0.0
 11
33.833974085218408
 21
8.5483935159085931
 31
0.0
  0
LINE
  5
5FF
  8
1
 10
23.333974085218411
 20
10.615393515908769
 30
0.0
 11
96.333974085218415
 21
10.615393515908799
 31
0.0
  0
LINE
  5
602
  8
0
 10
33.833974085218422
 20
8.1153935159087762
 30
0.0
 11
33.833974085218422
 21
13.11539351590878
 31
0.0
  0
LINE
  5
603
  8
0
 10
34.833974085218422
 20
13.11539351590878
 30
0.0
 11
34.833974085218422
 21
8.1153935159087762
 31
0.0
  0
LINE
  5
604
  8
0
 10
26.733974085218389
 20
8.1153935159087638
 30
0.0
 11
92.933974085218438
 21
8.1153935159088064
 31
0.0
  0
LINE
  5
605
  8
0
 10
92.933974085218438
 20
13.115393515908799
 30
0.0
 11
26.733974085218389
 21
13.115393515908769
 31
0.0
  0
LINE
  5
621
  8
3
 10
34.833974085218422
 20
8.5483935159085931
 30
0.0
 11
93.366974085218274
 21
8.5483935159085718
 31
0.0
  0
LINE
  5
622
  8
3
 10
34.833974085218422
 20
12.682393515909011
 30
0.0
 11
93.366974085218189
 21
12.68239351590895
 31
0.0
  0
LINE
  5
623
  8
0
 10
33.833974085218408
 20
8.3653935159089201
 30
0.0
 11
34.833974085218408
 21
8.3653935159088917
 31
0.0
  0
LINE
  5
624
  8
0
 10
33.833974085218408
 20
8.2653935159089258
 30
0.0
 11
34.833974085218408
 21
8.2653935159088974
 31
0.0
  0
LINE
  5
625
  8
0
 10
33.833974085218408
 20
8.1653935159089315
 30
0.0
 11
34.833974085218408
 21
8.1653935159089031
 31
0.0
  0
LINE
  5
626
  8
0
 10
33.833974085218408
 20
12.96539351590866
 30
0.0
 11
34.833974085218408
 21
12.96539351590868
 31
0.0
  0
LINE
  5
627
  8
0
 10
33.833974085218408
 20
12.865393515908661
 30
0.0
 11
34.833974085218408
 21
12.865393515908689
 31
0.0
  0
LINE
  5
628
  8
0
 10
33.833974085218408
 20
13.065393515908649
 30
0.0
 11
34.833974085218408
 21
13.06539351590868
 31
0.0
  0
TEXT
  5
713
  8
0
 62
     3
 10
0.0
 20
0.0
 30
0.0
 40
5.0
  1
GS05060-SUS
  7
STANDARD1
  0
ENDSEC
  0
EOF
