  0
SECTION
  2
HEADER
  9
$ACADVER
  1
AC1009
  9
$INSBASE
 10
0.0
 20
0.0
 30
0.0
  9
$EXTMIN
 10
0.0
 20
-1.4802182810368341
 30
0.0
  9
$EXTMAX
 10
63.189028115653549
 20
14.16388735075836
 30
0.0
  9
$LIMMIN
 10
0.0
 20
0.0
  9
$LIMMAX
 10
375.0
 20
270.0
  9
$ORTHOMODE
 70
     1
  9
$REGENMODE
 70
     1
  9
$FILLMODE
 70
     1
  9
$QTEXTMODE
 70
     0
  9
$MIRRTEXT
 70
     0
  9
$DRAGMODE
 70
     2
  9
$LTSCALE
 40
10.0
  9
$OSMODE
 70
  3071
  9
$ATTMODE
 70
     1
  9
$TEXTSIZE
 40
2.0
  9
$TRACEWID
 40
0.05
  9
$TEXTSTYLE
  7
STANDARD
  9
$CLAYER
  8
0
  9
$CELTYPE
  6
BYLAYER
  9
$CECOLOR
 62
   256
  9
$DIMSCALE
 40
1.0
  9
$DIMASZ
 40
2.5
  9
$DIMEXO
 40
2.0
  9
$DIMDLI
 40
0.38
  9
$DIMRND
 40
0.0
  9
$DIMDLE
 40
0.0
  9
$DIMEXE
 40
2.0
  9
$DIMTP
 40
0.0
  9
$DIMTM
 40
0.0
  9
$DIMTXT
 40
3.0
  9
$DIMCEN
 40
0.09
  9
$DIMTSZ
 40
0.0
  9
$DIMTOL
 70
     0
  9
$DIMLIM
 70
     0
  9
$DIMTIH
 70
     0
  9
$DIMTOH
 70
     0
  9
$DIMSE1
 70
     0
  9
$DIMSE2
 70
     0
  9
$DIMTAD
 70
     1
  9
$DIMZIN
 70
     0
  9
$DIMBLK
  1

  9
$DIMASO
 70
     1
  9
$DIMSHO
 70
     0
  9
$DIMPOST
  1

  9
$DIMAPOST
  1

  9
$DIMALT
 70
     0
  9
$DIMALTD
 70
     2
  9
$DIMALTF
 40
25.399999999999999
  9
$DIMLFAC
 40
1.0
  9
$DIMTOFL
 70
     0
  9
$DIMTVP
 40
1.6000000000000001
  9
$DIMTIX
 70
     1
  9
$DIMSOXD
 70
     0
  9
$DIMSAH
 70
     0
  9
$DIMBLK1
  1

  9
$DIMBLK2
  1

  9
$DIMSTYLE
  2
STANDARD
  9
$DIMCLRD
 70
     0
  9
$DIMCLRE
 70
     0
  9
$DIMCLRT
 70
     0
  9
$DIMTFAC
 40
1.0
  9
$DIMGAP
 40
0.09
  9
$LUNITS
 70
     2
  9
$LUPREC
 70
     4
  9
$SKETCHINC
 40
0.1
  9
$FILLETRAD
 40
2.5
  9
$AUNITS
 70
     0
  9
$AUPREC
 70
     0
  9
$MENU
  1
E:\r13\win\SUPPORT\ACAD
  9
$ELEVATION
 40
0.0
  9
$PELEVATION
 40
0.0
  9
$THICKNESS
 40
0.0
  9
$LIMCHECK
 70
     0
  9
$BLIPMODE
 70
     0
  9
$CHAMFERA
 40
0.0
  9
$CHAMFERB
 40
0.0
  9
$SKPOLY
 70
     0
  9
$TDCREATE
 40
2448650.5678784722
  9
$TDUPDATE
 40
2456598.6921463432
  9
$TDINDWG
 40
0.0806113079
  9
$TDUSRTIMER
 40
0.0806113079
  9
$USRTIMER
 70
     1
  9
$ANGBASE
 50
0.0
  9
$ANGDIR
 70
     0
  9
$PDMODE
 70
     0
  9
$PDSIZE
 40
0.0
  9
$PLINEWID
 40
0.0
  9
$COORDS
 70
     1
  9
$SPLFRAME
 70
     0
  9
$SPLINETYPE
 70
     6
  9
$SPLINESEGS
 70
     8
  9
$ATTDIA
 70
     0
  9
$ATTREQ
 70
     1
  9
$HANDLING
 70
     1
  9
$HANDSEED
  5
78C
  9
$SURFTAB1
 70
     6
  9
$SURFTAB2
 70
     6
  9
$SURFTYPE
 70
     6
  9
$SURFU
 70
     6
  9
$SURFV
 70
     6
  9
$UCSNAME
  2

  9
$UCSORG
 10
0.0
 20
0.0
 30
0.0
  9
$UCSXDIR
 10
1.0
 20
0.0
 30
0.0
  9
$UCSYDIR
 10
0.0
 20
1.0
 30
0.0
  9
$PUCSNAME
  2

  9
$PUCSORG
 10
0.0
 20
0.0
 30
0.0
  9
$PUCSXDIR
 10
1.0
 20
0.0
 30
0.0
  9
$PUCSYDIR
 10
0.0
 20
1.0
 30
0.0
  9
$USERI1
 70
     0
  9
$USERI2
 70
     1
  9
$USERI3
 70
     1
  9
$USERI4
 70
     0
  9
$USERI5
 70
     0
  9
$USERR1
 40
0.0
  9
$USERR2
 40
0.0
  9
$USERR3
 40
0.0
  9
$USERR4
 40
0.0
  9
$USERR5
 40
0.0
  9
$WORLDVIEW
 70
     1
  9
$SHADEDGE
 70
     3
  9
$SHADEDIF
 70
    70
  9
$TILEMODE
 70
     1
  9
$MAXACTVP
 70
    16
  9
$PLIMCHECK
 70
     0
  9
$PEXTMIN
 10
1.0000000000000000E+020
 20
1.0000000000000000E+020
 30
1.0000000000000000E+020
  9
$PEXTMAX
 10
-1.0000000000000000E+020
 20
-1.0000000000000000E+020
 30
-1.0000000000000000E+020
  9
$PLIMMIN
 10
0.0
 20
0.0
  9
$PLIMMAX
 10
12.0
 20
9.0
  9
$UNITMODE
 70
     0
  9
$VISRETAIN
 70
     0
  9
$PLINEGEN
 70
     1
  9
$PSLTSCALE
 70
     0
  0
ENDSEC
  0
SECTION
  2
TABLES
  0
TABLE
  2
VPORT
 70
     1
  0
VPORT
  2
*ACTIVE
 70
     0
 10
0.0
 20
0.0
 11
1.0
 21
1.0
 12
187.49427839065231
 22
134.8472183595006
 13
0.0
 23
0.0
 14
10.0
 24
10.0
 15
10.0
 25
10.0
 16
0.0
 26
0.0
 36
1.0
 17
0.0
 27
0.0
 37
0.0
 40
275.77684817069792
 41
2.304913294797688
 42
50.0
 43
0.0
 44
0.0
 50
0.0
 51
0.0
 71
     0
 72
   500
 73
     1
 74
     0
 75
     0
 76
     0
 77
     0
 78
     2
  0
ENDTAB
  0
TABLE
  2
LTYPE
 70
     3
  0
LTYPE
  2
CONTINUOUS
 70
     0
  3
Solid Line
 72
    65
 73
     0
 40
0.0
  0
LTYPE
  2
CENTER
 70
     0
  3
____ _ ____ _ ____ _ ____ _ ____ _ ____ _ ____
 72
    65
 73
     4
 40
2.0
 49
1.25
 49
-0.25
 49
0.25
 49
-0.25
  0
LTYPE
  2
PHANTOM2
 70
     0
  3
___ _ _ ___ _ _ ___ _ _ ___ _ _
 72
    65
 73
     6
 40
1.25
 49
0.625
 49
-0.125
 49
0.125
 49
-0.125
 49
0.125
 49
-0.125
  0
ENDTAB
  0
TABLE
  2
LAYER
 70
     3
  0
LAYER
  2
0
 70
     0
 62
     7
  6
CONTINUOUS
  0
LAYER
  2
1
 70
     0
 62
     1
  6
CENTER
  0
LAYER
  2
3
 70
     0
 62
     3
  6
CONTINUOUS
  0
ENDTAB
  0
TABLE
  2
STYLE
 70
     2
  0
STYLE
  2
STANDARD
 70
     0
 40
0.0
 41
1.0
 50
0.0
 71
     0
 42
2.0
  3
TXT
  4
BIGFONT
  0
STYLE
  2
STANDARD1
 70
     0
 40
0.0
 41
1.0
 50
0.0
 71
     0
 42
3.0
  3
txt
  4

  0
ENDTAB
  0
TABLE
  2
VIEW
 70
     1
  0
VIEW
  2
ALL
 70
     0
 40
270.0
 10
220.99159663865549
 20
135.0
 41
0.0
 11
0.0
 21
0.0
 31
1.0
 12
0.0
 22
0.0
 32
0.0
 42
0.0
 43
0.0
 44
0.0
 50
0.0
 71
     0
  0
ENDTAB
  0
TABLE
  2
UCS
 70
     0
  0
ENDTAB
  0
TABLE
  2
APPID
 70
     3
  0
APPID
  2
ACAD
 70
     0
  0
APPID
  2
ACAD_MLEADERVER
 70
     0
  0
APPID
  2
ACAD_NAV_VCDISPLAY
 70
     0
  0
ENDTAB
  0
TABLE
  2
DIMSTYLE
 70
     1
  0
DIMSTYLE
  2
STANDARD
 70
     0
  3

  4

  5

  6

  7

 40
1.0
 41
0.18
 42
0.0625
 43
0.38
 44
0.18
 45
0.0
 46
0.0
 47
0.0
 48
0.0
140
0.18
141
0.09
142
0.0
143
25.399999999999999
144
1.0
145
0.0
146
1.0
147
0.09
 71
     0
 72
     0
 73
     1
 74
     1
 75
     0
 76
     0
 77
     0
 78
     0
170
     0
171
     2
172
     0
173
     0
174
     0
175
     0
176
     0
177
     0
178
     0
  0
ENDTAB
  0
ENDSEC
  0
SECTION
  2
BLOCKS
  0
BLOCK
  8
0
  2
$MODEL_SPACE
 70
     0
 10
0.0
 20
0.0
 30
0.0
  3
$MODEL_SPACE
  1

  0
ENDBLK
  5
217
  8
0
  0
BLOCK
 67
     1
  8
0
  2
$PAPER_SPACE
 70
     0
 10
0.0
 20
0.0
 30
0.0
  3
$PAPER_SPACE
  1

  0
ENDBLK
  5
215
 67
     1
  8
0
  0
ENDSEC
  0
SECTION
  2
ENTITIES
  0
LINE
  5
5BB
  8
0
 10
30.6890281156535
 20
8.0138873507585231
 30
0.0
 11
31.6890281156535
 21
8.0138873507585231
 31
0.0
  0
LINE
  5
5BC
  8
0
 10
30.6890281156535
 20
8.1138873507585174
 30
0.0
 11
31.6890281156535
 21
8.1138873507585174
 31
0.0
  0
LINE
  5
5BD
  8
0
 10
30.6890281156535
 20
9.4138873507584435
 30
0.0
 11
31.6890281156535
 21
9.4138873507584435
 31
0.0
  0
LINE
  5
5BE
  8
0
 10
30.6890281156535
 20
9.3138873507584492
 30
0.0
 11
31.6890281156535
 21
9.3138873507584492
 31
0.0
  0
LINE
  5
5BF
  8
0
 10
30.6890281156535
 20
9.0138873507584663
 30
0.0
 11
31.6890281156535
 21
9.0138873507584663
 31
0.0
  0
LINE
  5
5C0
  8
0
 10
30.6890281156535
 20
9.1138873507584606
 30
0.0
 11
31.6890281156535
 21
9.1138873507584606
 31
0.0
  0
LINE
  5
5C1
  8
0
 10
30.6890281156535
 20
9.2138873507584549
 30
0.0
 11
31.6890281156535
 21
9.2138873507584549
 31
0.0
  0
LINE
  5
5C2
  8
0
 10
30.6890281156535
 20
8.6138873507584872
 30
0.0
 11
31.6890281156535
 21
8.6138873507584872
 31
0.0
  0
LINE
  5
5C3
  8
0
 10
30.6890281156535
 20
8.5138873507584947
 30
0.0
 11
31.6890281156535
 21
8.5138873507584947
 31
0.0
  0
LINE
  5
5C4
  8
0
 10
30.6890281156535
 20
8.4138873507585004
 30
0.0
 11
31.6890281156535
 21
8.4138873507585004
 31
0.0
  0
LINE
  5
5C5
  8
0
 10
30.6890281156535
 20
8.7138873507584833
 30
0.0
 11
31.6890281156535
 21
8.7138873507584833
 31
0.0
  0
LINE
  5
5C6
  8
0
 10
30.6890281156535
 20
8.8138873507584776
 30
0.0
 11
31.6890281156535
 21
8.8138873507584776
 31
0.0
  0
LINE
  5
5C7
  8
0
 10
30.6890281156535
 20
8.9138873507584702
 30
0.0
 11
31.6890281156535
 21
8.9138873507584702
 31
0.0
  0
LINE
  5
5C8
  8
0
 10
30.6890281156535
 20
8.2138873507585117
 30
0.0
 11
31.6890281156535
 21
8.2138873507585117
 31
0.0
  0
LINE
  5
5C9
  8
0
 10
30.6890281156535
 20
8.313887350758506
 30
0.0
 11
31.6890281156535
 21
8.313887350758506
 31
0.0
  0
LINE
  5
5CA
  8
0
 10
30.6890281156535
 20
9.5138873507584378
 30
0.0
 11
31.6890281156535
 21
9.5138873507584378
 31
0.0
  0
LINE
  5
5CB
  8
0
 10
30.6890281156535
 20
11.3138873507583
 30
0.0
 11
31.6890281156535
 21
11.3138873507583
 31
0.0
  0
LINE
  5
5CC
  8
0
 10
30.6890281156535
 20
11.013887350758321
 30
0.0
 11
31.6890281156535
 21
11.013887350758321
 31
0.0
  0
LINE
  5
5CD
  8
0
 10
30.6890281156535
 20
11.11388735075832
 30
0.0
 11
31.6890281156535
 21
11.11388735075832
 31
0.0
  0
LINE
  5
5CE
  8
0
 10
30.6890281156535
 20
11.213887350758309
 30
0.0
 11
31.6890281156535
 21
11.213887350758309
 31
0.0
  0
LINE
  5
5CF
  8
0
 10
30.6890281156535
 20
10.41388735075836
 30
0.0
 11
31.6890281156535
 21
10.41388735075836
 31
0.0
  0
LINE
  5
5D0
  8
0
 10
30.6890281156535
 20
10.513887350758351
 30
0.0
 11
31.6890281156535
 21
10.513887350758351
 31
0.0
  0
LINE
  5
5D1
  8
0
 10
30.6890281156535
 20
10.61388735075834
 30
0.0
 11
31.6890281156535
 21
10.61388735075834
 31
0.0
  0
LINE
  5
5D2
  8
0
 10
30.6890281156535
 20
10.91388735075833
 30
0.0
 11
31.6890281156535
 21
10.91388735075833
 31
0.0
  0
LINE
  5
5D3
  8
0
 10
30.6890281156535
 20
10.81388735075833
 30
0.0
 11
31.6890281156535
 21
10.81388735075833
 31
0.0
  0
LINE
  5
5D4
  8
0
 10
30.6890281156535
 20
10.713887350758339
 30
0.0
 11
31.6890281156535
 21
10.713887350758339
 31
0.0
  0
LINE
  5
5D5
  8
0
 10
30.6890281156535
 20
9.6138873507583753
 30
0.0
 11
31.6890281156535
 21
9.6138873507583753
 31
0.0
  0
LINE
  5
5D6
  8
0
 10
30.6890281156535
 20
10.11388735075837
 30
0.0
 11
31.6890281156535
 21
10.11388735075837
 31
0.0
  0
LINE
  5
5D7
  8
0
 10
30.6890281156535
 20
10.21388735075837
 30
0.0
 11
31.6890281156535
 21
10.21388735075837
 31
0.0
  0
LINE
  5
5D8
  8
0
 10
30.6890281156535
 20
10.31388735075836
 30
0.0
 11
31.6890281156535
 21
10.31388735075836
 31
0.0
  0
LINE
  5
5D9
  8
0
 10
30.6890281156535
 20
10.013887350758379
 30
0.0
 11
31.6890281156535
 21
10.013887350758379
 31
0.0
  0
LINE
  5
5DA
  8
0
 10
30.6890281156535
 20
9.9138873507583867
 30
0.0
 11
31.6890281156535
 21
9.9138873507583867
 31
0.0
  0
LINE
  5
5DB
  8
0
 10
30.6890281156535
 20
9.8138873507583924
 30
0.0
 11
31.6890281156535
 21
9.8138873507583924
 31
0.0
  0
LINE
  5
5DC
  8
0
 10
30.6890281156535
 20
9.713887350758398
 30
0.0
 11
31.6890281156535
 21
9.713887350758398
 31
0.0
  0
LINE
  5
5DD
  8
1
 10
7.6890281156534419
 20
5.1638873507584711
 30
0.0
 11
7.6890281156534419
 21
14.16388735075836
 31
0.0
  0
LINE
  5
5DE
  8
1
 10
3.1890281156534992
 20
9.6638873507584151
 30
0.0
 11
12.189028115653381
 21
9.6638873507584151
 31
0.0
  0
CIRCLE
  5
5DF
  8
0
 10
7.6890281156534419
 20
9.6638873507584151
 30
0.0
 40
1.9999999999999429
  0
CIRCLE
  5
5E0
  8
3
 10
7.6890281156534419
 20
9.6638873507584151
 30
0.0
 40
1.6209999999985589
  0
LINE
  5
5E1
  8
0
 10
60.689028115653549
 20
8.4638873507583412
 30
0.0
 11
60.689028115653549
 21
10.8638873507584
 31
0.0
  0
LINE
  5
5E2
  8
0
 10
59.889028115653538
 20
7.6638873507584151
 30
0.0
 11
60.6890281156535
 21
8.463887350758398
 31
0.0
  0
LINE
  5
5E3
  8
0
 10
59.889028115653538
 20
11.66388735075836
 30
0.0
 11
59.889028115653538
 21
7.6638873507584151
 31
0.0
  0
LINE
  5
5E4
  8
0
 10
59.889028115653538
 20
11.66388735075841
 30
0.0
 11
60.6890281156535
 21
10.8638873507584
 31
0.0
  0
LINE
  5
5E6
  8
0
 10
25.489028115653461
 20
11.66388735075841
 30
0.0
 11
24.6890281156535
 21
10.8638873507584
 31
0.0
  0
LINE
  5
5E7
  8
3
 10
60.268028115654808
 20
11.28488735075706
 30
0.0
 11
31.689028115653489
 21
11.28488735075701
 31
0.0
  0
LINE
  5
5E8
  8
3
 10
60.268028115654928
 20
8.0428873507598269
 30
0.0
 11
31.6890281156535
 21
8.0428873507597984
 31
0.0
  0
LINE
  5
5E9
  8
0
 10
25.489028115653461
 20
11.66388735075836
 30
0.0
 11
25.489028115653461
 21
7.6638873507584151
 31
0.0
  0
LINE
  5
5EA
  8
0
 10
25.489028115653461
 20
7.6638873507584151
 30
0.0
 11
24.6890281156535
 21
8.463887350758398
 31
0.0
  0
LINE
  5
5EC
  8
1
 10
22.18902811565339
 20
9.6638873507584151
 30
0.0
 11
63.189028115653549
 21
9.6638873507583867
 31
0.0
  0
LINE
  5
5ED
  8
0
 10
31.6890281156535
 20
11.40301778554098
 30
0.0
 11
30.6890281156535
 21
11.40301778554098
 31
0.0
  0
LINE
  5
5EE
  8
0
 10
31.6890281156535
 20
7.9247569159757907
 30
0.0
 11
30.6890281156535
 21
7.9247569159757907
 31
0.0
  0
LINE
  5
5EF
  8
0
 10
30.6890281156535
 20
7.6638873507583858
 30
0.0
 11
30.6890281156535
 21
11.66388735075838
 31
0.0
  0
LINE
  5
5F0
  8
0
 10
31.6890281156535
 20
11.66388735075838
 30
0.0
 11
31.6890281156535
 21
7.6638873507583858
 31
0.0
  0
LINE
  5
5F1
  8
0
 10
24.68902811565345
 20
8.4638873507583412
 30
0.0
 11
24.68902811565345
 21
10.8638873507584
 31
0.0
  0
LINE
  5
5F2
  8
0
 10
25.489028115653461
 20
7.6638873507583973
 30
0.0
 11
59.889028115653488
 21
7.6638873507583583
 31
0.0
  0
LINE
  5
5F3
  8
0
 10
59.889028115653538
 20
11.66388735075841
 30
0.0
 11
25.489028115653461
 21
11.663887350758371
 31
0.0
  0
LINE
  5
60D
  8
0
 10
30.6890281156535
 20
11.503017785540971
 30
0.0
 11
31.6890281156535
 21
11.503017785540971
 31
0.0
  0
LINE
  5
60F
  8
0
 10
30.6890281156535
 20
7.8247569159757973
 30
0.0
 11
31.6890281156535
 21
7.8247569159757973
 31
0.0
  0
LINE
  5
610
  8
3
 10
30.6890281156535
 20
11.28488735075701
 30
0.0
 11
25.110028115652071
 21
11.284887350757
 31
0.0
  0
LINE
  5
611
  8
3
 10
30.6890281156535
 20
8.0428873507597984
 30
0.0
 11
25.110028115652071
 21
8.0428873507597984
 31
0.0
  0
LINE
  5
62E
  8
0
 10
30.6890281156535
 20
11.60301778554097
 30
0.0
 11
31.6890281156535
 21
11.60301778554097
 31
0.0
  0
LINE
  5
62F
  8
0
 10
30.6890281156535
 20
7.7247569159758021
 30
0.0
 11
31.6890281156535
 21
7.7247569159758021
 31
0.0
  0
TEXT
  5
6F7
  8
0
 62
     3
 10
0.0
 20
0.0
 30
0.0
 40
5.0
  1
GS04030-SUS
  7
STANDARD1
  0
ENDSEC
  0
EOF
