  0
SECTION
  2
HEADER
  9
$ACADVER
  1
AC1009
  9
$INSBASE
 10
0.0
 20
0.0
 30
0.0
  9
$EXTMIN
 10
0.0
 20
-2.960436562073669
 30
0.0
  9
$EXTMAX
 10
172.99999998806089
 20
109.9999999427836
 30
0.0
  9
$LIMMIN
 10
0.0
 20
0.0
  9
$LIMMAX
 10
750.0
 20
540.0
  9
$ORTHOMODE
 70
     1
  9
$REGENMODE
 70
     1
  9
$FILLMODE
 70
     1
  9
$QTEXTMODE
 70
     0
  9
$MIRRTEXT
 70
     0
  9
$DRAGMODE
 70
     2
  9
$LTSCALE
 40
10.0
  9
$OSMODE
 70
  3071
  9
$ATTMODE
 70
     1
  9
$TEXTSIZE
 40
0.2
  9
$TRACEWID
 40
0.05
  9
$TEXTSTYLE
  7
STANDARD
  9
$CLAYER
  8
0
  9
$CELTYPE
  6
BYLAYER
  9
$CECOLOR
 62
   256
  9
$DIMSCALE
 40
1.0
  9
$DIMASZ
 40
3.0
  9
$DIMEXO
 40
2.0
  9
$DIMDLI
 40
0.38
  9
$DIMRND
 40
0.0
  9
$DIMDLE
 40
0.0
  9
$DIMEXE
 40
2.0
  9
$DIMTP
 40
0.0
  9
$DIMTM
 40
0.0
  9
$DIMTXT
 40
3.2000000000000002
  9
$DIMCEN
 40
0.0
  9
$DIMTSZ
 40
0.0
  9
$DIMTOL
 70
     0
  9
$DIMLIM
 70
     0
  9
$DIMTIH
 70
     0
  9
$DIMTOH
 70
     0
  9
$DIMSE1
 70
     0
  9
$DIMSE2
 70
     0
  9
$DIMTAD
 70
     1
  9
$DIMZIN
 70
     0
  9
$DIMBLK
  1

  9
$DIMASO
 70
     0
  9
$DIMSHO
 70
     0
  9
$DIMPOST
  1

  9
$DIMAPOST
  1

  9
$DIMALT
 70
     0
  9
$DIMALTD
 70
     2
  9
$DIMALTF
 40
25.399999999999999
  9
$DIMLFAC
 40
1.0
  9
$DIMTOFL
 70
     0
  9
$DIMTVP
 40
1.6000000000000001
  9
$DIMTIX
 70
     1
  9
$DIMSOXD
 70
     0
  9
$DIMSAH
 70
     0
  9
$DIMBLK1
  1

  9
$DIMBLK2
  1

  9
$DIMSTYLE
  2
STANDARD
  9
$DIMCLRD
 70
     0
  9
$DIMCLRE
 70
     0
  9
$DIMCLRT
 70
     0
  9
$DIMTFAC
 40
1.0
  9
$DIMGAP
 40
0.09
  9
$LUNITS
 70
     2
  9
$LUPREC
 70
     4
  9
$SKETCHINC
 40
0.1
  9
$FILLETRAD
 40
0.0
  9
$AUNITS
 70
     0
  9
$AUPREC
 70
     4
  9
$MENU
  1
E:\r13\win\SUPPORT\ACAD
  9
$ELEVATION
 40
0.0
  9
$PELEVATION
 40
0.0
  9
$THICKNESS
 40
0.0
  9
$LIMCHECK
 70
     0
  9
$BLIPMODE
 70
     0
  9
$CHAMFERA
 40
0.0
  9
$CHAMFERB
 40
0.0
  9
$SKPOLY
 70
     0
  9
$TDCREATE
 40
2449840.6227546302
  9
$TDUPDATE
 40
2456602.6152552781
  9
$TDINDWG
 40
0.0150350694
  9
$TDUSRTIMER
 40
2456598.4340775348
  9
$USRTIMER
 70
     1
  9
$ANGBASE
 50
0.0
  9
$ANGDIR
 70
     0
  9
$PDMODE
 70
     0
  9
$PDSIZE
 40
0.0
  9
$PLINEWID
 40
0.0
  9
$COORDS
 70
     1
  9
$SPLFRAME
 70
     0
  9
$SPLINETYPE
 70
     6
  9
$SPLINESEGS
 70
     8
  9
$ATTDIA
 70
     0
  9
$ATTREQ
 70
     1
  9
$HANDLING
 70
     1
  9
$HANDSEED
  5
530
  9
$SURFTAB1
 70
     6
  9
$SURFTAB2
 70
     6
  9
$SURFTYPE
 70
     6
  9
$SURFU
 70
     6
  9
$SURFV
 70
     6
  9
$UCSNAME
  2

  9
$UCSORG
 10
0.0
 20
0.0
 30
0.0
  9
$UCSXDIR
 10
1.0
 20
0.0
 30
0.0
  9
$UCSYDIR
 10
0.0
 20
1.0
 30
0.0
  9
$PUCSNAME
  2

  9
$PUCSORG
 10
0.0
 20
0.0
 30
0.0
  9
$PUCSXDIR
 10
1.0
 20
0.0
 30
0.0
  9
$PUCSYDIR
 10
0.0
 20
1.0
 30
0.0
  9
$USERI1
 70
     0
  9
$USERI2
 70
     1
  9
$USERI3
 70
     0
  9
$USERI4
 70
     0
  9
$USERI5
 70
     0
  9
$USERR1
 40
0.0
  9
$USERR2
 40
0.0
  9
$USERR3
 40
0.0
  9
$USERR4
 40
0.0
  9
$USERR5
 40
0.0
  9
$WORLDVIEW
 70
     1
  9
$SHADEDGE
 70
     3
  9
$SHADEDIF
 70
    70
  9
$TILEMODE
 70
     1
  9
$MAXACTVP
 70
    16
  9
$PLIMCHECK
 70
     0
  9
$PEXTMIN
 10
1.0000000000000000E+020
 20
1.0000000000000000E+020
 30
1.0000000000000000E+020
  9
$PEXTMAX
 10
-1.0000000000000000E+020
 20
-1.0000000000000000E+020
 30
-1.0000000000000000E+020
  9
$PLIMMIN
 10
0.0
 20
0.0
  9
$PLIMMAX
 10
12.0
 20
9.0
  9
$UNITMODE
 70
     0
  9
$VISRETAIN
 70
     0
  9
$PLINEGEN
 70
     0
  9
$PSLTSCALE
 70
     0
  0
ENDSEC
  0
SECTION
  2
TABLES
  0
TABLE
  2
VPORT
 70
     1
  0
VPORT
  2
*ACTIVE
 70
     0
 10
0.0
 20
0.0
 11
1.0
 21
1.0
 12
188.4478709053576
 22
56.626414256987488
 13
0.0
 23
0.0
 14
20.0
 24
20.0
 15
20.0
 25
20.0
 16
0.0
 26
0.0
 36
1.0
 17
0.0
 27
0.0
 37
0.0
 40
232.26336733084099
 41
1.831871345029239
 42
50.0
 43
0.0
 44
0.0
 50
0.0
 51
0.0
 71
    16
 72
   100
 73
     1
 74
     0
 75
     0
 76
     0
 77
     0
 78
     2
  0
ENDTAB
  0
TABLE
  2
LTYPE
 70
     7
  0
LTYPE
  2
CONTINUOUS
 70
     0
  3
Solid Line
 72
    65
 73
     0
 40
0.0
  0
LTYPE
  2
CENTER
 70
     0
  3
____ _ ____ _ ____ _ ____ _ ____ _ ____ _ ____
 72
    65
 73
     4
 40
2.0
 49
1.25
 49
-0.25
 49
0.25
 49
-0.25
  0
LTYPE
  2
HIDDEN
 70
     0
  3
_ _ _ _ _ _ _ _ _ _ _ _ _ _ _ _ _ _ _ _ _ _ _
 72
    65
 73
     2
 40
0.375
 49
0.25
 49
-0.125
  0
LTYPE
  2
PHANTOM2
 70
     0
  3
___ _ _ ___ _ _ ___ _ _ ___ _ _
 72
    65
 73
     6
 40
1.25
 49
0.625
 49
-0.125
 49
0.125
 49
-0.125
 49
0.125
 49
-0.125
  0
LTYPE
  2
CNS_SOLID
 70
     0
  3

 72
    65
 73
     0
 40
0.0
  0
LTYPE
  2
CNS_DASHED
 70
     0
  3

 72
    65
 73
     2
 40
2.0
 49
1.0
 49
-1.0
  0
LTYPE
  2
CNS_CENTER
 70
     0
  3

 72
    65
 73
     4
 40
2.0
 49
0.45
 49
-0.5
 49
0.05
 49
-0.5
  0
ENDTAB
  0
TABLE
  2
LAYER
 70
     4
  0
LAYER
  2
0
 70
     0
 62
     7
  6
CONTINUOUS
  0
LAYER
  2
1
 70
     0
 62
     1
  6
CENTER
  0
LAYER
  2
2
 70
     0
 62
     2
  6
HIDDEN
  0
LAYER
  2
3
 70
     0
 62
     3
  6
CONTINUOUS
  0
ENDTAB
  0
TABLE
  2
STYLE
 70
     2
  0
STYLE
  2
STANDARD
 70
     0
 40
0.0
 41
1.0
 50
0.0
 71
     0
 42
0.2
  3
TXT
  4
BIGFONT
  0
STYLE
  2
STANDARD1
 70
     0
 40
0.0
 41
1.0
 50
0.0
 71
     0
 42
3.0
  3
txt
  4

  0
ENDTAB
  0
TABLE
  2
VIEW
 70
     1
  0
VIEW
  2
ALL
 70
     0
 40
540.0
 10
441.98319299999991
 20
270.0
 41
0.0
 11
0.0
 21
0.0
 31
1.0
 12
0.0
 22
0.0
 32
0.0
 42
0.0
 43
0.0
 44
0.0
 50
0.0
 71
     0
  0
ENDTAB
  0
TABLE
  2
UCS
 70
     0
  0
ENDTAB
  0
TABLE
  2
APPID
 70
     7
  0
APPID
  2
ACAD
 70
     0
  0
APPID
  2
ACAD_NAV_VCDISPLAY
 70
     0
  0
APPID
  2
ACAD_EXEMPT_FROM_CAD_STANDARDS
 70
     0
  0
APPID
  2
ACAD_DSTYLE_DIMJAG
 70
     0
  0
APPID
  2
ACAD_DSTYLE_DIMTALN
 70
     0
  0
APPID
  2
ACAD_MLEADERVER
 70
     0
  0
APPID
  2
ACAD_DSTYLE_DIMRADIAL_EXTENSION
 70
     0
  0
ENDTAB
  0
TABLE
  2
DIMSTYLE
 70
     2
  0
DIMSTYLE
  2
STANDARD
 70
     0
  3

  4

  5

  6

  7

 40
1.0
 41
0.18
 42
0.0625
 43
0.38
 44
0.18
 45
0.0
 46
0.0
 47
0.0
 48
0.0
140
0.18
141
0.09
142
0.0
143
25.399999999999999
144
1.0
145
0.0
146
1.0
147
0.09
 71
     0
 72
     0
 73
     1
 74
     1
 75
     0
 76
     0
 77
     0
 78
     0
170
     0
171
     2
172
     0
173
     0
174
     0
175
     0
176
     0
177
     0
178
     0
  0
DIMSTYLE
  2
ISO-25
 70
     0
  3

  4

  5

  6

  7

 40
1.0
 41
2.5
 42
0.625
 43
3.75
 44
1.25
 45
0.0
 46
0.0
 47
0.0
 48
0.0
140
2.5
141
2.5
142
0.0
143
0.03937007874016
144
1.0
145
0.0
146
1.0
147
0.625
 71
     0
 72
     0
 73
     0
 74
     0
 75
     0
 76
     0
 77
     1
 78
     8
170
     0
171
     3
172
     1
173
     0
174
     0
175
     0
176
     0
177
     0
178
     0
  0
ENDTAB
  0
ENDSEC
  0
SECTION
  2
BLOCKS
  0
BLOCK
  8
0
  2
$MODEL_SPACE
 70
     0
 10
0.0
 20
0.0
 30
0.0
  3
$MODEL_SPACE
  1

  0
ENDBLK
  5
11D
  8
0
  0
BLOCK
 67
     1
  8
0
  2
$PAPER_SPACE
 70
     0
 10
0.0
 20
0.0
 30
0.0
  3
$PAPER_SPACE
  1

  0
ENDBLK
  5
11B
 67
     1
  8
0
  0
ENDSEC
  0
SECTION
  2
ENTITIES
  0
CIRCLE
  5
399
  8
0
 10
83.769803908233044
 20
62.049999942783899
 30
0.0
 40
1.2499999999997859
  0
LINE
  5
39A
  8
0
 10
84.684108535479695
 20
75.516063409388579
 30
0.0
 11
84.7941033951397
 21
75.557382814303281
 31
0.0
  0
ARC
  5
39B
  8
0
 10
83.769803908233115
 20
77.949999942783705
 30
0.0
 40
2.6000000000000112
 50
152.29553067894889
 51
290.5886140698417
  0
ARC
  5
39C
  8
0
 10
79.165945729652094
 20
80.367537920046928
 30
0.0
 40
2.599999999999778
 50
332.29552542494889
 51
51.35058785189004
  0
ARC
  5
39D
  8
0
 10
70.874999988060765
 20
69.99999994278366
 30
0.0
 40
15.875000000000069
 50
51.350587851884953
 51
308.64941214811608
  0
ARC
  5
39E
  8
0
 10
79.165945729651597
 20
59.632461965520719
 30
0.0
 40
2.6000000000003238
 50
308.649412148115
 51
27.704471948042372
  0
ARC
  5
39F
  8
0
 10
83.914964330478185
 20
62.1022934814604
 30
0.0
 40
2.5000000000010769
 50
27.055073615756019
 51
69.411385930135324
  0
ARC
  5
3A0
  8
0
 10
83.914964330478185
 20
77.897706404106941
 30
0.0
 40
2.5000000000010911
 50
290.58861406986529
 51
333.54765476961808
  0
CIRCLE
  5
3A1
  8
0
 10
83.769803908233115
 20
77.949999942783705
 30
0.0
 40
1.2499999999999709
  0
ARC
  5
3A2
  8
0
 10
83.769803908233044
 20
62.049999942783899
 30
0.0
 40
2.5999999999998051
 50
69.411385930155916
 51
207.70447194805621
  0
LINE
  5
3A3
  8
0
 10
84.7941033951397
 20
64.442617071264067
 30
0.0
 11
84.684108535479695
 21
64.483936476178798
 31
0.0
  0
CIRCLE
  5
3A4
  8
0
 10
69.999999988060893
 20
69.99999994278366
 30
0.0
 40
7.4999999999999849
  0
CIRCLE
  5
3A5
  8
0
 10
69.999999988060893
 20
69.99999994278366
 30
0.0
 40
35.000000000000021
  0
CIRCLE
  5
3A6
  8
0
 10
69.999999988060893
 20
69.99999994278366
 30
0.0
 40
17.500000000000011
  0
ARC
  5
3A7
  8
2
 10
83.914964330478185
 20
62.1022934814604
 30
0.0
 40
2.500000000001076
 50
330.42208658502801
 51
27.055073615756019
  0
ARC
  5
3A8
  8
2
 10
83.914964330478185
 20
77.897706404106941
 30
0.0
 40
2.5000000000010618
 50
333.54765476961808
 51
29.57791341497289
  0
CIRCLE
  5
3A9
  8
2
 10
69.999999988060893
 20
69.99999994278366
 30
0.0
 40
18.5
  0
CIRCLE
  5
3AA
  8
2
 10
69.999999988060893
 20
69.99999994278366
 30
0.0
 40
24.5
  0
LINE
  5
3AB
  8
2
 10
144.49999998806089
 20
85.850867426931117
 30
0.0
 11
145.99999998806089
 21
85.850867426931117
 31
0.0
  0
LINE
  5
3AC
  8
2
 10
145.99999998806089
 20
54.149132458636238
 30
0.0
 11
144.49999998806089
 21
54.149132458636238
 31
0.0
  0
LINE
  5
3AD
  8
2
 10
144.49999998806089
 20
51.499999942783489
 30
0.0
 11
144.49999998806089
 21
88.499999942783674
 31
0.0
  0
CIRCLE
  5
3AE
  8
2
 10
150.49999998806089
 20
57.24999994278366
 30
0.0
 40
2.5
  0
CIRCLE
  5
3AF
  8
2
 10
150.49999998806089
 20
82.749999942783646
 30
0.0
 40
2.5
  0
CIRCLE
  5
3B0
  8
2
 10
157.5499999880609
 20
57.24999994278366
 30
0.0
 40
2.5
  0
CIRCLE
  5
3B1
  8
2
 10
157.5499999880609
 20
82.749999942783646
 30
0.0
 40
2.5
  0
LINE
  5
3B2
  8
2
 10
159.33535709519671
 20
58.99999994278366
 30
0.0
 11
161.99999998806089
 21
58.99999994278366
 31
0.0
  0
LINE
  5
3B3
  8
2
 10
161.99999998806089
 20
80.99999994278366
 30
0.0
 11
159.3353570951966
 21
80.99999994278366
 31
0.0
  0
LINE
  5
3B4
  8
2
 10
148.7146428809252
 20
80.99999994278366
 30
0.0
 11
146.0499999880609
 21
80.99999994278366
 31
0.0
  0
ARC
  5
3B5
  8
2
 10
161.39999998806101
 20
78.099999942783597
 30
0.0
 40
0.5999999999999233
 50
269.99999999999193
 51
0.0000000000067852
  0
LINE
  5
3B6
  8
2
 10
146.6499999880609
 20
77.49999994278366
 30
0.0
 11
161.3999999880609
 21
77.49999994278366
 31
0.0
  0
ARC
  5
3B7
  8
2
 10
146.6499999880609
 20
78.099999942783597
 30
0.0
 40
0.5999999999999375
 50
179.99999999999321
 51
270.00000000000807
  0
ARC
  5
3B8
  8
2
 10
161.39999998806101
 20
61.899999942783751
 30
0.0
 40
0.5999999999999375
 50
359.99999999999449
 51
90.000000000008157
  0
LINE
  5
3B9
  8
2
 10
146.0499999880609
 20
58.99999994278366
 30
0.0
 11
148.7146428809252
 21
58.99999994278366
 31
0.0
  0
ARC
  5
3BA
  8
2
 10
146.6499999880609
 20
61.899999942783751
 30
0.0
 40
0.5999999999999375
 50
89.999999999994586
 51
180.00000000000739
  0
LINE
  5
3BB
  8
2
 10
161.3999999880609
 20
62.499999942783681
 30
0.0
 11
146.6499999880609
 21
62.499999942783681
 31
0.0
  0
LINE
  5
3BC
  8
2
 10
155.76464288092521
 20
55.499999942783653
 30
0.0
 11
152.2853570951967
 21
55.499999942783653
 31
0.0
  0
ARC
  5
3BD
  8
2
 10
161.69999998806099
 20
52.79999994278355
 30
0.0
 40
0.2999999999998835
 50
269.99999999997277
 51
0.0000000000108563
  0
ARC
  5
3BE
  8
2
 10
146.3499999880608
 20
52.79999994278355
 30
0.0
 40
0.2999999999998977
 50
179.99999999997829
 51
270.0000000000216
  0
LINE
  5
3BF
  8
2
 10
155.73674324948249
 20
55.499999942783653
 30
0.0
 11
152.2853570951967
 21
55.499999942783653
 31
0.0
  0
ARC
  5
3C0
  8
2
 10
146.3499999880608
 20
87.199999942783805
 30
0.0
 40
0.2999999999998977
 50
89.999999999978314
 51
180.00000000002171
  0
ARC
  5
3C1
  8
2
 10
161.69999998806099
 20
87.199999942783805
 30
0.0
 40
0.2999999999998835
 50
359.99999999998909
 51
90.000000000027143
  0
LINE
  5
3C2
  8
2
 10
158.8257350702782
 20
84.899999942783666
 30
0.0
 11
161.99999998806089
 21
84.899999942783666
 31
0.0
  0
LINE
  5
3C3
  8
2
 10
152.2853570951967
 20
84.49999994278366
 30
0.0
 11
155.76464288092521
 21
84.49999994278366
 31
0.0
  0
LINE
  5
3C4
  8
2
 10
146.0499999880609
 20
84.899999942783666
 30
0.0
 11
149.2242649058436
 21
84.899999942783666
 31
0.0
  0
LINE
  5
3C5
  8
0
 10
165.97999998806091
 20
34.99999994278366
 30
0.0
 11
167.99999998806089
 21
34.99999994278366
 31
0.0
  0
LINE
  5
3C6
  8
0
 10
154.99999998806089
 20
44.21331389311009
 30
0.0
 11
165.97999998806091
 21
34.99999994278366
 31
0.0
  0
LINE
  5
3C7
  8
0
 10
154.99999998806089
 20
95.786685992457251
 30
0.0
 11
154.99999998806089
 21
44.21331389311009
 31
0.0
  0
LINE
  5
3C8
  8
0
 10
152.99999998806089
 20
45.499999942783681
 30
0.0
 11
154.99999998806089
 21
45.499999942783681
 31
0.0
  0
LINE
  5
3C9
  8
0
 10
152.99999998806089
 20
44.213313893110367
 30
0.0
 11
152.99999998806089
 21
95.786685992456967
 31
0.0
  0
LINE
  5
3CA
  8
0
 10
142.0199999880609
 20
34.99999994278366
 30
0.0
 11
152.99999998806089
 21
44.213313893110367
 31
0.0
  0
LINE
  5
3CB
  8
0
 10
139.99999998806089
 20
34.99999994278366
 30
0.0
 11
142.0199999880609
 21
34.99999994278366
 31
0.0
  0
LINE
  5
3CC
  8
0
 10
139.99999998806089
 20
34.99999994278366
 30
0.0
 11
139.99999998806089
 21
104.9999999427837
 31
0.0
  0
LINE
  5
3CD
  8
2
 10
140.99999998806089
 20
52.49999994278366
 30
0.0
 11
139.99999998806089
 21
51.922649673594059
 31
0.0
  0
LINE
  5
3CE
  8
2
 10
144.24999998806089
 20
52.49999994278366
 30
0.0
 11
140.99999998806089
 21
52.49999994278366
 31
0.0
  0
LINE
  5
3CF
  8
2
 10
144.24999998806089
 20
51.49999994278366
 30
0.0
 11
144.24999998806089
 21
88.499999942783674
 31
0.0
  0
LINE
  5
3D0
  8
2
 10
145.99999998806089
 20
51.49999994278366
 30
0.0
 11
144.24999998806089
 21
51.49999994278366
 31
0.0
  0
LINE
  5
3D1
  8
2
 10
145.99999998806089
 20
88.499999942783674
 30
0.0
 11
145.99999998806089
 21
51.49999994278366
 31
0.0
  0
LINE
  5
3D2
  8
2
 10
161.1179241853751
 20
52.49999994278366
 30
0.0
 11
145.99999998806089
 21
52.49999994278366
 31
0.0
  0
LINE
  5
3D3
  8
2
 10
167.99999998806089
 20
55.499999942783653
 30
0.0
 11
161.99999998806089
 21
55.499999942783653
 31
0.0
  0
LINE
  5
3D4
  8
0
 10
167.99999998806089
 20
34.99999994278366
 30
0.0
 11
167.99999998806089
 21
104.9999999427837
 31
0.0
  0
LINE
  5
3D5
  8
0
 10
167.99999998806089
 20
104.9999999427837
 30
0.0
 11
165.97999998806091
 21
104.9999999427837
 31
0.0
  0
LINE
  5
3D6
  8
2
 10
161.99999998806089
 20
84.49999994278366
 30
0.0
 11
167.99999998806089
 21
84.49999994278366
 31
0.0
  0
LINE
  5
3D7
  8
2
 10
145.99999998806089
 20
87.499999942783674
 30
0.0
 11
161.1179241853751
 21
87.499999942783674
 31
0.0
  0
LINE
  5
3D8
  8
2
 10
144.24999998806089
 20
88.499999942783674
 30
0.0
 11
145.99999998806089
 21
88.499999942783674
 31
0.0
  0
LINE
  5
3D9
  8
2
 10
140.99999998806089
 20
87.499999942783674
 30
0.0
 11
144.24999998806089
 21
87.499999942783674
 31
0.0
  0
LINE
  5
3DA
  8
2
 10
139.99999998806089
 20
88.077350211973297
 30
0.0
 11
140.99999998806089
 21
87.499999942783674
 31
0.0
  0
LINE
  5
3DB
  8
0
 10
142.0199999880609
 20
104.9999999427837
 30
0.0
 11
139.99999998806089
 21
104.9999999427837
 31
0.0
  0
LINE
  5
3DC
  8
0
 10
152.99999998806089
 20
95.786685992456967
 30
0.0
 11
142.0199999880609
 21
104.9999999427837
 31
0.0
  0
LINE
  5
3DD
  8
0
 10
154.99999998806089
 20
94.499999942783688
 30
0.0
 11
152.99999998806089
 21
94.499999942783688
 31
0.0
  0
LINE
  5
3DE
  8
0
 10
165.97999998806091
 20
104.9999999427837
 30
0.0
 11
154.99999998806089
 21
95.786685992457251
 31
0.0
  0
LINE
  5
3DF
  8
2
 10
140.99999998806089
 20
52.49999994278366
 30
0.0
 11
140.99999998806089
 21
87.499999942783674
 31
0.0
  0
LINE
  5
3E0
  8
1
 10
172.99999998806089
 20
69.99999994278366
 30
0.0
 11
134.99999998806089
 21
69.99999994278366
 31
0.0
  0
LINE
  5
3E1
  8
1
 10
29.999999988060878
 20
69.99999994278366
 30
0.0
 11
109.99999998806091
 21
69.99999994278366
 31
0.0
  0
LINE
  5
3E2
  8
1
 10
69.999999988060893
 20
29.999999942783649
 30
0.0
 11
69.999999988060893
 21
109.9999999427836
 31
0.0
  0
LINE
  5
3E3
  8
2
 10
161.99999998806089
 20
52.799999942783607
 30
0.0
 11
161.99999998806089
 21
87.199999942783734
 31
0.0
  0
LINE
  5
3E4
  8
2
 10
146.0499999880609
 20
52.799999942783671
 30
0.0
 11
146.0499999880609
 21
87.199999942783677
 31
0.0
  0
LINE
  5
3E5
  8
2
 10
150.49999998806089
 20
80.249999942783646
 30
0.0
 11
157.5499999880609
 21
80.249999942783646
 31
0.0
  0
LINE
  5
3E6
  8
2
 10
158.8257350702782
 20
55.099999942783647
 30
0.0
 11
161.99999998806089
 21
55.099999942783647
 31
0.0
  0
LINE
  5
3E7
  8
2
 10
146.0499999880609
 20
55.099999942783647
 30
0.0
 11
149.2242649058436
 21
55.099999942783647
 31
0.0
  0
LINE
  5
3E8
  8
2
 10
150.49999998806089
 20
59.74999994278366
 30
0.0
 11
157.5499999880609
 21
59.74999994278366
 31
0.0
  0
TEXT
  5
4C6
  8
0
 62
     3
 10
0.0
 20
0.0
 30
0.0
 40
10.0
  1
GRL70SWA-Y
  7
STANDARD1
  0
ENDSEC
  0
EOF
