  0
SECTION
  2
HEADER
  9
$ACADVER
  1
AC1009
  9
$INSBASE
 10
0.0
 20
0.0
 30
0.0
  9
$EXTMIN
 10
0.0
 20
-2.960436562073669
 30
0.0
  9
$EXTMAX
 10
149.0000009108216
 20
86.000000033309846
 30
0.0
  9
$LIMMIN
 10
0.0
 20
0.0
  9
$LIMMAX
 10
750.0
 20
540.0
  9
$ORTHOMODE
 70
     0
  9
$REGENMODE
 70
     1
  9
$FILLMODE
 70
     1
  9
$QTEXTMODE
 70
     0
  9
$MIRRTEXT
 70
     0
  9
$DRAGMODE
 70
     2
  9
$LTSCALE
 40
10.0
  9
$OSMODE
 70
  3071
  9
$ATTMODE
 70
     1
  9
$TEXTSIZE
 40
0.2
  9
$TRACEWID
 40
0.05
  9
$TEXTSTYLE
  7
STANDARD
  9
$CLAYER
  8
0
  9
$CELTYPE
  6
BYLAYER
  9
$CECOLOR
 62
   256
  9
$DIMSCALE
 40
1.0
  9
$DIMASZ
 40
3.0
  9
$DIMEXO
 40
2.0
  9
$DIMDLI
 40
0.38
  9
$DIMRND
 40
0.0
  9
$DIMDLE
 40
0.0
  9
$DIMEXE
 40
2.0
  9
$DIMTP
 40
0.0
  9
$DIMTM
 40
0.0
  9
$DIMTXT
 40
3.2000000000000002
  9
$DIMCEN
 40
0.0
  9
$DIMTSZ
 40
0.0
  9
$DIMTOL
 70
     0
  9
$DIMLIM
 70
     0
  9
$DIMTIH
 70
     0
  9
$DIMTOH
 70
     0
  9
$DIMSE1
 70
     0
  9
$DIMSE2
 70
     0
  9
$DIMTAD
 70
     1
  9
$DIMZIN
 70
     0
  9
$DIMBLK
  1

  9
$DIMASO
 70
     0
  9
$DIMSHO
 70
     0
  9
$DIMPOST
  1

  9
$DIMAPOST
  1

  9
$DIMALT
 70
     0
  9
$DIMALTD
 70
     2
  9
$DIMALTF
 40
25.399999999999999
  9
$DIMLFAC
 40
1.0
  9
$DIMTOFL
 70
     0
  9
$DIMTVP
 40
1.6000000000000001
  9
$DIMTIX
 70
     1
  9
$DIMSOXD
 70
     0
  9
$DIMSAH
 70
     0
  9
$DIMBLK1
  1

  9
$DIMBLK2
  1

  9
$DIMSTYLE
  2
STANDARD
  9
$DIMCLRD
 70
     0
  9
$DIMCLRE
 70
     0
  9
$DIMCLRT
 70
     0
  9
$DIMTFAC
 40
1.0
  9
$DIMGAP
 40
0.09
  9
$LUNITS
 70
     2
  9
$LUPREC
 70
     4
  9
$SKETCHINC
 40
0.1
  9
$FILLETRAD
 40
0.0
  9
$AUNITS
 70
     0
  9
$AUPREC
 70
     4
  9
$MENU
  1
E:\r13\win\SUPPORT\ACAD
  9
$ELEVATION
 40
0.0
  9
$PELEVATION
 40
0.0
  9
$THICKNESS
 40
0.0
  9
$LIMCHECK
 70
     0
  9
$BLIPMODE
 70
     0
  9
$CHAMFERA
 40
0.0
  9
$CHAMFERB
 40
0.0
  9
$SKPOLY
 70
     0
  9
$TDCREATE
 40
2449840.6227546302
  9
$TDUPDATE
 40
2456602.6115287961
  9
$TDINDWG
 40
0.0147400463
  9
$TDUSRTIMER
 40
2456598.433808276
  9
$USRTIMER
 70
     1
  9
$ANGBASE
 50
0.0
  9
$ANGDIR
 70
     0
  9
$PDMODE
 70
     0
  9
$PDSIZE
 40
0.0
  9
$PLINEWID
 40
0.0
  9
$COORDS
 70
     1
  9
$SPLFRAME
 70
     0
  9
$SPLINETYPE
 70
     6
  9
$SPLINESEGS
 70
     8
  9
$ATTDIA
 70
     0
  9
$ATTREQ
 70
     1
  9
$HANDLING
 70
     1
  9
$HANDSEED
  5
4E1
  9
$SURFTAB1
 70
     6
  9
$SURFTAB2
 70
     6
  9
$SURFTYPE
 70
     6
  9
$SURFU
 70
     6
  9
$SURFV
 70
     6
  9
$UCSNAME
  2

  9
$UCSORG
 10
0.0
 20
0.0
 30
0.0
  9
$UCSXDIR
 10
1.0
 20
0.0
 30
0.0
  9
$UCSYDIR
 10
0.0
 20
1.0
 30
0.0
  9
$PUCSNAME
  2

  9
$PUCSORG
 10
0.0
 20
0.0
 30
0.0
  9
$PUCSXDIR
 10
1.0
 20
0.0
 30
0.0
  9
$PUCSYDIR
 10
0.0
 20
1.0
 30
0.0
  9
$USERI1
 70
     0
  9
$USERI2
 70
     1
  9
$USERI3
 70
     0
  9
$USERI4
 70
     0
  9
$USERI5
 70
     0
  9
$USERR1
 40
0.0
  9
$USERR2
 40
0.0
  9
$USERR3
 40
0.0
  9
$USERR4
 40
0.0
  9
$USERR5
 40
0.0
  9
$WORLDVIEW
 70
     1
  9
$SHADEDGE
 70
     3
  9
$SHADEDIF
 70
    70
  9
$TILEMODE
 70
     1
  9
$MAXACTVP
 70
    16
  9
$PLIMCHECK
 70
     0
  9
$PEXTMIN
 10
1.0000000000000000E+020
 20
1.0000000000000000E+020
 30
1.0000000000000000E+020
  9
$PEXTMAX
 10
-1.0000000000000000E+020
 20
-1.0000000000000000E+020
 30
-1.0000000000000000E+020
  9
$PLIMMIN
 10
0.0
 20
0.0
  9
$PLIMMAX
 10
12.0
 20
9.0
  9
$UNITMODE
 70
     0
  9
$VISRETAIN
 70
     0
  9
$PLINEGEN
 70
     0
  9
$PSLTSCALE
 70
     0
  0
ENDSEC
  0
SECTION
  2
TABLES
  0
TABLE
  2
VPORT
 70
     1
  0
VPORT
  2
*ACTIVE
 70
     0
 10
0.0
 20
0.0
 11
1.0
 21
1.0
 12
160.33164481160529
 22
33.586172686616877
 13
0.0
 23
0.0
 14
20.0
 24
20.0
 15
20.0
 25
20.0
 16
0.0
 26
0.0
 36
1.0
 17
0.0
 27
0.0
 37
0.0
 40
199.90344278652981
 41
1.831871345029239
 42
50.0
 43
0.0
 44
0.0
 50
0.0
 51
0.0
 71
    16
 72
   100
 73
     1
 74
     0
 75
     0
 76
     0
 77
     0
 78
     2
  0
ENDTAB
  0
TABLE
  2
LTYPE
 70
     7
  0
LTYPE
  2
CONTINUOUS
 70
     0
  3
Solid Line
 72
    65
 73
     0
 40
0.0
  0
LTYPE
  2
CENTER
 70
     0
  3
____ _ ____ _ ____ _ ____ _ ____ _ ____ _ ____
 72
    65
 73
     4
 40
2.0
 49
1.25
 49
-0.25
 49
0.25
 49
-0.25
  0
LTYPE
  2
HIDDEN
 70
     0
  3
_ _ _ _ _ _ _ _ _ _ _ _ _ _ _ _ _ _ _ _ _ _ _
 72
    65
 73
     2
 40
0.375
 49
0.25
 49
-0.125
  0
LTYPE
  2
PHANTOM2
 70
     0
  3
___ _ _ ___ _ _ ___ _ _ ___ _ _
 72
    65
 73
     6
 40
1.25
 49
0.625
 49
-0.125
 49
0.125
 49
-0.125
 49
0.125
 49
-0.125
  0
LTYPE
  2
CNS_SOLID
 70
     0
  3

 72
    65
 73
     0
 40
0.0
  0
LTYPE
  2
CNS_DASHED
 70
     0
  3

 72
    65
 73
     2
 40
2.0
 49
1.0
 49
-1.0
  0
LTYPE
  2
CNS_CENTER
 70
     0
  3

 72
    65
 73
     4
 40
2.0
 49
0.45
 49
-0.5
 49
0.05
 49
-0.5
  0
ENDTAB
  0
TABLE
  2
LAYER
 70
     4
  0
LAYER
  2
0
 70
     0
 62
     7
  6
CONTINUOUS
  0
LAYER
  2
1
 70
     0
 62
     1
  6
CENTER
  0
LAYER
  2
2
 70
     0
 62
     2
  6
HIDDEN
  0
LAYER
  2
3
 70
     0
 62
     3
  6
CONTINUOUS
  0
ENDTAB
  0
TABLE
  2
STYLE
 70
     2
  0
STYLE
  2
STANDARD
 70
     0
 40
0.0
 41
1.0
 50
0.0
 71
     0
 42
0.2
  3
TXT
  4
BIGFONT
  0
STYLE
  2
STANDARD1
 70
     0
 40
0.0
 41
1.0
 50
0.0
 71
     0
 42
3.0
  3
txt
  4

  0
ENDTAB
  0
TABLE
  2
VIEW
 70
     1
  0
VIEW
  2
ALL
 70
     0
 40
540.0
 10
441.98319299999991
 20
270.0
 41
0.0
 11
0.0
 21
0.0
 31
1.0
 12
0.0
 22
0.0
 32
0.0
 42
0.0
 43
0.0
 44
0.0
 50
0.0
 71
     0
  0
ENDTAB
  0
TABLE
  2
UCS
 70
     0
  0
ENDTAB
  0
TABLE
  2
APPID
 70
     6
  0
APPID
  2
ACAD
 70
     0
  0
APPID
  2
ACAD_NAV_VCDISPLAY
 70
     0
  0
APPID
  2
ACAD_EXEMPT_FROM_CAD_STANDARDS
 70
     0
  0
APPID
  2
ACAD_DSTYLE_DIMJAG
 70
     0
  0
APPID
  2
ACAD_DSTYLE_DIMTALN
 70
     0
  0
APPID
  2
ACAD_MLEADERVER
 70
     0
  0
ENDTAB
  0
TABLE
  2
DIMSTYLE
 70
     2
  0
DIMSTYLE
  2
STANDARD
 70
     0
  3

  4

  5

  6

  7

 40
1.0
 41
0.18
 42
0.0625
 43
0.38
 44
0.18
 45
0.0
 46
0.0
 47
0.0
 48
0.0
140
0.18
141
0.09
142
0.0
143
25.399999999999999
144
1.0
145
0.0
146
1.0
147
0.09
 71
     0
 72
     0
 73
     1
 74
     1
 75
     0
 76
     0
 77
     0
 78
     0
170
     0
171
     2
172
     0
173
     0
174
     0
175
     0
176
     0
177
     0
178
     0
  0
DIMSTYLE
  2
ISO-25
 70
     0
  3

  4

  5

  6

  7

 40
1.0
 41
2.5
 42
0.625
 43
3.75
 44
1.25
 45
0.0
 46
0.0
 47
0.0
 48
0.0
140
2.5
141
2.5
142
0.0
143
0.03937007874016
144
1.0
145
0.0
146
1.0
147
0.625
 71
     0
 72
     0
 73
     0
 74
     0
 75
     0
 76
     0
 77
     1
 78
     8
170
     0
171
     3
172
     1
173
     0
174
     0
175
     0
176
     0
177
     0
178
     0
  0
ENDTAB
  0
ENDSEC
  0
SECTION
  2
BLOCKS
  0
BLOCK
  8
0
  2
$MODEL_SPACE
 70
     0
 10
0.0
 20
0.0
 30
0.0
  3
$MODEL_SPACE
  1

  0
ENDBLK
  5
11D
  8
0
  0
BLOCK
 67
     1
  8
0
  2
$PAPER_SPACE
 70
     0
 10
0.0
 20
0.0
 30
0.0
  3
$PAPER_SPACE
  1

  0
ENDBLK
  5
11B
 67
     1
  8
0
  0
ENDSEC
  0
SECTION
  2
ENTITIES
  0
CIRCLE
  5
382
  8
0
 10
58.000000046554128
 20
58.000000033309817
 30
0.0
 40
23.000000000000028
  0
LINE
  5
383
  8
0
 10
72.794103847804593
 20
63.55738297828114
 30
0.0
 11
72.684108132484482
 21
63.516063455274463
 31
0.0
  0
ARC
  5
384
  8
0
 10
71.769803966726315
 20
65.950000033309607
 30
0.0
 40
2.5999999999997998
 50
152.29552805194561
 51
290.58861406984443
  0
ARC
  5
385
  8
0
 10
67.165945788144839
 20
68.367538010572787
 30
0.0
 40
2.6000000000003438
 50
332.29552805195749
 51
51.350587851885727
  0
ARC
  5
386
  8
0
 10
58.875000046554
 20
58.000000033309817
 30
0.0
 40
15.87500000000008
 50
51.350587851885159
 51
308.6494121481158
  0
ARC
  5
387
  8
0
 10
67.165945788145336
 20
47.632462056046528
 30
0.0
 40
2.5999999999997869
 50
308.6494121481112
 51
27.70447457505179
  0
ARC
  5
388
  8
0
 10
71.769803966726371
 20
50.050000033309779
 30
0.0
 40
2.6000000000000059
 50
69.411385930158957
 51
207.70446932105199
  0
CIRCLE
  5
389
  8
0
 10
71.769803966726315
 20
65.950000033309607
 30
0.0
 40
1.2499999999997859
  0
ARC
  5
38A
  8
0
 10
71.914964388971441
 20
50.10229357198655
 30
0.0
 40
2.5000000000010769
 50
27.055073615755589
 51
69.411385930135324
  0
LINE
  5
38B
  8
0
 10
72.684108132484482
 20
52.483936611345172
 30
0.0
 11
72.794103847804593
 21
52.442617088338501
 31
0.0
  0
ARC
  5
38C
  8
0
 10
71.914964388971441
 20
65.897706494633084
 30
0.0
 40
2.5000000000010769
 50
290.58861406986529
 51
332.94492638424441
  0
CIRCLE
  5
38D
  8
0
 10
71.769803966726371
 20
50.050000033309779
 30
0.0
 40
1.2499999999999709
  0
CIRCLE
  5
38E
  8
0
 10
58.000000046554128
 20
58.000000033309817
 30
0.0
 40
7.5000000000000142
  0
CIRCLE
  5
38F
  8
0
 10
58.000000046554128
 20
58.000000033309817
 30
0.0
 40
17.5
  0
LINE
  5
390
  8
2
 10
123.0000011939436
 20
76.500000271728396
 30
0.0
 11
123.0000011939436
 21
39.499999794891238
 31
0.0
  0
LINE
  5
391
  8
2
 10
124.5000005084901
 20
42.149131957223773
 30
0.0
 11
123.0000011939436
 21
42.149131957223773
 31
0.0
  0
LINE
  5
392
  8
2
 10
123.0000011939436
 20
73.850868109395861
 30
0.0
 11
124.5000005084901
 21
73.850868109395861
 31
0.0
  0
LINE
  5
393
  8
2
 10
135.50000044888549
 20
68.999999973705172
 30
0.0
 11
132.59807708776211
 21
68.999999973705172
 31
0.0
  0
LINE
  5
394
  8
2
 10
124.5000005084901
 20
65.499999865671754
 30
0.0
 11
135.50000044888549
 21
65.499999865671754
 31
0.0
  0
LINE
  5
395
  8
2
 10
127.4019247338809
 20
68.999999973705201
 30
0.0
 11
124.5000005084901
 21
68.999999973705172
 31
0.0
  0
LINE
  5
396
  8
2
 10
132.59807708776211
 20
47.000000092914462
 30
0.0
 11
135.50000044888549
 21
47.000000092914462
 31
0.0
  0
LINE
  5
397
  8
2
 10
135.50000044888549
 20
50.500000200947881
 30
0.0
 11
124.5000005084901
 21
50.500000200947881
 31
0.0
  0
LINE
  5
398
  8
2
 10
124.5000005084901
 20
47.000000092914462
 30
0.0
 11
127.4019247338809
 21
47.000000092914462
 31
0.0
  0
LINE
  5
399
  8
2
 10
124.5000005084901
 20
72.000000465443492
 30
0.0
 11
127.4019249489607
 21
72.000000465443492
 31
0.0
  0
LINE
  5
39A
  8
2
 10
135.50000044888549
 20
75.500000107815623
 30
0.0
 11
124.5000005084901
 21
75.500000107815623
 31
0.0
  0
LINE
  5
39B
  8
2
 10
132.5980768726823
 20
72.000000465443492
 30
0.0
 11
135.50000044888549
 21
72.000000465443492
 31
0.0
  0
LINE
  5
39C
  8
2
 10
124.5000005084901
 20
40.499999958804011
 30
0.0
 11
135.50000044888549
 21
40.499999958804011
 31
0.0
  0
LINE
  5
39D
  8
2
 10
135.50000044888549
 20
43.999999601176143
 30
0.0
 11
132.5980768726823
 21
43.999999601176143
 31
0.0
  0
LINE
  5
39E
  8
2
 10
127.4019249489607
 20
43.999999601176143
 30
0.0
 11
124.5000005084901
 21
43.999999601176143
 31
0.0
  0
LINE
  5
39F
  8
2
 10
135.50000044888549
 20
40.499999958804011
 30
0.0
 11
135.50000044888549
 21
75.500000107815623
 31
0.0
  0
CIRCLE
  5
3A0
  8
2
 10
130.00000091082151
 20
70.500000033309846
 30
0.0
 40
3.0
  0
CIRCLE
  5
3A1
  8
2
 10
130.00000091082151
 20
45.50000003330981
 30
0.0
 40
3.0
  0
LINE
  5
3A2
  8
0
 10
143.50000088707279
 20
35.456145021846659
 30
0.0
 11
144.00000091082151
 21
35.744819629719622
 31
0.0
  0
LINE
  5
3A3
  8
0
 10
144.00000091082151
 20
80.255180436900019
 30
0.0
 11
143.50000088707279
 21
80.543855044772982
 31
0.0
  0
LINE
  5
3A4
  8
2
 10
122.75000068730409
 20
76.500000271728396
 30
0.0
 11
124.5000005084901
 21
76.500000271728396
 31
0.0
  0
LINE
  5
3A5
  8
2
 10
117.00000021046689
 20
75.500000107815623
 30
0.0
 11
122.75000068730409
 21
75.500000107815623
 31
0.0
  0
LINE
  5
3A6
  8
2
 10
116.00000004655411
 20
76.077351186206698
 30
0.0
 11
117.00000021046689
 21
75.500000107815623
 31
0.0
  0
LINE
  5
3A7
  8
0
 10
116.5000010598331
 20
80.543855044772982
 30
0.0
 11
116.00000004655411
 21
80.255180436900019
 31
0.0
  0
ARC
  5
3A8
  8
0
 10
130.00000091082151
 20
-118.9999999666902
 30
0.0
 40
200.0
 50
86.129591988688887
 51
93.870408011311113
  0
LINE
  5
3A9
  8
2
 10
135.50000044888549
 20
72.499999616077304
 30
0.0
 11
144.00000091082151
 21
72.499999616077304
 31
0.0
  0
LINE
  5
3AA
  8
2
 10
144.00000091082151
 20
43.500000450542331
 30
0.0
 11
135.50000044888549
 21
43.500000450542331
 31
0.0
  0
LINE
  5
3AB
  8
0
 10
144.00000091082151
 20
35.744819629719622
 30
0.0
 11
144.00000091082171
 21
80.255180436899792
 31
0.0
  0
ARC
  5
3AC
  8
0
 10
130.00000091082151
 20
235.0000000333099
 30
0.0
 40
200.0
 50
266.1295919886897
 51
273.8704080113115
  0
LINE
  5
3AD
  8
0
 10
116.00000004655411
 20
35.744819629719622
 30
0.0
 11
116.5000010598331
 21
35.456145021846659
 31
0.0
  0
LINE
  5
3AE
  8
0
 10
116.00000004655411
 20
35.744819629719622
 30
0.0
 11
116.00000004655411
 21
80.255180436900019
 31
0.0
  0
LINE
  5
3AF
  8
2
 10
117.00000021046689
 20
40.499999958804011
 30
0.0
 11
116.00000004655411
 21
39.922648880412943
 31
0.0
  0
LINE
  5
3B0
  8
2
 10
122.75000068730409
 20
40.499999958804011
 30
0.0
 11
117.00000021046689
 21
40.499999958804011
 31
0.0
  0
LINE
  5
3B1
  8
2
 10
122.75000068730409
 20
39.499999794891238
 30
0.0
 11
122.75000068730409
 21
76.500000271728396
 31
0.0
  0
LINE
  5
3B2
  8
2
 10
124.5000005084901
 20
39.499999794891238
 30
0.0
 11
122.75000068730409
 21
39.499999794891238
 31
0.0
  0
LINE
  5
3B3
  8
2
 10
124.5000005084901
 20
76.500000271728354
 30
0.0
 11
124.5000005084901
 21
39.499999794891238
 31
0.0
  0
LINE
  5
3B4
  8
2
 10
117.00000021046689
 20
40.499999958804011
 30
0.0
 11
117.00000021046689
 21
75.500000107815623
 31
0.0
  0
CIRCLE
  5
3B5
  8
2
 10
58.000000046554128
 20
58.000000033309817
 30
0.0
 40
18.500000238418561
  0
LINE
  5
3B6
  8
1
 10
30.00000004655411
 20
58.000000033309817
 30
0.0
 11
86.000000046554163
 21
58.000000033309817
 31
0.0
  0
LINE
  5
3B7
  8
1
 10
58.000000046554128
 20
86.000000033309846
 30
0.0
 11
58.000000046554128
 21
30.000000033309789
 31
0.0
  0
LINE
  5
3B8
  8
1
 10
111.00000004655411
 20
58.000000033309817
 30
0.0
 11
149.0000009108216
 21
58.000000033309682
 31
0.0
  0
ARC
  5
3B9
  8
2
 10
71.914964388971427
 20
50.102293571986529
 30
0.0
 40
2.5000000000010889
 50
330.4220865850279
 51
27.055073615756019
  0
ARC
  5
3BA
  8
2
 10
71.903125790089689
 20
65.874222927650095
 30
0.0
 40
2.500000000001068
 50
333.54765476961762
 51
29.577913414972731
  0
TEXT
  5
477
  8
0
 62
     3
 10
0.0
 20
0.0
 30
0.0
 40
10.0
  1
GRL70S-C
  7
STANDARD1
  0
ENDSEC
  0
EOF
