  0
SECTION
  2
HEADER
  9
$ACADVER
  1
AC1009
  9
$INSBASE
 10
0.0
 20
0.0
 30
0.0
  9
$EXTMIN
 10
0.0
 20
-2.960436562073669
 30
0.0
  9
$EXTMAX
 10
158.00000000407769
 20
99.999999926588856
 30
0.0
  9
$LIMMIN
 10
0.0
 20
0.0
  9
$LIMMAX
 10
750.0
 20
540.0
  9
$ORTHOMODE
 70
     1
  9
$REGENMODE
 70
     1
  9
$FILLMODE
 70
     1
  9
$QTEXTMODE
 70
     0
  9
$MIRRTEXT
 70
     0
  9
$DRAGMODE
 70
     2
  9
$LTSCALE
 40
10.0
  9
$OSMODE
 70
  3071
  9
$ATTMODE
 70
     1
  9
$TEXTSIZE
 40
0.2
  9
$TRACEWID
 40
0.05
  9
$TEXTSTYLE
  7
STANDARD
  9
$CLAYER
  8
0
  9
$CELTYPE
  6
BYLAYER
  9
$CECOLOR
 62
   256
  9
$DIMSCALE
 40
1.0
  9
$DIMASZ
 40
3.0
  9
$DIMEXO
 40
2.0
  9
$DIMDLI
 40
0.38
  9
$DIMRND
 40
0.0
  9
$DIMDLE
 40
0.0
  9
$DIMEXE
 40
2.0
  9
$DIMTP
 40
0.0
  9
$DIMTM
 40
0.0
  9
$DIMTXT
 40
3.2000000000000002
  9
$DIMCEN
 40
0.0
  9
$DIMTSZ
 40
0.0
  9
$DIMTOL
 70
     0
  9
$DIMLIM
 70
     0
  9
$DIMTIH
 70
     0
  9
$DIMTOH
 70
     0
  9
$DIMSE1
 70
     0
  9
$DIMSE2
 70
     0
  9
$DIMTAD
 70
     1
  9
$DIMZIN
 70
     0
  9
$DIMBLK
  1

  9
$DIMASO
 70
     0
  9
$DIMSHO
 70
     0
  9
$DIMPOST
  1

  9
$DIMAPOST
  1

  9
$DIMALT
 70
     0
  9
$DIMALTD
 70
     2
  9
$DIMALTF
 40
25.399999999999999
  9
$DIMLFAC
 40
1.0
  9
$DIMTOFL
 70
     0
  9
$DIMTVP
 40
1.6000000000000001
  9
$DIMTIX
 70
     1
  9
$DIMSOXD
 70
     0
  9
$DIMSAH
 70
     0
  9
$DIMBLK1
  1

  9
$DIMBLK2
  1

  9
$DIMSTYLE
  2
STANDARD
  9
$DIMCLRD
 70
     0
  9
$DIMCLRE
 70
     0
  9
$DIMCLRT
 70
     0
  9
$DIMTFAC
 40
1.0
  9
$DIMGAP
 40
0.09
  9
$LUNITS
 70
     2
  9
$LUPREC
 70
     4
  9
$SKETCHINC
 40
0.1
  9
$FILLETRAD
 40
0.0
  9
$AUNITS
 70
     0
  9
$AUPREC
 70
     4
  9
$MENU
  1
E:\r13\win\SUPPORT\ACAD
  9
$ELEVATION
 40
0.0
  9
$PELEVATION
 40
0.0
  9
$THICKNESS
 40
0.0
  9
$LIMCHECK
 70
     0
  9
$BLIPMODE
 70
     0
  9
$CHAMFERA
 40
0.0
  9
$CHAMFERB
 40
0.0
  9
$SKPOLY
 70
     0
  9
$TDCREATE
 40
2449840.6227546302
  9
$TDUPDATE
 40
2456602.610141227
  9
$TDINDWG
 40
0.0163117361
  9
$TDUSRTIMER
 40
2456598.4330391781
  9
$USRTIMER
 70
     1
  9
$ANGBASE
 50
0.0
  9
$ANGDIR
 70
     0
  9
$PDMODE
 70
     0
  9
$PDSIZE
 40
0.0
  9
$PLINEWID
 40
0.0
  9
$COORDS
 70
     1
  9
$SPLFRAME
 70
     0
  9
$SPLINETYPE
 70
     6
  9
$SPLINESEGS
 70
     8
  9
$ATTDIA
 70
     0
  9
$ATTREQ
 70
     1
  9
$HANDLING
 70
     1
  9
$HANDSEED
  5
625
  9
$SURFTAB1
 70
     6
  9
$SURFTAB2
 70
     6
  9
$SURFTYPE
 70
     6
  9
$SURFU
 70
     6
  9
$SURFV
 70
     6
  9
$UCSNAME
  2

  9
$UCSORG
 10
0.0
 20
0.0
 30
0.0
  9
$UCSXDIR
 10
1.0
 20
0.0
 30
0.0
  9
$UCSYDIR
 10
0.0
 20
1.0
 30
0.0
  9
$PUCSNAME
  2

  9
$PUCSORG
 10
0.0
 20
0.0
 30
0.0
  9
$PUCSXDIR
 10
1.0
 20
0.0
 30
0.0
  9
$PUCSYDIR
 10
0.0
 20
1.0
 30
0.0
  9
$USERI1
 70
     0
  9
$USERI2
 70
     1
  9
$USERI3
 70
     0
  9
$USERI4
 70
     0
  9
$USERI5
 70
     0
  9
$USERR1
 40
0.0
  9
$USERR2
 40
0.0
  9
$USERR3
 40
0.0
  9
$USERR4
 40
0.0
  9
$USERR5
 40
0.0
  9
$WORLDVIEW
 70
     1
  9
$SHADEDGE
 70
     3
  9
$SHADEDIF
 70
    70
  9
$TILEMODE
 70
     1
  9
$MAXACTVP
 70
    16
  9
$PLIMCHECK
 70
     0
  9
$PEXTMIN
 10
1.0000000000000000E+020
 20
1.0000000000000000E+020
 30
1.0000000000000000E+020
  9
$PEXTMAX
 10
-1.0000000000000000E+020
 20
-1.0000000000000000E+020
 30
-1.0000000000000000E+020
  9
$PLIMMIN
 10
0.0
 20
0.0
  9
$PLIMMAX
 10
12.0
 20
9.0
  9
$UNITMODE
 70
     0
  9
$VISRETAIN
 70
     0
  9
$PLINEGEN
 70
     0
  9
$PSLTSCALE
 70
     0
  0
ENDSEC
  0
SECTION
  2
TABLES
  0
TABLE
  2
VPORT
 70
     1
  0
VPORT
  2
*ACTIVE
 70
     0
 10
0.0
 20
0.0
 11
1.0
 21
1.0
 12
238.3623544597643
 22
54.829193204606163
 13
0.0
 23
0.0
 14
20.0
 24
20.0
 15
20.0
 25
20.0
 16
0.0
 26
0.0
 36
1.0
 17
0.0
 27
0.0
 37
0.0
 40
281.94089567563992
 41
1.831871345029239
 42
50.0
 43
0.0
 44
0.0
 50
0.0
 51
0.0
 71
    16
 72
   100
 73
     1
 74
     0
 75
     0
 76
     0
 77
     0
 78
     2
  0
ENDTAB
  0
TABLE
  2
LTYPE
 70
     7
  0
LTYPE
  2
CONTINUOUS
 70
     0
  3
Solid Line
 72
    65
 73
     0
 40
0.0
  0
LTYPE
  2
CENTER
 70
     0
  3
____ _ ____ _ ____ _ ____ _ ____ _ ____ _ ____
 72
    65
 73
     4
 40
2.0
 49
1.25
 49
-0.25
 49
0.25
 49
-0.25
  0
LTYPE
  2
HIDDEN
 70
     0
  3
_ _ _ _ _ _ _ _ _ _ _ _ _ _ _ _ _ _ _ _ _ _ _
 72
    65
 73
     2
 40
0.375
 49
0.25
 49
-0.125
  0
LTYPE
  2
PHANTOM2
 70
     0
  3
___ _ _ ___ _ _ ___ _ _ ___ _ _
 72
    65
 73
     6
 40
1.25
 49
0.625
 49
-0.125
 49
0.125
 49
-0.125
 49
0.125
 49
-0.125
  0
LTYPE
  2
CNS_SOLID
 70
     0
  3

 72
    65
 73
     0
 40
0.0
  0
LTYPE
  2
CNS_DASHED
 70
     0
  3

 72
    65
 73
     2
 40
2.0
 49
1.0
 49
-1.0
  0
LTYPE
  2
CNS_CENTER
 70
     0
  3

 72
    65
 73
     4
 40
2.0
 49
0.45
 49
-0.5
 49
0.05
 49
-0.5
  0
ENDTAB
  0
TABLE
  2
LAYER
 70
     4
  0
LAYER
  2
0
 70
     0
 62
     7
  6
CONTINUOUS
  0
LAYER
  2
1
 70
     0
 62
     1
  6
CENTER
  0
LAYER
  2
2
 70
     0
 62
     2
  6
HIDDEN
  0
LAYER
  2
3
 70
     0
 62
     3
  6
CONTINUOUS
  0
ENDTAB
  0
TABLE
  2
STYLE
 70
     2
  0
STYLE
  2
STANDARD
 70
     0
 40
0.0
 41
1.0
 50
0.0
 71
     0
 42
0.2
  3
TXT
  4
BIGFONT
  0
STYLE
  2
STANDARD1
 70
     0
 40
0.0
 41
1.0
 50
0.0
 71
     0
 42
3.0
  3
txt
  4

  0
ENDTAB
  0
TABLE
  2
VIEW
 70
     1
  0
VIEW
  2
ALL
 70
     0
 40
540.0
 10
441.98319299999991
 20
270.0
 41
0.0
 11
0.0
 21
0.0
 31
1.0
 12
0.0
 22
0.0
 32
0.0
 42
0.0
 43
0.0
 44
0.0
 50
0.0
 71
     0
  0
ENDTAB
  0
TABLE
  2
UCS
 70
     0
  0
ENDTAB
  0
TABLE
  2
APPID
 70
     7
  0
APPID
  2
ACAD
 70
     0
  0
APPID
  2
ACAD_NAV_VCDISPLAY
 70
     0
  0
APPID
  2
ACAD_EXEMPT_FROM_CAD_STANDARDS
 70
     0
  0
APPID
  2
ACAD_DSTYLE_DIMJAG
 70
     0
  0
APPID
  2
ACAD_DSTYLE_DIMTALN
 70
     0
  0
APPID
  2
ACAD_MLEADERVER
 70
     0
  0
APPID
  2
ACAD_DSTYLE_DIMRADIAL_EXTENSION
 70
     0
  0
ENDTAB
  0
TABLE
  2
DIMSTYLE
 70
     2
  0
DIMSTYLE
  2
STANDARD
 70
     0
  3

  4

  5

  6

  7

 40
1.0
 41
0.18
 42
0.0625
 43
0.38
 44
0.18
 45
0.0
 46
0.0
 47
0.0
 48
0.0
140
0.18
141
0.09
142
0.0
143
25.399999999999999
144
1.0
145
0.0
146
1.0
147
0.09
 71
     0
 72
     0
 73
     1
 74
     1
 75
     0
 76
     0
 77
     0
 78
     0
170
     0
171
     2
172
     0
173
     0
174
     0
175
     0
176
     0
177
     0
178
     0
  0
DIMSTYLE
  2
ISO-25
 70
     0
  3

  4

  5

  6

  7

 40
1.0
 41
2.5
 42
0.625
 43
3.75
 44
1.25
 45
0.0
 46
0.0
 47
0.0
 48
0.0
140
2.5
141
2.5
142
0.0
143
0.03937007874016
144
1.0
145
0.0
146
1.0
147
0.625
 71
     0
 72
     0
 73
     0
 74
     0
 75
     0
 76
     0
 77
     1
 78
     8
170
     0
171
     3
172
     1
173
     0
174
     0
175
     0
176
     0
177
     0
178
     0
  0
ENDTAB
  0
ENDSEC
  0
SECTION
  2
BLOCKS
  0
BLOCK
  8
0
  2
$MODEL_SPACE
 70
     0
 10
0.0
 20
0.0
 30
0.0
  3
$MODEL_SPACE
  1

  0
ENDBLK
  5
11D
  8
0
  0
BLOCK
 67
     1
  8
0
  2
$PAPER_SPACE
 70
     0
 10
0.0
 20
0.0
 30
0.0
  3
$PAPER_SPACE
  1

  0
ENDBLK
  5
11B
 67
     1
  8
0
  0
ENDSEC
  0
SECTION
  2
ENTITIES
  0
CIRCLE
  5
39A
  8
0
 10
77.706691154806322
 20
58.54999992658886
 30
0.0
 40
1.25
  0
LINE
  5
39B
  8
0
 10
78.440769942679836
 20
68.955780943982489
 30
0.0
 11
78.555650407376831
 21
68.989591653011388
 31
0.0
  0
ARC
  5
39C
  8
0
 10
77.706691154806236
 20
71.449999926588617
 30
0.0
 40
2.5999999999997669
 50
150.22382256309561
 51
286.39979325889931
  0
ARC
  5
39D
  8
0
 10
73.193236696235701
 20
74.032388133346245
 30
0.0
 40
2.5999999999993939
 50
330.22382256309811
 51
50.984864323358572
  0
ARC
  5
39E
  8
0
 10
65.875000004077791
 20
64.999999926589027
 30
0.0
 40
14.22499999999995
 50
50.984860029654463
 51
309.01514093065367
  0
ARC
  5
39F
  8
0
 10
73.193236696236895
 20
55.967611719831247
 30
0.0
 40
2.5999999999981971
 50
309.01514093062258
 51
29.776175968387069
  0
ARC
  5
3A0
  8
0
 10
77.849805419038304
 20
58.612120716891802
 30
0.0
 40
2.499999999998832
 50
25.268435104568692
 51
73.600206741130592
  0
ARC
  5
3A1
  8
0
 10
77.84980541903829
 20
71.387879136285932
 30
0.0
 40
2.4999999999988258
 50
286.39979325887077
 51
334.73156489543209
  0
CIRCLE
  5
3A2
  8
0
 10
77.706691154806236
 20
71.449999926588617
 30
0.0
 40
1.2500000000002549
  0
ARC
  5
3A3
  8
0
 10
77.706691154806322
 20
58.54999992658886
 30
0.0
 40
2.6000000000000019
 50
73.600206741105552
 51
209.7761789054322
  0
LINE
  5
3A4
  8
0
 10
78.555650407376831
 20
61.010408200166381
 30
0.0
 11
78.440769942679836
 21
61.04421890919528
 31
0.0
  0
CIRCLE
  5
3A5
  8
0
 10
65.000000004077719
 20
64.999999926588856
 30
0.0
 40
6.0
  0
CIRCLE
  5
3A6
  8
0
 10
65.000000004077719
 20
64.999999926588856
 30
0.0
 40
30.0
  0
CIRCLE
  5
3A7
  8
0
 10
65.000000004077719
 20
64.999999926588856
 30
0.0
 40
16.0
  0
ARC
  5
3A8
  8
2
 10
77.849805419038304
 20
58.612120716891802
 30
0.0
 40
2.4999999999988129
 50
333.56716772798973
 51
25.26843510456882
  0
ARC
  5
3A9
  8
2
 10
77.84980541903829
 20
71.387879136285932
 30
0.0
 40
2.4999999999988258
 50
334.73156489543209
 51
26.43283227201092
  0
CIRCLE
  5
3AA
  8
2
 10
65.000000004077719
 20
64.999999926588856
 30
0.0
 40
16.850000000000001
  0
CIRCLE
  5
3AB
  8
2
 10
65.000000004077719
 20
64.999999926588856
 30
0.0
 40
21.000000000000011
  0
LINE
  5
3AC
  8
2
 10
132.3000000040777
 20
79.198063174792964
 30
0.0
 11
133.50000000407769
 21
79.198063174792964
 31
0.0
  0
LINE
  5
3AD
  8
2
 10
133.50000000407769
 20
50.801936678385132
 30
0.0
 11
132.3000000040777
 21
50.801936678385132
 31
0.0
  0
LINE
  5
3AE
  8
2
 10
132.3000000040777
 20
48.14999992658899
 30
0.0
 11
132.3000000040777
 21
81.849999926588765
 31
0.0
  0
ARC
  5
3AF
  8
2
 10
148.90000000407761
 20
58.399999926588777
 30
0.0
 40
0.600000000000108
 50
0.0000000000094993
 51
89.999999999994586
  0
LINE
  5
3B0
  8
2
 10
146.8353571112134
 20
55.49999992658887
 30
0.0
 11
149.50000000407769
 21
55.49999992658887
 31
0.0
  0
LINE
  5
3B1
  8
2
 10
133.5500000040777
 20
55.49999992658887
 30
0.0
 11
136.214642896942
 21
55.49999992658887
 31
0.0
  0
ARC
  5
3B2
  8
2
 10
134.15000000407781
 20
58.399999926588777
 30
0.0
 40
0.600000000000108
 50
90.000000000010871
 51
179.99999999999051
  0
LINE
  5
3B3
  8
2
 10
148.9000000040777
 20
58.999999926588849
 30
0.0
 11
134.1500000040777
 21
58.999999926588849
 31
0.0
  0
LINE
  5
3B4
  8
2
 10
136.214642896942
 20
74.499999926588856
 30
0.0
 11
133.5500000040777
 21
74.499999926588856
 31
0.0
  0
LINE
  5
3B5
  8
2
 10
149.50000000407769
 20
74.499999926588856
 30
0.0
 11
146.8353571112134
 21
74.499999926588856
 31
0.0
  0
ARC
  5
3B6
  8
2
 10
148.90000000407761
 20
71.599999926588964
 30
0.0
 40
0.600000000000108
 50
270.00000000000807
 51
359.99999999999193
  0
LINE
  5
3B7
  8
2
 10
134.1500000040777
 20
70.999999926588856
 30
0.0
 11
148.9000000040777
 21
70.999999926588856
 31
0.0
  0
ARC
  5
3B8
  8
2
 10
134.15000000407781
 20
71.599999926588964
 30
0.0
 40
0.600000000000108
 50
180.0000000000108
 51
269.99999999998909
  0
LINE
  5
3B9
  8
2
 10
149.20000000407771
 20
80.999999926588856
 30
0.0
 11
133.50000000407769
 21
80.999999926588856
 31
0.0
  0
ARC
  5
3BA
  8
2
 10
149.2000000040774
 20
80.699999926588987
 30
0.0
 40
0.2999999999998835
 50
359.99999999998909
 51
89.999999999956557
  0
LINE
  5
3BB
  8
2
 10
146.325735086295
 20
78.399999926588862
 30
0.0
 11
149.50000000407729
 21
78.399999926588848
 31
0.0
  0
LINE
  5
3BC
  8
2
 10
139.78535711121339
 20
77.999999926588856
 30
0.0
 11
143.26464289694201
 21
77.999999926588856
 31
0.0
  0
LINE
  5
3BD
  8
2
 10
133.5500000040777
 20
78.399999926588848
 30
0.0
 11
136.72426492186031
 21
78.399999926588833
 31
0.0
  0
ARC
  5
3BE
  8
2
 10
133.8500000040776
 20
80.699999926588987
 30
0.0
 40
0.2999999999998835
 50
89.999999999967429
 51
180.0000000000108
  0
ARC
  5
3BF
  8
2
 10
149.2000000040774
 20
49.29999992658874
 30
0.0
 40
0.2999999999998692
 50
270.00000000004343
 51
0.0000000000135704
  0
LINE
  5
3C0
  8
2
 10
143.26464289694201
 20
51.99999992658887
 30
0.0
 11
139.78535711121339
 21
51.99999992658887
 31
0.0
  0
LINE
  5
3C1
  8
2
 10
133.50000000407769
 20
48.999999926588849
 30
0.0
 11
149.20000000407771
 21
48.99999992658887
 31
0.0
  0
ARC
  5
3C2
  8
2
 10
133.8500000040776
 20
49.299999926588747
 30
0.0
 40
0.2999999999998835
 50
179.99999999998909
 51
270.00000000003263
  0
CIRCLE
  5
3C3
  8
2
 10
138.00000000407769
 20
76.249999926588856
 30
0.0
 40
2.5
  0
CIRCLE
  5
3C4
  8
2
 10
138.00000000407769
 20
53.74999992658887
 30
0.0
 40
2.5
  0
CIRCLE
  5
3C5
  8
2
 10
145.0500000040777
 20
53.74999992658887
 30
0.0
 40
2.5
  0
CIRCLE
  5
3C6
  8
2
 10
145.0500000040777
 20
76.249999926588856
 30
0.0
 40
2.5
  0
LINE
  5
3C7
  8
0
 10
151.56000000407769
 20
34.99999992658887
 30
0.0
 11
153.00000000407769
 21
34.99999992658887
 31
0.0
  0
LINE
  5
3C8
  8
0
 10
142.50000000407769
 20
42.602242585054952
 30
0.0
 11
151.56000000407769
 21
34.99999992658887
 31
0.0
  0
LINE
  5
3C9
  8
0
 10
142.50000000407769
 20
87.397757268122817
 30
0.0
 11
142.50000000407769
 21
42.602242585054952
 31
0.0
  0
LINE
  5
3CA
  8
0
 10
140.50000000407769
 20
43.999999926588849
 30
0.0
 11
142.50000000407769
 21
43.999999926588849
 31
0.0
  0
LINE
  5
3CB
  8
0
 10
140.50000000407769
 20
42.602242585055158
 30
0.0
 11
140.50000000407769
 21
87.397757268122632
 31
0.0
  0
LINE
  5
3CC
  8
0
 10
131.44000000407769
 20
34.99999992658887
 30
0.0
 11
140.50000000407769
 21
42.602242585055158
 31
0.0
  0
LINE
  5
3CD
  8
0
 10
130.00000000407769
 20
34.99999992658887
 30
0.0
 11
131.44000000407769
 21
34.99999992658887
 31
0.0
  0
LINE
  5
3CE
  8
0
 10
130.00000000407769
 20
34.99999992658887
 30
0.0
 11
130.00000000407761
 21
94.999999926588856
 31
0.0
  0
LINE
  5
3CF
  8
2
 10
131.00000000407769
 20
48.99999992658887
 30
0.0
 11
130.00000000407769
 21
48.422649657399234
 31
0.0
  0
LINE
  5
3D0
  8
2
 10
132.1500000040777
 20
48.99999992658887
 30
0.0
 11
131.00000000407769
 21
48.99999992658887
 31
0.0
  0
LINE
  5
3D1
  8
2
 10
132.1500000040777
 20
48.149999926588869
 30
0.0
 11
132.1500000040777
 21
81.849999926588865
 31
0.0
  0
LINE
  5
3D2
  8
2
 10
133.50000000407769
 20
48.149999926588869
 30
0.0
 11
132.1500000040777
 21
48.149999926588869
 31
0.0
  0
LINE
  5
3D3
  8
2
 10
133.50000000407769
 20
81.849999926588737
 30
0.0
 11
133.50000000407769
 21
48.149999926588869
 31
0.0
  0
LINE
  5
3D4
  8
2
 10
153.00000000407769
 20
51.99999992658887
 30
0.0
 11
149.50000000407729
 21
51.99999992658887
 31
0.0
  0
LINE
  5
3D5
  8
0
 10
153.00000000407769
 20
34.99999992658887
 30
0.0
 11
153.00000000407769
 21
94.999999926588856
 31
0.0
  0
LINE
  5
3D6
  8
0
 10
153.00000000407769
 20
94.999999926588856
 30
0.0
 11
151.56000000407769
 21
94.999999926588856
 31
0.0
  0
LINE
  5
3D7
  8
2
 10
149.50000000407729
 20
77.999999926588856
 30
0.0
 11
153.00000000407769
 21
77.999999926588856
 31
0.0
  0
LINE
  5
3D8
  8
2
 10
132.1500000040777
 20
81.849999926588865
 30
0.0
 11
133.50000000407769
 21
81.849999926588865
 31
0.0
  0
LINE
  5
3D9
  8
2
 10
131.00000000407769
 20
80.999999926588856
 30
0.0
 11
132.1500000040777
 21
80.999999926588856
 31
0.0
  0
LINE
  5
3DA
  8
2
 10
130.00000000407769
 20
81.577350195778507
 30
0.0
 11
131.00000000407769
 21
80.999999926588856
 31
0.0
  0
LINE
  5
3DB
  8
0
 10
131.44000000407769
 20
94.999999926588856
 30
0.0
 11
130.00000000407769
 21
94.999999926588856
 31
0.0
  0
LINE
  5
3DC
  8
0
 10
140.50000000407769
 20
87.397757268122604
 30
0.0
 11
131.44000000407769
 21
94.999999926588856
 31
0.0
  0
LINE
  5
3DD
  8
0
 10
142.50000000407769
 20
85.999999926588885
 30
0.0
 11
140.50000000407769
 21
85.999999926588885
 31
0.0
  0
LINE
  5
3DE
  8
0
 10
151.56000000407769
 20
94.999999926588856
 30
0.0
 11
142.50000000407769
 21
87.397757268122774
 31
0.0
  0
LINE
  5
3DF
  8
2
 10
131.00000000407769
 20
48.99999992658887
 30
0.0
 11
131.00000000407769
 21
80.999999926588856
 31
0.0
  0
LINE
  5
3E0
  8
1
 10
158.00000000407769
 20
64.999999926588856
 30
0.0
 11
125.00000000407771
 21
64.999999926588856
 31
0.0
  0
LINE
  5
3E1
  8
1
 10
30.000000004077719
 20
64.999999926588856
 30
0.0
 11
100.00000000407771
 21
64.999999926588856
 31
0.0
  0
LINE
  5
3E2
  8
1
 10
65.000000004077719
 20
99.999999926588856
 30
0.0
 11
65.000000004077719
 21
29.999999926588849
 31
0.0
  0
LINE
  5
3E3
  8
2
 10
149.50000000407729
 20
49.299999926588811
 30
0.0
 11
149.50000000407729
 21
80.69999992658893
 31
0.0
  0
LINE
  5
3E4
  8
2
 10
133.5500000040777
 20
49.299999926588747
 30
0.0
 11
133.5500000040777
 21
80.69999992658893
 31
0.0
  0
LINE
  5
3E5
  8
0
 10
131.44000000407769
 20
94.999999926588856
 30
0.0
 11
131.44000000407769
 21
34.99999992658887
 31
0.0
  0
LINE
  5
3E6
  8
0
 10
151.56000000407769
 20
94.999999926588856
 30
0.0
 11
151.56000000407769
 21
34.99999992658887
 31
0.0
  0
LINE
  5
3E7
  8
2
 10
138.00000000407769
 20
73.749999926588856
 30
0.0
 11
145.0500000040777
 21
73.749999926588856
 31
0.0
  0
LINE
  5
3E8
  8
2
 10
146.325735086295
 20
51.59999992658885
 30
0.0
 11
149.50000000407729
 21
51.599999926588858
 31
0.0
  0
LINE
  5
3E9
  8
2
 10
133.5500000040777
 20
51.599999926588858
 30
0.0
 11
136.72426492186031
 21
51.599999926588872
 31
0.0
  0
LINE
  5
3EA
  8
2
 10
138.00000000407769
 20
56.249999926588849
 30
0.0
 11
145.0500000040777
 21
56.249999926588849
 31
0.0
  0
TEXT
  5
5BB
  8
0
 62
     3
 10
0.0
 20
0.0
 30
0.0
 40
10.0
  1
GRL60SWA-Y
  7
STANDARD1
  0
ENDSEC
  0
EOF
