  0
SECTION
  2
HEADER
  9
$ACADVER
  1
AC1009
  9
$INSBASE
 10
0.0
 20
0.0
 30
0.0
  9
$EXTMIN
 10
0.0
 20
-2.960436562073669
 30
0.0
  9
$EXTMAX
 10
415.1318423588163
 20
379.57564650579621
 30
0.0
  9
$LIMMIN
 10
0.0
 20
0.0
  9
$LIMMAX
 10
375.0
 20
270.0
  9
$ORTHOMODE
 70
     0
  9
$REGENMODE
 70
     1
  9
$FILLMODE
 70
     1
  9
$QTEXTMODE
 70
     0
  9
$MIRRTEXT
 70
     0
  9
$DRAGMODE
 70
     2
  9
$LTSCALE
 40
10.0
  9
$OSMODE
 70
  3071
  9
$ATTMODE
 70
     1
  9
$TEXTSIZE
 40
2.0
  9
$TRACEWID
 40
0.05
  9
$TEXTSTYLE
  7
STANDARD
  9
$CLAYER
  8
0
  9
$CELTYPE
  6
BYLAYER
  9
$CECOLOR
 62
   256
  9
$DIMSCALE
 40
1.0
  9
$DIMASZ
 40
2.5
  9
$DIMEXO
 40
2.0
  9
$DIMDLI
 40
0.38
  9
$DIMRND
 40
0.0
  9
$DIMDLE
 40
0.0
  9
$DIMEXE
 40
2.0
  9
$DIMTP
 40
0.0
  9
$DIMTM
 40
0.0
  9
$DIMTXT
 40
3.0
  9
$DIMCEN
 40
0.09
  9
$DIMTSZ
 40
0.0
  9
$DIMTOL
 70
     0
  9
$DIMLIM
 70
     0
  9
$DIMTIH
 70
     0
  9
$DIMTOH
 70
     0
  9
$DIMSE1
 70
     0
  9
$DIMSE2
 70
     0
  9
$DIMTAD
 70
     1
  9
$DIMZIN
 70
     0
  9
$DIMBLK
  1

  9
$DIMASO
 70
     1
  9
$DIMSHO
 70
     0
  9
$DIMPOST
  1

  9
$DIMAPOST
  1

  9
$DIMALT
 70
     0
  9
$DIMALTD
 70
     2
  9
$DIMALTF
 40
25.399999999999999
  9
$DIMLFAC
 40
1.0
  9
$DIMTOFL
 70
     0
  9
$DIMTVP
 40
1.6000000000000001
  9
$DIMTIX
 70
     1
  9
$DIMSOXD
 70
     0
  9
$DIMSAH
 70
     0
  9
$DIMBLK1
  1

  9
$DIMBLK2
  1

  9
$DIMSTYLE
  2
STANDARD
  9
$DIMCLRD
 70
     0
  9
$DIMCLRE
 70
     0
  9
$DIMCLRT
 70
     0
  9
$DIMTFAC
 40
1.0
  9
$DIMGAP
 40
0.09
  9
$LUNITS
 70
     2
  9
$LUPREC
 70
     4
  9
$SKETCHINC
 40
0.1
  9
$FILLETRAD
 40
2.5
  9
$AUNITS
 70
     0
  9
$AUPREC
 70
     0
  9
$MENU
  1
E:\r13\win\SUPPORT\ACAD
  9
$ELEVATION
 40
0.0
  9
$PELEVATION
 40
0.0
  9
$THICKNESS
 40
0.0
  9
$LIMCHECK
 70
     0
  9
$BLIPMODE
 70
     0
  9
$CHAMFERA
 40
0.0
  9
$CHAMFERB
 40
0.0
  9
$SKPOLY
 70
     0
  9
$TDCREATE
 40
2448650.5678784722
  9
$TDUPDATE
 40
2456598.6899480438
  9
$TDINDWG
 40
0.0227181713
  9
$TDUSRTIMER
 40
0.0227181713
  9
$USRTIMER
 70
     1
  9
$ANGBASE
 50
0.0
  9
$ANGDIR
 70
     0
  9
$PDMODE
 70
     0
  9
$PDSIZE
 40
0.0
  9
$PLINEWID
 40
0.0
  9
$COORDS
 70
     1
  9
$SPLFRAME
 70
     0
  9
$SPLINETYPE
 70
     6
  9
$SPLINESEGS
 70
     8
  9
$ATTDIA
 70
     0
  9
$ATTREQ
 70
     1
  9
$HANDLING
 70
     1
  9
$HANDSEED
  5
1C79
  9
$SURFTAB1
 70
     6
  9
$SURFTAB2
 70
     6
  9
$SURFTYPE
 70
     6
  9
$SURFU
 70
     6
  9
$SURFV
 70
     6
  9
$UCSNAME
  2

  9
$UCSORG
 10
0.0
 20
0.0
 30
0.0
  9
$UCSXDIR
 10
1.0
 20
0.0
 30
0.0
  9
$UCSYDIR
 10
0.0
 20
1.0
 30
0.0
  9
$PUCSNAME
  2

  9
$PUCSORG
 10
0.0
 20
0.0
 30
0.0
  9
$PUCSXDIR
 10
1.0
 20
0.0
 30
0.0
  9
$PUCSYDIR
 10
0.0
 20
1.0
 30
0.0
  9
$USERI1
 70
     0
  9
$USERI2
 70
     1
  9
$USERI3
 70
     1
  9
$USERI4
 70
     0
  9
$USERI5
 70
     0
  9
$USERR1
 40
0.0
  9
$USERR2
 40
0.0
  9
$USERR3
 40
0.0
  9
$USERR4
 40
0.0
  9
$USERR5
 40
0.0
  9
$WORLDVIEW
 70
     1
  9
$SHADEDGE
 70
     3
  9
$SHADEDIF
 70
    70
  9
$TILEMODE
 70
     1
  9
$MAXACTVP
 70
    16
  9
$PLIMCHECK
 70
     0
  9
$PEXTMIN
 10
1.0000000000000000E+020
 20
1.0000000000000000E+020
 30
1.0000000000000000E+020
  9
$PEXTMAX
 10
-1.0000000000000000E+020
 20
-1.0000000000000000E+020
 30
-1.0000000000000000E+020
  9
$PLIMMIN
 10
0.0
 20
0.0
  9
$PLIMMAX
 10
12.0
 20
9.0
  9
$UNITMODE
 70
     0
  9
$VISRETAIN
 70
     0
  9
$PLINEGEN
 70
     1
  9
$PSLTSCALE
 70
     0
  0
ENDSEC
  0
SECTION
  2
TABLES
  0
TABLE
  2
VPORT
 70
     1
  0
VPORT
  2
*ACTIVE
 70
     0
 10
0.0
 20
0.0
 11
1.0
 21
1.0
 12
207.56592214596239
 22
189.1390507355238
 13
0.0
 23
0.0
 14
10.0
 24
10.0
 15
10.0
 25
10.0
 16
0.0
 26
0.0
 36
1.0
 17
0.0
 27
0.0
 37
0.0
 40
388.60612625576982
 41
2.304913294797688
 42
50.0
 43
0.0
 44
0.0
 50
0.0
 51
0.0
 71
     0
 72
   500
 73
     1
 74
     0
 75
     0
 76
     0
 77
     0
 78
     2
  0
ENDTAB
  0
TABLE
  2
LTYPE
 70
     4
  0
LTYPE
  2
CONTINUOUS
 70
     0
  3
Solid Line
 72
    65
 73
     0
 40
0.0
  0
LTYPE
  2
CENTER
 70
     0
  3
____ _ ____ _ ____ _ ____ _ ____ _ ____ _ ____
 72
    65
 73
     4
 40
2.0
 49
1.25
 49
-0.25
 49
0.25
 49
-0.25
  0
LTYPE
  2
HIDDEN
 70
     0
  3
_ _ _ _ _ _ _ _ _ _ _ _ _ _ _ _ _ _ _ _ _ _ _
 72
    65
 73
     2
 40
0.375
 49
0.25
 49
-0.125
  0
LTYPE
  2
PHANTOM2
 70
     0
  3
___ _ _ ___ _ _ ___ _ _ ___ _ _
 72
    65
 73
     6
 40
1.25
 49
0.625
 49
-0.125
 49
0.125
 49
-0.125
 49
0.125
 49
-0.125
  0
ENDTAB
  0
TABLE
  2
LAYER
 70
     4
  0
LAYER
  2
0
 70
     0
 62
     7
  6
CONTINUOUS
  0
LAYER
  2
1
 70
     0
 62
     1
  6
CENTER
  0
LAYER
  2
3
 70
     0
 62
     3
  6
CONTINUOUS
  0
LAYER
  2
2
 70
     0
 62
     2
  6
HIDDEN
  0
ENDTAB
  0
TABLE
  2
STYLE
 70
     2
  0
STYLE
  2
STANDARD
 70
     0
 40
0.0
 41
1.0
 50
0.0
 71
     0
 42
2.0
  3
TXT
  4
BIGFONT
  0
STYLE
  2
STANDARD1
 70
     0
 40
0.0
 41
1.0
 50
0.0
 71
     0
 42
3.0
  3
txt
  4

  0
ENDTAB
  0
TABLE
  2
VIEW
 70
     1
  0
VIEW
  2
ALL
 70
     0
 40
270.0
 10
220.99159663865549
 20
135.0
 41
0.0
 11
0.0
 21
0.0
 31
1.0
 12
0.0
 22
0.0
 32
0.0
 42
0.0
 43
0.0
 44
0.0
 50
0.0
 71
     0
  0
ENDTAB
  0
TABLE
  2
UCS
 70
     0
  0
ENDTAB
  0
TABLE
  2
APPID
 70
     3
  0
APPID
  2
ACAD
 70
     0
  0
APPID
  2
ACAD_MLEADERVER
 70
     0
  0
APPID
  2
ACAD_NAV_VCDISPLAY
 70
     0
  0
ENDTAB
  0
TABLE
  2
DIMSTYLE
 70
     1
  0
DIMSTYLE
  2
STANDARD
 70
     0
  3

  4

  5

  6

  7

 40
1.0
 41
0.18
 42
0.0625
 43
0.38
 44
0.18
 45
0.0
 46
0.0
 47
0.0
 48
0.0
140
0.18
141
0.09
142
0.0
143
25.399999999999999
144
1.0
145
0.0
146
1.0
147
0.09
 71
     0
 72
     0
 73
     1
 74
     1
 75
     0
 76
     0
 77
     0
 78
     0
170
     0
171
     2
172
     0
173
     0
174
     0
175
     0
176
     0
177
     0
178
     0
  0
ENDTAB
  0
ENDSEC
  0
SECTION
  2
BLOCKS
  0
BLOCK
  8
0
  2
$MODEL_SPACE
 70
     0
 10
0.0
 20
0.0
 30
0.0
  3
$MODEL_SPACE
  1

  0
ENDBLK
  5
217
  8
0
  0
BLOCK
 67
     1
  8
0
  2
$PAPER_SPACE
 70
     0
 10
0.0
 20
0.0
 30
0.0
  3
$PAPER_SPACE
  1

  0
ENDBLK
  5
215
 67
     1
  8
0
  0
ENDSEC
  0
SECTION
  2
ENTITIES
  0
LINE
  5
18FA
  8
0
 10
255.23184235881581
 20
318.57564650579548
 30
0.0
 11
255.23184235881581
 21
335.57564650579639
 31
0.0
  0
LINE
  5
18FB
  8
0
 10
253.6318423588159
 20
318.57564650579548
 30
0.0
 11
253.6318423588159
 21
335.57564650579639
 31
0.0
  0
LINE
  5
18FC
  8
0
 10
255.23184235881581
 20
318.57564650579548
 30
0.0
 11
253.6318423588159
 21
318.57564650579548
 31
0.0
  0
LINE
  5
18FD
  8
0
 10
255.23184235881581
 20
335.57564650579639
 30
0.0
 11
253.6318423588159
 21
335.57564650579639
 31
0.0
  0
LINE
  5
18FE
  8
0
 10
256.03184235881679
 20
334.07564650579587
 30
0.0
 11
255.23184235881581
 21
334.07564650579587
 31
0.0
  0
ARC
  5
18FF
  8
0
 10
254.54538064058261
 20
328.26269273338158
 30
0.0
 40
6.0
 50
18.604452655161619
 51
75.655968701785085
  0
ARC
  5
1900
  8
0
 10
254.54538064058261
 20
325.88860027821022
 30
0.0
 40
6.0
 50
284.34403129821487
 51
341.39554734483841
  0
LINE
  5
1901
  8
0
 10
260.23184235881581
 20
330.17689050975412
 30
0.0
 11
260.23184235881581
 21
323.97440250183888
 31
0.0
  0
LINE
  5
1902
  8
0
 10
256.03184235881571
 20
334.07564650579639
 30
0.0
 11
256.03184235881571
 21
320.07564650579582
 31
0.0
  0
LINE
  5
1903
  8
0
 10
256.03184235881679
 20
320.07564650579587
 30
0.0
 11
255.23184235881581
 21
320.07564650579587
 31
0.0
  0
LINE
  5
1904
  8
0
 10
255.23184235881581
 20
334.07564650579587
 30
0.0
 11
255.23184235881581
 21
320.07564650579587
 31
0.0
  0
LINE
  5
1905
  8
0
 10
219.6318423588157
 20
320.07564650579621
 30
0.0
 11
219.6318423588161
 21
334.07564650579621
 31
0.0
  0
LINE
  5
1906
  8
0
 10
221.63184235881599
 20
334.07564650579599
 30
0.0
 11
219.6318423588161
 21
334.07564650579621
 31
0.0
  0
LINE
  5
1907
  8
0
 10
221.63184235881599
 20
320.07564650579621
 30
0.0
 11
219.6318423588157
 21
320.07564650579621
 31
0.0
  0
LINE
  5
1908
  8
0
 10
232.63184235881641
 20
108.5756465057959
 30
0.0
 11
242.6318423588161
 21
108.5756465057957
 31
0.0
  0
LINE
  5
1909
  8
0
 10
232.63184235881641
 20
96.575646505795945
 30
0.0
 11
242.6318423588161
 21
96.575646505796044
 31
0.0
  0
LINE
  5
190A
  8
0
 10
221.6318423588163
 20
95.57564650579593
 30
0.0
 11
219.6318423588159
 21
95.57564650579593
 31
0.0
  0
LINE
  5
190B
  8
0
 10
221.6318423588163
 20
109.5756465057959
 30
0.0
 11
219.6318423588163
 21
109.5756465057959
 31
0.0
  0
LINE
  5
190C
  8
0
 10
255.2318423588161
 20
109.5756465057958
 30
0.0
 11
255.2318423588161
 21
95.575646505795817
 31
0.0
  0
LINE
  5
190D
  8
0
 10
256.03184235881702
 20
95.575646505795817
 30
0.0
 11
255.2318423588161
 21
95.575646505795817
 31
0.0
  0
LINE
  5
190E
  8
0
 10
256.03184235881599
 20
109.5756465057962
 30
0.0
 11
256.03184235881599
 21
95.575646505795689
 31
0.0
  0
LINE
  5
190F
  8
0
 10
260.23184235881598
 20
105.676890509754
 30
0.0
 11
260.23184235881598
 21
99.474402501838767
 31
0.0
  0
ARC
  5
1910
  8
0
 10
254.54538064058281
 20
101.38860027821011
 30
0.0
 40
6.0
 50
284.34403129821487
 51
341.39554734483841
  0
ARC
  5
1911
  8
0
 10
254.54538064058281
 20
103.7626927333815
 30
0.0
 40
6.0
 50
18.604452655161619
 51
75.655968701785085
  0
LINE
  5
1912
  8
0
 10
256.03184235881702
 20
109.5756465057958
 30
0.0
 11
255.2318423588161
 21
109.5756465057958
 31
0.0
  0
LINE
  5
1913
  8
0
 10
255.2318423588161
 20
111.0756465057962
 30
0.0
 11
253.6318423588161
 21
111.0756465057962
 31
0.0
  0
LINE
  5
1914
  8
0
 10
255.2318423588161
 20
94.075646505795348
 30
0.0
 11
253.6318423588161
 21
94.075646505795348
 31
0.0
  0
LINE
  5
1915
  8
0
 10
253.6318423588161
 20
94.075646505795348
 30
0.0
 11
253.6318423588161
 21
111.0756465057962
 31
0.0
  0
LINE
  5
1916
  8
0
 10
255.2318423588161
 20
94.075646505795348
 30
0.0
 11
255.2318423588161
 21
111.0756465057962
 31
0.0
  0
LINE
  5
1917
  8
0
 10
242.6318423588161
 20
93.075646505795817
 30
0.0
 11
242.6318423588161
 21
112.0756465057958
 31
0.0
  0
LINE
  5
1918
  8
0
 10
242.6318423588161
 20
112.0756465057957
 30
0.0
 11
250.6318423588159
 21
112.0756465057954
 31
0.0
  0
LINE
  5
1919
  8
0
 10
242.6318423588161
 20
93.07564650579593
 30
0.0
 11
250.6318423588161
 21
93.075646505796158
 31
0.0
  0
LINE
  5
191A
  8
0
 10
250.6318423588161
 20
108.5756465057957
 30
0.0
 11
253.6318423588161
 21
108.5756465057956
 31
0.0
  0
LINE
  5
191B
  8
0
 10
250.63184235881641
 20
96.575646505795945
 30
0.0
 11
253.6318423588161
 21
96.575646505796044
 31
0.0
  0
LINE
  5
191C
  8
0
 10
221.6318423588163
 20
108.5756465057959
 30
0.0
 11
224.63184235881641
 21
108.5756465057959
 31
0.0
  0
LINE
  5
191D
  8
0
 10
221.6318423588163
 20
96.575646505795703
 30
0.0
 11
224.63184235881641
 21
96.575646505795817
 31
0.0
  0
LINE
  5
191E
  8
0
 10
232.63184235881641
 20
93.075646505795817
 30
0.0
 11
232.63184235881641
 21
112.0756465057956
 31
0.0
  0
LINE
  5
191F
  8
0
 10
232.6318423588161
 20
93.07564650579593
 30
0.0
 11
224.6318423588161
 21
93.075646505796044
 31
0.0
  0
LINE
  5
1920
  8
0
 10
232.6318423588161
 20
112.0756465057957
 30
0.0
 11
224.6318423588161
 21
112.0756465057956
 31
0.0
  0
LINE
  5
1921
  8
0
 10
219.6318423588159
 20
95.57564650579593
 30
0.0
 11
219.6318423588163
 21
109.5756465057959
 31
0.0
  0
LINE
  5
1922
  8
1
 10
237.6318423588163
 20
50.07564650579593
 30
0.0
 11
237.6318423588161
 21
155.07564650579599
 31
0.0
  0
LINE
  5
1923
  8
1
 10
245.78184235881619
 20
140.07564650579579
 30
0.0
 11
229.48184235881629
 21
140.07564650579579
 31
0.0
  0
LINE
  5
1924
  8
1
 10
244.78184235881631
 20
142.07564650579579
 30
0.0
 11
230.48184235881629
 21
142.07564650579579
 31
0.0
  0
LINE
  5
1925
  8
1
 10
244.78184235881631
 20
138.07564650579579
 30
0.0
 11
230.48184235881629
 21
138.07564650579579
 31
0.0
  0
LINE
  5
1926
  8
1
 10
244.78184235881631
 20
67.075646505796044
 30
0.0
 11
230.48184235881629
 21
67.075646505796044
 31
0.0
  0
LINE
  5
1927
  8
1
 10
244.78184235881631
 20
63.075646505796037
 30
0.0
 11
230.48184235881629
 21
63.075646505796037
 31
0.0
  0
LINE
  5
1928
  8
1
 10
245.78184235881619
 20
65.075646505796044
 30
0.0
 11
229.48184235881629
 21
65.075646505796044
 31
0.0
  0
LINE
  5
1929
  8
1
 10
265.23184235881598
 20
102.575646505796
 30
0.0
 11
214.6318423588161
 21
102.575646505796
 31
0.0
  0
LINE
  5
192A
  8
0
 10
221.6318423588163
 20
55.075646505796037
 30
0.0
 11
253.63184235881619
 21
55.075646505796037
 31
0.0
  0
LINE
  5
192B
  8
0
 10
221.6318423588163
 20
150.07564650579599
 30
0.0
 11
253.6318423588165
 21
150.07564650579599
 31
0.0
  0
LINE
  5
192C
  8
0
 10
221.6318423588163
 20
55.075646505796037
 30
0.0
 11
221.6318423588163
 21
150.07564650579599
 31
0.0
  0
LINE
  5
192D
  8
0
 10
253.6318423588165
 20
55.075646505796037
 30
0.0
 11
253.63184235881641
 21
150.07564650579599
 31
0.0
  0
LINE
  5
192E
  8
0
 10
250.6318423588165
 20
55.075646505796037
 30
0.0
 11
250.6318423588161
 21
150.07564650579599
 31
0.0
  0
LINE
  5
192F
  8
0
 10
224.6318423588165
 20
55.075646505796037
 30
0.0
 11
224.63184235881641
 21
150.07564650579599
 31
0.0
  0
ARC
  5
1930
  8
0
 10
237.6318423588163
 20
138.07564650579599
 30
0.0
 40
4.1500000000000004
 50
180.0
 51
0.0
  0
ARC
  5
1931
  8
0
 10
237.6318423588163
 20
142.07564650579599
 30
0.0
 40
4.1500000000000004
 50
0.0
 51
180.0
  0
LINE
  5
1932
  8
0
 10
241.78184235881619
 20
138.07564650579599
 30
0.0
 11
241.78184235881619
 21
142.07564650579599
 31
0.0
  0
LINE
  5
1933
  8
0
 10
233.48184235881629
 20
138.07564650579599
 30
0.0
 11
233.48184235881629
 21
142.07564650579599
 31
0.0
  0
LINE
  5
1934
  8
0
 10
233.48184235881629
 20
67.075646505796044
 30
0.0
 11
233.48184235881629
 21
63.075646505796037
 31
0.0
  0
LINE
  5
1935
  8
0
 10
241.78184235881619
 20
67.075646505796044
 30
0.0
 11
241.78184235881619
 21
63.075646505796037
 31
0.0
  0
ARC
  5
1936
  8
0
 10
237.6318423588163
 20
63.075646505796037
 30
0.0
 40
4.1500000000000004
 50
180.0
 51
0.0
  0
ARC
  5
1937
  8
0
 10
237.6318423588163
 20
67.075646505796044
 30
0.0
 40
4.1500000000000004
 50
0.0
 51
180.0
  0
ARC
  5
1938
  8
0
 10
107.6318423588162
 20
199.5756465057959
 30
0.0
 40
9.0
 50
38.942441268979827
 51
141.05755873102009
  0
LINE
  5
1939
  8
0
 10
114.6318423588162
 20
193.9187922563037
 30
0.0
 11
114.6318423588162
 21
205.2325007552883
 31
0.0
  0
LINE
  5
193A
  8
0
 10
100.6318423588162
 20
193.9187922563037
 30
0.0
 11
100.6318423588162
 21
205.2325007552883
 31
0.0
  0
ARC
  5
193B
  8
0
 10
107.6318423588162
 20
199.5756465057959
 30
0.0
 40
9.0
 50
218.94244126897991
 51
321.05755873102021
  0
ARC
  5
193C
  8
0
 10
107.6318423588162
 20
199.57564650579599
 30
0.0
 40
9.5000000000001563
 50
225.0
 51
315.0
  0
ARC
  5
193D
  8
0
 10
100.201212754991
 20
193.5592304643441
 30
0.0
 40
1.0
 50
225.46863362428419
 51
315.0
  0
LINE
  5
193E
  8
0
 10
101.26788132813709
 20
193.21168547511709
 30
0.0
 11
100.9083195361776
 21
192.8521236831576
 31
0.0
  0
ARC
  5
193F
  8
0
 10
115.0624719626412
 20
193.5592304643441
 30
0.0
 40
1.0
 50
225.0
 51
314.53136637571578
  0
LINE
  5
1940
  8
0
 10
113.99580338949509
 20
193.21168547511689
 30
0.0
 11
114.3553651814546
 21
192.8521236831576
 31
0.0
  0
LINE
  5
1941
  8
0
 10
155.1318423588161
 20
231.57564650579599
 30
0.0
 11
115.76377158837499
 21
192.84636383239561
 31
0.0
  0
LINE
  5
1942
  8
0
 10
60.131842358816129
 20
231.57564650579599
 30
0.0
 11
99.499913129257266
 21
192.84636383239561
 31
0.0
  0
LINE
  5
1943
  8
1
 10
122.1318423588164
 20
199.57564650579599
 30
0.0
 11
93.131842358816115
 21
199.57564650579599
 31
0.0
  0
LINE
  5
1944
  8
1
 10
107.6318423588162
 20
185.0756465057959
 30
0.0
 11
107.6318423588162
 21
244.5756465057959
 31
0.0
  0
LINE
  5
1945
  8
0
 10
155.13184235881619
 20
239.5756465057959
 30
0.0
 11
60.131842358816023
 21
239.5756465057959
 31
0.0
  0
LINE
  5
1946
  8
0
 10
60.131842358816471
 20
231.5756465057959
 30
0.0
 11
60.131842358816243
 21
239.5756465057961
 31
0.0
  0
LINE
  5
1947
  8
0
 10
155.13184235881619
 20
231.57564650579579
 30
0.0
 11
155.13184235881619
 21
239.5756465057959
 31
0.0
  0
LINE
  5
1948
  8
2
 10
155.13184235881619
 20
236.5756465057959
 30
0.0
 11
60.131842358816023
 21
236.5756465057959
 31
0.0
  0
LINE
  5
1949
  8
2
 10
253.6318423588161
 20
195.57564650579599
 30
0.0
 11
244.431842358816
 21
195.57564650579599
 31
0.0
  0
LINE
  5
194A
  8
2
 10
253.6318423588161
 20
203.57564650579599
 30
0.0
 11
244.43184235881611
 21
203.57564650579599
 31
0.0
  0
LINE
  5
194B
  8
2
 10
252.73184235881601
 20
202.8991465057961
 30
0.0
 11
253.6318423588161
 21
203.41876174806691
 31
0.0
  0
LINE
  5
194C
  8
2
 10
252.73184235881601
 20
196.25214650579579
 30
0.0
 11
253.6318423588161
 21
195.7325312635252
 31
0.0
  0
LINE
  5
194D
  8
2
 10
252.73184235881601
 20
195.57564650579599
 30
0.0
 11
252.73184235881601
 21
203.57564650579599
 31
0.0
  0
LINE
  5
194E
  8
2
 10
244.431842358816
 20
195.57564650579599
 30
0.0
 11
244.43184235881611
 21
203.57564650579599
 31
0.0
  0
LINE
  5
194F
  8
2
 10
243.23184235881601
 20
202.375646505796
 30
0.0
 11
244.43184235881611
 21
203.57564650579599
 31
0.0
  0
LINE
  5
1950
  8
2
 10
244.431842358816
 20
195.57564650579599
 30
0.0
 11
243.23184235881601
 21
196.77564650579609
 31
0.0
  0
LINE
  5
1951
  8
2
 10
252.73184235881601
 20
196.25214650579579
 30
0.0
 11
243.75534235881619
 21
196.25214650579591
 31
0.0
  0
LINE
  5
1952
  8
2
 10
252.73184235881601
 20
202.8991465057961
 30
0.0
 11
243.75534235881619
 21
202.8991465057961
 31
0.0
  0
LINE
  5
1953
  8
2
 10
243.23184235881601
 20
196.77564650579609
 30
0.0
 11
243.23184235881601
 21
202.375646505796
 31
0.0
  0
LINE
  5
1954
  8
2
 10
242.6318423588161
 20
193.5756465057959
 30
0.0
 11
253.6318423588161
 21
193.5756465057963
 31
0.0
  0
LINE
  5
1955
  8
2
 10
242.6318423588161
 20
205.5756465057957
 30
0.0
 11
253.6318423588161
 21
205.57564650579579
 31
0.0
  0
LINE
  5
1956
  8
0
 10
232.63184235881641
 20
193.5756465057961
 30
0.0
 11
242.6318423588161
 21
193.5756465057963
 31
0.0
  0
LINE
  5
1957
  8
0
 10
232.63184235881641
 20
205.57564650579599
 30
0.0
 11
242.6318423588161
 21
205.5756465057959
 31
0.0
  0
LINE
  5
1958
  8
0
 10
227.6318423588163
 20
236.57564650579599
 30
0.0
 11
247.6318423588159
 21
236.57564650579599
 31
0.0
  0
LINE
  5
1959
  8
0
 10
227.6318423588163
 20
239.5756465057961
 30
0.0
 11
247.6318423588159
 21
239.5756465057961
 31
0.0
  0
ARC
  5
195A
  8
0
 10
237.6318423588163
 20
362.5756465057961
 30
0.0
 40
4.1500000000000004
 50
180.0
 51
0.0
  0
ARC
  5
195B
  8
0
 10
237.6318423588163
 20
366.5756465057961
 30
0.0
 40
4.1500000000000004
 50
0.0
 51
180.0
  0
LINE
  5
195C
  8
0
 10
241.78184235881619
 20
362.5756465057961
 30
0.0
 11
241.78184235881619
 21
366.5756465057961
 31
0.0
  0
LINE
  5
195D
  8
0
 10
233.48184235881629
 20
362.5756465057961
 30
0.0
 11
233.48184235881629
 21
366.5756465057961
 31
0.0
  0
LINE
  5
195E
  8
0
 10
233.48184235881629
 20
291.5756465057961
 30
0.0
 11
233.48184235881629
 21
287.5756465057961
 31
0.0
  0
LINE
  5
195F
  8
0
 10
241.78184235881619
 20
291.5756465057961
 30
0.0
 11
241.78184235881619
 21
287.5756465057961
 31
0.0
  0
ARC
  5
1960
  8
0
 10
237.6318423588163
 20
287.5756465057961
 30
0.0
 40
4.1500000000000004
 50
180.0
 51
0.0
  0
ARC
  5
1961
  8
0
 10
237.6318423588163
 20
291.5756465057961
 30
0.0
 40
4.1500000000000004
 50
0.0
 51
180.0
  0
LINE
  5
1962
  8
2
 10
224.6318423588165
 20
374.5756465057961
 30
0.0
 11
224.63184235881641
 21
279.57564650579599
 31
0.0
  0
LINE
  5
1963
  8
2
 10
250.6318423588165
 20
374.5756465057961
 30
0.0
 11
250.6318423588161
 21
279.57564650579599
 31
0.0
  0
LINE
  5
1964
  8
0
 10
253.6318423588165
 20
374.5756465057961
 30
0.0
 11
253.63184235881641
 21
279.57564650579599
 31
0.0
  0
LINE
  5
1965
  8
0
 10
221.6318423588163
 20
374.5756465057961
 30
0.0
 11
221.6318423588163
 21
279.57564650579599
 31
0.0
  0
LINE
  5
1966
  8
0
 10
221.6318423588163
 20
279.57564650579599
 30
0.0
 11
253.6318423588165
 21
279.57564650579599
 31
0.0
  0
LINE
  5
1967
  8
0
 10
221.6318423588163
 20
374.5756465057961
 30
0.0
 11
253.63184235881619
 21
374.5756465057961
 31
0.0
  0
LINE
  5
1968
  8
2
 10
241.6318423588161
 20
195.57564650579599
 30
0.0
 11
240.460109987496
 21
196.25214650579599
 31
0.0
  0
LINE
  5
1969
  8
2
 10
241.6318423588161
 20
203.57564650579599
 30
0.0
 11
240.460109987496
 21
202.8991465057961
 31
0.0
  0
LINE
  5
196A
  8
2
 10
236.6318423588161
 20
196.25214650579591
 30
0.0
 11
236.6318423588161
 21
202.8991465057961
 31
0.0
  0
LINE
  5
196B
  8
2
 10
241.6318423588161
 20
195.57564650579599
 30
0.0
 11
241.6318423588161
 21
203.57564650579599
 31
0.0
  0
LINE
  5
196C
  8
2
 10
236.6318423588161
 20
196.25214650579579
 30
0.0
 11
234.634882091478
 21
199.57564650579599
 31
0.0
  0
LINE
  5
196D
  8
2
 10
236.6318423588161
 20
202.89914650579621
 30
0.0
 11
234.634882091478
 21
199.57564650579599
 31
0.0
  0
LINE
  5
196E
  8
2
 10
244.43184235881591
 20
203.57564650579579
 30
0.0
 11
241.6318423588161
 21
203.57564650579599
 31
0.0
  0
LINE
  5
196F
  8
2
 10
243.75534235881619
 20
202.8991465057961
 30
0.0
 11
236.6318423588161
 21
202.8991465057961
 31
0.0
  0
LINE
  5
1970
  8
2
 10
243.75534235881611
 20
196.25214650579591
 30
0.0
 11
236.6318423588161
 21
196.25214650579591
 31
0.0
  0
LINE
  5
1971
  8
2
 10
244.43184235881611
 20
195.57564650579579
 30
0.0
 11
241.6318423588161
 21
195.57564650579599
 31
0.0
  0
LINE
  5
1972
  8
0
 10
365.1318423588163
 20
198.1322708328222
 30
0.0
 11
367.63184235881641
 21
196.6888951598481
 31
0.0
  0
LINE
  5
1973
  8
0
 10
367.63184235881641
 20
196.6888951598481
 30
0.0
 11
370.13184235881607
 21
198.1322708328222
 31
0.0
  0
LINE
  5
1974
  8
0
 10
370.13184235881607
 20
198.1322708328222
 30
0.0
 11
370.13184235881607
 21
201.0190221787708
 31
0.0
  0
LINE
  5
1975
  8
0
 10
370.13184235881607
 20
201.0190221787708
 30
0.0
 11
367.63184235881607
 21
202.4623978517443
 31
0.0
  0
LINE
  5
1976
  8
0
 10
367.63184235881607
 20
202.4623978517443
 30
0.0
 11
365.1318423588159
 21
201.01902217876989
 31
0.0
  0
LINE
  5
1977
  8
0
 10
365.1318423588159
 20
201.01902217876989
 30
0.0
 11
365.1318423588163
 21
198.1322708328222
 31
0.0
  0
CIRCLE
  5
1978
  8
0
 10
367.63184235881607
 20
199.57564650579599
 30
0.0
 40
7.0
  0
CIRCLE
  5
1979
  8
0
 10
367.63184235881607
 20
199.57564650579599
 30
0.0
 40
3.1012440039571478
  0
CIRCLE
  5
197A
  8
0
 10
367.63184235881607
 20
199.57564650579599
 30
0.0
 40
8.5
  0
LINE
  5
197B
  8
2
 10
320.13184235881607
 20
236.5756465057959
 30
0.0
 11
415.1318423588163
 21
236.5756465057959
 31
0.0
  0
LINE
  5
197C
  8
0
 10
320.13184235881607
 20
231.57564650579579
 30
0.0
 11
320.13184235881607
 21
239.5756465057959
 31
0.0
  0
LINE
  5
197D
  8
0
 10
415.1318423588159
 20
231.5756465057959
 30
0.0
 11
415.13184235881607
 21
239.5756465057961
 31
0.0
  0
LINE
  5
197E
  8
0
 10
320.13184235881607
 20
239.5756465057959
 30
0.0
 11
415.1318423588163
 21
239.5756465057959
 31
0.0
  0
ARC
  5
197F
  8
0
 10
227.6318423588163
 20
233.57564650579599
 30
0.0
 40
6.0
 50
90.0
 51
180.0
  0
ARC
  5
1980
  8
0
 10
247.6318423588159
 20
233.57564650579599
 30
0.0
 40
6.0
 50
0.0
 51
90.0
  0
ARC
  5
1981
  8
0
 10
227.6318423588163
 20
233.57564650579599
 30
0.0
 40
3.0
 50
90.0
 51
180.0
  0
ARC
  5
1982
  8
0
 10
247.6318423588159
 20
233.57564650579599
 30
0.0
 40
3.0
 50
0.0
 51
90.0
  0
LINE
  5
1983
  8
0
 10
219.6318423588159
 20
190.57564650579599
 30
0.0
 11
219.6318423588163
 21
208.5756465057959
 31
0.0
  0
LINE
  5
1984
  8
0
 10
221.6318423588161
 20
190.57564650579599
 30
0.0
 11
219.6318423588161
 21
190.57564650579599
 31
0.0
  0
LINE
  5
1985
  8
0
 10
221.6318423588161
 20
208.57564650579599
 30
0.0
 11
219.6318423588163
 21
208.5756465057959
 31
0.0
  0
LINE
  5
1986
  8
0
 10
224.63184235881599
 20
190.07564650579559
 30
0.0
 11
224.63184235881641
 21
233.57564650579599
 31
0.0
  0
LINE
  5
1987
  8
0
 10
250.6318423588163
 20
190.07564650579641
 30
0.0
 11
250.6318423588159
 21
233.57564650579599
 31
0.0
  0
LINE
  5
1988
  8
0
 10
255.2318423588161
 20
191.0756465057955
 30
0.0
 11
255.2318423588161
 21
208.0756465057965
 31
0.0
  0
LINE
  5
1989
  8
0
 10
253.6318423588161
 20
191.0756465057955
 30
0.0
 11
253.6318423588161
 21
208.0756465057965
 31
0.0
  0
LINE
  5
198A
  8
0
 10
255.2318423588161
 20
191.0756465057955
 30
0.0
 11
253.6318423588161
 21
191.0756465057955
 31
0.0
  0
LINE
  5
198B
  8
0
 10
255.2318423588161
 20
208.0756465057965
 30
0.0
 11
253.6318423588161
 21
208.0756465057965
 31
0.0
  0
LINE
  5
198C
  8
0
 10
221.6318423588159
 20
190.57564650579599
 30
0.0
 11
221.6318423588161
 21
233.57564650579599
 31
0.0
  0
LINE
  5
198D
  8
0
 10
253.6318423588161
 20
192.5592304643441
 30
0.0
 11
253.6318423588161
 21
233.57564650579599
 31
0.0
  0
LINE
  5
198E
  8
2
 10
221.6318423588159
 20
193.57564650579599
 30
0.0
 11
232.63184235881641
 21
193.57564650579599
 31
0.0
  0
LINE
  5
198F
  8
2
 10
221.6318423588161
 20
205.57564650579619
 30
0.0
 11
232.63184235881641
 21
205.57564650579619
 31
0.0
  0
LINE
  5
1990
  8
0
 10
232.6318423588161
 20
209.0756465057959
 30
0.0
 11
224.6318423588161
 21
209.07564650579579
 31
0.0
  0
LINE
  5
1991
  8
0
 10
232.6318423588161
 20
190.0756465057961
 30
0.0
 11
224.6318423588161
 21
190.07564650579619
 31
0.0
  0
LINE
  5
1992
  8
0
 10
242.6318423588161
 20
190.0756465057961
 30
0.0
 11
250.6318423588161
 21
190.07564650579641
 31
0.0
  0
LINE
  5
1993
  8
0
 10
242.6318423588161
 20
209.0756465057959
 30
0.0
 11
250.6318423588159
 21
209.0756465057957
 31
0.0
  0
LINE
  5
1994
  8
0
 10
256.03184235881702
 20
206.57564650579599
 30
0.0
 11
255.2318423588161
 21
206.57564650579599
 31
0.0
  0
ARC
  5
1995
  8
0
 10
254.54538064058281
 20
200.7626927333817
 30
0.0
 40
6.0
 50
18.604452655161619
 51
75.655968701785085
  0
ARC
  5
1996
  8
0
 10
254.54538064058281
 20
198.3886002782103
 30
0.0
 40
6.0
 50
284.34403129821487
 51
341.39554734483841
  0
LINE
  5
1997
  8
0
 10
260.23184235881598
 20
202.6768905097542
 30
0.0
 11
260.23184235881598
 21
196.47440250183899
 31
0.0
  0
LINE
  5
1998
  8
0
 10
256.03184235881599
 20
206.5756465057965
 30
0.0
 11
256.03184235881599
 21
192.5756465057959
 31
0.0
  0
LINE
  5
1999
  8
0
 10
256.03184235881702
 20
192.57564650579599
 30
0.0
 11
255.2318423588161
 21
192.57564650579599
 31
0.0
  0
LINE
  5
199A
  8
0
 10
255.2318423588161
 20
206.57564650579599
 30
0.0
 11
255.2318423588161
 21
192.57564650579599
 31
0.0
  0
LINE
  5
199B
  8
1
 10
367.63184235881607
 20
185.0756465057959
 30
0.0
 11
367.63184235881607
 21
244.5756465057959
 31
0.0
  0
LINE
  5
199C
  8
1
 10
353.13184235881602
 20
199.57564650579599
 30
0.0
 11
382.1318423588163
 21
199.57564650579599
 31
0.0
  0
LINE
  5
199D
  8
1
 10
237.6318423588161
 20
185.07564650579599
 30
0.0
 11
237.6318423588161
 21
244.57564650579599
 31
0.0
  0
LINE
  5
199E
  8
1
 10
214.6318423588161
 20
199.5756465057959
 30
0.0
 11
265.23184235881598
 21
199.57564650579661
 31
0.0
  0
LINE
  5
199F
  8
1
 10
265.23184235881581
 20
327.0756465057961
 30
0.0
 11
214.6318423588159
 21
327.0756465057961
 31
0.0
  0
LINE
  5
19A0
  8
1
 10
245.78184235881619
 20
364.5756465057961
 30
0.0
 11
229.48184235881629
 21
364.5756465057961
 31
0.0
  0
LINE
  5
19A1
  8
1
 10
244.78184235881631
 20
366.5756465057961
 30
0.0
 11
230.48184235881629
 21
366.5756465057961
 31
0.0
  0
LINE
  5
19A2
  8
1
 10
244.78184235881631
 20
362.5756465057961
 30
0.0
 11
230.48184235881629
 21
362.5756465057961
 31
0.0
  0
LINE
  5
19A3
  8
1
 10
244.78184235881631
 20
291.57564650579633
 30
0.0
 11
230.48184235881629
 21
291.57564650579633
 31
0.0
  0
LINE
  5
19A4
  8
1
 10
244.78184235881631
 20
287.57564650579633
 30
0.0
 11
230.48184235881629
 21
287.57564650579633
 31
0.0
  0
LINE
  5
19A5
  8
1
 10
245.78184235881619
 20
289.57564650579633
 30
0.0
 11
229.48184235881629
 21
289.57564650579633
 31
0.0
  0
LINE
  5
19A6
  8
1
 10
237.6318423588163
 20
379.57564650579621
 30
0.0
 11
237.6318423588161
 21
274.5756465057961
 31
0.0
  0
LINE
  5
19A7
  8
0
 10
232.63184235881641
 20
190.07564650579599
 30
0.0
 11
232.63184235881641
 21
209.07564650579579
 31
0.0
  0
LINE
  5
19A8
  8
0
 10
242.6318423588161
 20
190.07564650579599
 30
0.0
 11
242.6318423588161
 21
209.07564650579599
 31
0.0
  0
LINE
  5
19A9
  8
0
 10
219.6318423588161
 20
205.2325007552883
 30
0.0
 11
221.6318423588159
 21
205.2325007552883
 31
0.0
  0
LINE
  5
19AA
  8
0
 10
219.6318423588159
 20
193.9187922563035
 30
0.0
 11
221.6318423588159
 21
193.9187922563035
 31
0.0
  0
LINE
  5
19AB
  8
3
 10
221.6318423588159
 20
205.2325007552883
 30
0.0
 11
219.6318423588159
 21
193.9187922563035
 31
0.0
  0
LINE
  5
19AC
  8
3
 10
221.6318423588159
 20
193.9187922563035
 30
0.0
 11
219.6318423588161
 21
205.2325007552883
 31
0.0
  0
LINE
  5
19AD
  8
0
 10
415.13184235881619
 20
231.57564650579599
 30
0.0
 11
375.76377158837511
 21
192.84636383239561
 31
0.0
  0
LINE
  5
19AE
  8
0
 10
320.13184235881619
 20
231.57564650579599
 30
0.0
 11
359.49991312925738
 21
192.84636383239561
 31
0.0
  0
LINE
  5
19AF
  8
0
 10
361.62143471873048
 20
193.5652388657104
 30
0.0
 11
360.90831953617771
 21
192.8521236831576
 31
0.0
  0
ARC
  5
19B0
  8
0
 10
360.20121275499122
 20
193.5592304643441
 30
0.0
 40
1.0
 50
225.46863362428419
 51
315.0
  0
LINE
  5
19B1
  8
0
 10
373.64224999890189
 20
193.56523886571051
 30
0.0
 11
374.35536518145477
 21
192.8521236831576
 31
0.0
  0
ARC
  5
19B2
  8
0
 10
375.06247196264133
 20
193.5592304643441
 30
0.0
 40
1.0
 50
225.0
 51
314.53136637571578
  0
LINE
  5
19B3
  8
0
 10
221.6318423588161
 20
205.57564650579619
 30
0.0
 11
224.6318423588161
 21
205.57564650579619
 31
0.0
  0
LINE
  5
19B4
  8
0
 10
250.6318423588161
 20
192.5592304643443
 30
0.0
 11
253.6318423588161
 21
192.5592304643441
 31
0.0
  0
LINE
  5
19B5
  8
0
 10
221.6318423588159
 20
192.5592304643443
 30
0.0
 11
224.6318423588161
 21
192.5592304643441
 31
0.0
  0
LINE
  5
19B6
  8
0
 10
253.6318423588161
 20
231.57564650579661
 30
0.0
 11
250.6318423588159
 21
231.57564650579661
 31
0.0
  0
LINE
  5
19B7
  8
0
 10
224.63184235881641
 20
231.5756465057967
 30
0.0
 11
221.6318423588161
 21
231.5756465057967
 31
0.0
  0
ARC
  5
19B8
  8
0
 10
367.63184235881607
 20
199.57564650579599
 30
0.0
 40
9.5000000000001563
 50
225.0
 51
315.0
  0
TEXT
  5
1BE2
  8
0
 62
     3
 10
0.0
 20
0.0
 30
0.0
 40
10.0
  1
GRL60BL-SUS
  7
STANDARD1
  0
ENDSEC
  0
EOF
