  0
SECTION
  2
HEADER
  9
$ACADVER
  1
AC1009
  9
$INSBASE
 10
0.0
 20
0.0
 30
0.0
  9
$EXTMIN
 10
0.0
 20
-2.960436562073669
 30
0.0
  9
$EXTMAX
 10
145.99999961900039
 20
89.999999956061203
 30
0.0
  9
$LIMMIN
 10
0.0
 20
0.0
  9
$LIMMAX
 10
750.0
 20
540.0
  9
$ORTHOMODE
 70
     1
  9
$REGENMODE
 70
     1
  9
$FILLMODE
 70
     1
  9
$QTEXTMODE
 70
     0
  9
$MIRRTEXT
 70
     0
  9
$DRAGMODE
 70
     2
  9
$LTSCALE
 40
10.0
  9
$OSMODE
 70
  3071
  9
$ATTMODE
 70
     1
  9
$TEXTSIZE
 40
0.2
  9
$TRACEWID
 40
0.05
  9
$TEXTSTYLE
  7
STANDARD
  9
$CLAYER
  8
0
  9
$CELTYPE
  6
BYLAYER
  9
$CECOLOR
 62
   256
  9
$DIMSCALE
 40
1.0
  9
$DIMASZ
 40
3.0
  9
$DIMEXO
 40
2.0
  9
$DIMDLI
 40
0.38
  9
$DIMRND
 40
0.0
  9
$DIMDLE
 40
0.0
  9
$DIMEXE
 40
2.0
  9
$DIMTP
 40
0.0
  9
$DIMTM
 40
0.0
  9
$DIMTXT
 40
3.2000000000000002
  9
$DIMCEN
 40
0.0
  9
$DIMTSZ
 40
0.0
  9
$DIMTOL
 70
     0
  9
$DIMLIM
 70
     0
  9
$DIMTIH
 70
     0
  9
$DIMTOH
 70
     0
  9
$DIMSE1
 70
     0
  9
$DIMSE2
 70
     0
  9
$DIMTAD
 70
     1
  9
$DIMZIN
 70
     0
  9
$DIMBLK
  1

  9
$DIMASO
 70
     0
  9
$DIMSHO
 70
     0
  9
$DIMPOST
  1

  9
$DIMAPOST
  1

  9
$DIMALT
 70
     0
  9
$DIMALTD
 70
     2
  9
$DIMALTF
 40
25.399999999999999
  9
$DIMLFAC
 40
1.0
  9
$DIMTOFL
 70
     0
  9
$DIMTVP
 40
1.6000000000000001
  9
$DIMTIX
 70
     1
  9
$DIMSOXD
 70
     0
  9
$DIMSAH
 70
     0
  9
$DIMBLK1
  1

  9
$DIMBLK2
  1

  9
$DIMSTYLE
  2
STANDARD
  9
$DIMCLRD
 70
     0
  9
$DIMCLRE
 70
     0
  9
$DIMCLRT
 70
     0
  9
$DIMTFAC
 40
1.0
  9
$DIMGAP
 40
0.09
  9
$LUNITS
 70
     2
  9
$LUPREC
 70
     4
  9
$SKETCHINC
 40
0.1
  9
$FILLETRAD
 40
0.0
  9
$AUNITS
 70
     0
  9
$AUPREC
 70
     4
  9
$MENU
  1
E:\r13\win\SUPPORT\ACAD
  9
$ELEVATION
 40
0.0
  9
$PELEVATION
 40
0.0
  9
$THICKNESS
 40
0.0
  9
$LIMCHECK
 70
     0
  9
$BLIPMODE
 70
     0
  9
$CHAMFERA
 40
0.0
  9
$CHAMFERB
 40
0.0
  9
$SKPOLY
 70
     0
  9
$TDCREATE
 40
2449840.6227546302
  9
$TDUPDATE
 40
2456602.6140986462
  9
$TDINDWG
 40
0.0274720139
  9
$TDUSRTIMER
 40
2456598.4320392129
  9
$USRTIMER
 70
     1
  9
$ANGBASE
 50
0.0
  9
$ANGDIR
 70
     0
  9
$PDMODE
 70
     0
  9
$PDSIZE
 40
0.0
  9
$PLINEWID
 40
0.0
  9
$COORDS
 70
     1
  9
$SPLFRAME
 70
     0
  9
$SPLINETYPE
 70
     6
  9
$SPLINESEGS
 70
     8
  9
$ATTDIA
 70
     0
  9
$ATTREQ
 70
     1
  9
$HANDLING
 70
     1
  9
$HANDSEED
  5
613
  9
$SURFTAB1
 70
     6
  9
$SURFTAB2
 70
     6
  9
$SURFTYPE
 70
     6
  9
$SURFU
 70
     6
  9
$SURFV
 70
     6
  9
$UCSNAME
  2

  9
$UCSORG
 10
0.0
 20
0.0
 30
0.0
  9
$UCSXDIR
 10
1.0
 20
0.0
 30
0.0
  9
$UCSYDIR
 10
0.0
 20
1.0
 30
0.0
  9
$PUCSNAME
  2

  9
$PUCSORG
 10
0.0
 20
0.0
 30
0.0
  9
$PUCSXDIR
 10
1.0
 20
0.0
 30
0.0
  9
$PUCSYDIR
 10
0.0
 20
1.0
 30
0.0
  9
$USERI1
 70
     0
  9
$USERI2
 70
     1
  9
$USERI3
 70
     0
  9
$USERI4
 70
     0
  9
$USERI5
 70
     0
  9
$USERR1
 40
0.0
  9
$USERR2
 40
0.0
  9
$USERR3
 40
0.0
  9
$USERR4
 40
0.0
  9
$USERR5
 40
0.0
  9
$WORLDVIEW
 70
     1
  9
$SHADEDGE
 70
     3
  9
$SHADEDIF
 70
    70
  9
$TILEMODE
 70
     1
  9
$MAXACTVP
 70
    16
  9
$PLIMCHECK
 70
     0
  9
$PEXTMIN
 10
1.0000000000000000E+020
 20
1.0000000000000000E+020
 30
1.0000000000000000E+020
  9
$PEXTMAX
 10
-1.0000000000000000E+020
 20
-1.0000000000000000E+020
 30
-1.0000000000000000E+020
  9
$PLIMMIN
 10
0.0
 20
0.0
  9
$PLIMMAX
 10
12.0
 20
9.0
  9
$UNITMODE
 70
     0
  9
$VISRETAIN
 70
     0
  9
$PLINEGEN
 70
     0
  9
$PSLTSCALE
 70
     0
  0
ENDSEC
  0
SECTION
  2
TABLES
  0
TABLE
  2
VPORT
 70
     1
  0
VPORT
  2
*ACTIVE
 70
     0
 10
0.0
 20
0.0
 11
1.0
 21
1.0
 12
312.53498635185611
 22
124.9845912692678
 13
0.0
 23
0.0
 14
20.0
 24
20.0
 15
20.0
 25
20.0
 16
0.0
 26
0.0
 36
1.0
 17
0.0
 27
0.0
 37
0.0
 40
440.53264946914379
 41
1.831871345029239
 42
50.0
 43
0.0
 44
0.0
 50
0.0
 51
0.0
 71
    16
 72
   100
 73
     1
 74
     0
 75
     0
 76
     0
 77
     0
 78
     2
  0
ENDTAB
  0
TABLE
  2
LTYPE
 70
     7
  0
LTYPE
  2
CONTINUOUS
 70
     0
  3
Solid Line
 72
    65
 73
     0
 40
0.0
  0
LTYPE
  2
CENTER
 70
     0
  3
____ _ ____ _ ____ _ ____ _ ____ _ ____ _ ____
 72
    65
 73
     4
 40
2.0
 49
1.25
 49
-0.25
 49
0.25
 49
-0.25
  0
LTYPE
  2
HIDDEN
 70
     0
  3
_ _ _ _ _ _ _ _ _ _ _ _ _ _ _ _ _ _ _ _ _ _ _
 72
    65
 73
     2
 40
0.375
 49
0.25
 49
-0.125
  0
LTYPE
  2
PHANTOM2
 70
     0
  3
___ _ _ ___ _ _ ___ _ _ ___ _ _
 72
    65
 73
     6
 40
1.25
 49
0.625
 49
-0.125
 49
0.125
 49
-0.125
 49
0.125
 49
-0.125
  0
LTYPE
  2
CNS_SOLID
 70
     0
  3

 72
    65
 73
     0
 40
0.0
  0
LTYPE
  2
CNS_DASHED
 70
     0
  3

 72
    65
 73
     2
 40
2.0
 49
1.0
 49
-1.0
  0
LTYPE
  2
CNS_CENTER
 70
     0
  3

 72
    65
 73
     4
 40
2.0
 49
0.45
 49
-0.5
 49
0.05
 49
-0.5
  0
ENDTAB
  0
TABLE
  2
LAYER
 70
     4
  0
LAYER
  2
0
 70
     0
 62
     7
  6
CONTINUOUS
  0
LAYER
  2
1
 70
     0
 62
     1
  6
CENTER
  0
LAYER
  2
2
 70
     0
 62
     2
  6
HIDDEN
  0
LAYER
  2
3
 70
     0
 62
     3
  6
CONTINUOUS
  0
ENDTAB
  0
TABLE
  2
STYLE
 70
     2
  0
STYLE
  2
STANDARD
 70
     0
 40
0.0
 41
1.0
 50
0.0
 71
     0
 42
0.2
  3
TXT
  4
BIGFONT
  0
STYLE
  2
STANDARD1
 70
     0
 40
0.0
 41
1.0
 50
0.0
 71
     0
 42
3.0
  3
txt
  4

  0
ENDTAB
  0
TABLE
  2
VIEW
 70
     1
  0
VIEW
  2
ALL
 70
     0
 40
540.0
 10
441.98319299999991
 20
270.0
 41
0.0
 11
0.0
 21
0.0
 31
1.0
 12
0.0
 22
0.0
 32
0.0
 42
0.0
 43
0.0
 44
0.0
 50
0.0
 71
     0
  0
ENDTAB
  0
TABLE
  2
UCS
 70
     0
  0
ENDTAB
  0
TABLE
  2
APPID
 70
     7
  0
APPID
  2
ACAD
 70
     0
  0
APPID
  2
ACAD_NAV_VCDISPLAY
 70
     0
  0
APPID
  2
ACAD_EXEMPT_FROM_CAD_STANDARDS
 70
     0
  0
APPID
  2
ACAD_DSTYLE_DIMJAG
 70
     0
  0
APPID
  2
ACAD_DSTYLE_DIMTALN
 70
     0
  0
APPID
  2
ACAD_MLEADERVER
 70
     0
  0
APPID
  2
ACAD_DSTYLE_DIMRADIAL_EXTENSION
 70
     0
  0
ENDTAB
  0
TABLE
  2
DIMSTYLE
 70
     2
  0
DIMSTYLE
  2
STANDARD
 70
     0
  3

  4

  5

  6

  7

 40
1.0
 41
0.18
 42
0.0625
 43
0.38
 44
0.18
 45
0.0
 46
0.0
 47
0.0
 48
0.0
140
0.18
141
0.09
142
0.0
143
25.399999999999999
144
1.0
145
0.0
146
1.0
147
0.09
 71
     0
 72
     0
 73
     1
 74
     1
 75
     0
 76
     0
 77
     0
 78
     0
170
     0
171
     2
172
     0
173
     0
174
     0
175
     0
176
     0
177
     0
178
     0
  0
DIMSTYLE
  2
ISO-25
 70
     0
  3

  4

  5

  6

  7

 40
1.0
 41
2.5
 42
0.625
 43
3.75
 44
1.25
 45
0.0
 46
0.0
 47
0.0
 48
0.0
140
2.5
141
2.5
142
0.0
143
0.03937007874016
144
1.0
145
0.0
146
1.0
147
0.625
 71
     0
 72
     0
 73
     0
 74
     0
 75
     0
 76
     0
 77
     1
 78
     8
170
     0
171
     3
172
     1
173
     0
174
     0
175
     0
176
     0
177
     0
178
     0
  0
ENDTAB
  0
ENDSEC
  0
SECTION
  2
BLOCKS
  0
BLOCK
  8
0
  2
$MODEL_SPACE
 70
     0
 10
0.0
 20
0.0
 30
0.0
  3
$MODEL_SPACE
  1

  0
ENDBLK
  5
11D
  8
0
  0
BLOCK
 67
     1
  8
0
  2
$PAPER_SPACE
 70
     0
 10
0.0
 20
0.0
 30
0.0
  3
$PAPER_SPACE
  1

  0
ENDBLK
  5
11B
 67
     1
  8
0
  0
ENDSEC
  0
SECTION
  2
ENTITIES
  0
CIRCLE
  5
39A
  8
0
 10
71.925707428302871
 20
53.999999956061551
 30
0.0
 40
0.9999999999996589
  0
LINE
  5
39B
  8
0
 10
72.595858249428616
 20
63.747579507533523
 30
0.0
 11
72.990454704899605
 21
63.864981717596223
 31
0.0
  0
ARC
  5
39C
  8
0
 10
71.925707428302871
 20
65.999999956060876
 30
0.0
 40
2.349999999999937
 50
148.31884080848371
 51
286.5690441745611
  0
ARC
  5
39D
  8
0
 10
67.926083303033664
 20
68.46840163661409
 30
0.0
 40
2.3499999999993801
 50
328.3188408084722
 51
49.722216901792713
  0
ARC
  5
39E
  8
0
 10
60.749999902122823
 20
59.999999956061188
 30
0.0
 40
13.45000000000023
 50
49.722216901775191
 51
310.27778365161117
  0
ARC
  5
39F
  8
0
 10
67.92608330303355
 20
51.531598275508337
 30
0.0
 40
2.3499999999994841
 50
310.277786265457
 51
31.681159191526859
  0
ARC
  5
3A0
  8
0
 10
72.420113580538583
 20
54.218064621311413
 30
0.0
 40
1.999999999999603
 50
27.60264127371137
 51
73.430955825475692
  0
ARC
  5
3A1
  8
0
 10
72.420113580538583
 20
65.781935290811035
 30
0.0
 40
1.999999999999607
 50
286.56904417452517
 51
332.39735872628961
  0
CIRCLE
  5
3A2
  8
0
 10
71.925707428302871
 20
65.999999956060876
 30
0.0
 40
1.0000000000003411
  0
ARC
  5
3A3
  8
0
 10
71.925707428302871
 20
53.999999956061551
 30
0.0
 40
2.349999999999937
 50
73.430955825438971
 51
211.68115919151731
  0
LINE
  5
3A4
  8
0
 10
72.990454704899605
 20
56.135018194526211
 30
0.0
 11
72.595858249428616
 21
56.252420404588918
 31
0.0
  0
CIRCLE
  5
3A5
  8
0
 10
59.999999902122482
 20
59.99999995606121
 30
0.0
 40
5.0
  0
CIRCLE
  5
3A6
  8
0
 10
59.999999902122482
 20
59.99999995606121
 30
0.0
 40
25.0
  0
CIRCLE
  5
3A7
  8
0
 10
59.999999902122482
 20
59.99999995606121
 30
0.0
 40
15.0
  0
ARC
  5
3A8
  8
2
 10
72.420113580538583
 20
54.218064621311413
 30
0.0
 40
1.999999999999615
 50
335.03661006241589
 51
27.602641273711551
  0
ARC
  5
3A9
  8
2
 10
72.420113580538583
 20
65.781935290811035
 30
0.0
 40
1.999999999999609
 50
332.39735872628961
 51
24.963389937584289
  0
CIRCLE
  5
3AA
  8
2
 10
59.999999902122482
 20
59.99999995606121
 30
0.0
 40
15.69999999999999
  0
CIRCLE
  5
3AB
  8
2
 10
59.999999902122482
 20
59.99999995606121
 30
0.0
 40
17.50000000000006
  0
LINE
  5
3AC
  8
2
 10
122.10000006007471
 20
73.429072641600925
 30
0.0
 11
123.299999884241
 21
73.429072641600925
 31
0.0
  0
LINE
  5
3AD
  8
2
 10
123.299999884241
 20
46.570927270521487
 30
0.0
 11
122.10000006007471
 21
46.570927270521487
 31
0.0
  0
LINE
  5
3AE
  8
2
 10
122.10000006007471
 20
44.300000549127432
 30
0.0
 11
122.10000006007471
 21
75.699999362994987
 31
0.0
  0
ARC
  5
3AF
  8
2
 10
137.09999989869539
 20
54.399999956061137
 30
0.0
 40
0.600000000000108
 50
0.0000000000081422
 51
89.999999999989143
  0
ARC
  5
3B0
  8
2
 10
137.09999989869539
 20
65.599999956061311
 30
0.0
 40
0.600000000000108
 50
270.0000000000108
 51
359.99999999999193
  0
ARC
  5
3B1
  8
2
 10
123.9449998986954
 20
65.599999956061083
 30
0.0
 40
0.5999999999998807
 50
179.99999999999449
 51
270.00000000001347
  0
LINE
  5
3B2
  8
2
 10
125.2949995522436
 20
68.500000417997228
 30
0.0
 11
123.3449999940626
 21
68.500000417997214
 31
0.0
  0
LINE
  5
3B3
  8
2
 10
137.69999991657659
 20
68.500000417997214
 30
0.0
 11
135.75000024514739
 21
68.500000417997214
 31
0.0
  0
LINE
  5
3B4
  8
2
 10
123.94499897482321
 20
64.999999844302494
 30
0.0
 11
137.10000000449341
 21
64.999999844302494
 31
0.0
  0
ARC
  5
3B5
  8
2
 10
123.9449998986954
 20
54.39999995606135
 30
0.0
 40
0.5999999999998807
 50
89.999999999989143
 51
180.00000000000739
  0
LINE
  5
3B6
  8
2
 10
137.10000000449341
 20
55.000000067819919
 30
0.0
 11
123.94499897482321
 21
55.000000067819919
 31
0.0
  0
CIRCLE
  5
3B7
  8
2
 10
133.74999989869559
 20
49.999999956061231
 30
0.0
 40
2.5
  0
CIRCLE
  5
3B8
  8
2
 10
133.74999989869559
 20
69.999999956061217
 30
0.0
 40
2.5
  0
ARC
  5
3B9
  8
2
 10
137.39999989869531
 20
45.299999956061079
 30
0.0
 40
0.2999999999998977
 50
270.00000000005417
 51
0.0000000000135704
  0
LINE
  5
3BA
  8
2
 10
123.299999884241
 20
45.000000291337336
 30
0.0
 11
137.39999996053501
 21
45.000000291337336
 31
0.0
  0
ARC
  5
3BB
  8
2
 10
123.6449998986955
 20
45.29999995606115
 30
0.0
 40
0.2999999999999545
 50
179.99999999998909
 51
270.0000000000108
  0
LINE
  5
3BC
  8
2
 10
123.3449999940626
 20
74.700239163558535
 30
0.0
 11
123.3449999940626
 21
45.299999781717631
 31
0.0
  0
ARC
  5
3BD
  8
2
 10
123.6449998986955
 20
74.699999956061276
 30
0.0
 40
0.2999999999999545
 50
89.999999999989143
 51
180.0000000000108
  0
LINE
  5
3BE
  8
2
 10
137.39999996053501
 20
74.999999620785076
 30
0.0
 11
123.299999884241
 21
74.999999620785076
 31
0.0
  0
ARC
  5
3BF
  8
2
 10
137.39999989869531
 20
74.699999956061362
 30
0.0
 40
0.2999999999998977
 50
359.99999999998641
 51
89.999999999945729
  0
LINE
  5
3C0
  8
2
 10
129.2949998819318
 20
71.499999978412944
 30
0.0
 11
131.74999991545931
 21
71.499999978412944
 31
0.0
  0
CIRCLE
  5
3C1
  8
2
 10
127.29499989869549
 20
69.999999956061217
 30
0.0
 40
2.5
  0
CIRCLE
  5
3C2
  8
2
 10
127.29499989869549
 20
49.999999956061231
 30
0.0
 40
2.5
  0
LINE
  5
3C3
  8
0
 10
139.0049995620779
 20
34.999999583532187
 30
0.0
 11
140.99999961900039
 21
34.999999583532187
 31
0.0
  0
LINE
  5
3C4
  8
0
 10
131.49499965357111
 20
41.30163732247528
 30
0.0
 11
139.0049995620779
 21
34.999999583532187
 31
0.0
  0
LINE
  5
3C5
  8
0
 10
131.49499965357111
 20
78.698362589647132
 30
0.0
 11
131.49499965357111
 21
41.30163732247528
 31
0.0
  0
LINE
  5
3C6
  8
0
 10
129.49499932574551
 20
42.499999881555411
 30
0.0
 11
131.49499965357111
 21
42.499999881555411
 31
0.0
  0
LINE
  5
3C7
  8
0
 10
129.49499932574551
 20
41.293247968723151
 30
0.0
 11
129.49499932574551
 21
78.706751943399297
 31
0.0
  0
LINE
  5
3C8
  8
0
 10
121.9949990277223
 20
34.999999583532187
 30
0.0
 11
129.49499932574551
 21
41.293247968723151
 31
0.0
  0
LINE
  5
3C9
  8
0
 10
119.9999999021224
 20
34.999999583532187
 30
0.0
 11
121.9949990277223
 21
34.999999583532187
 31
0.0
  0
LINE
  5
3CA
  8
0
 10
119.9999999021224
 20
34.999999583532187
 30
0.0
 11
119.9999999021224
 21
85.000000328590289
 31
0.0
  0
LINE
  5
3CB
  8
2
 10
121.0000000660352
 20
45.000000291337336
 30
0.0
 11
119.9999999021224
 21
44.422650144268843
 31
0.0
  0
LINE
  5
3CC
  8
2
 10
121.949999383562
 20
45.000000291337336
 30
0.0
 11
121.0000000660352
 21
45.000000291337336
 31
0.0
  0
LINE
  5
3CD
  8
2
 10
121.949999383562
 20
44.300000549127432
 30
0.0
 11
121.949999383562
 21
75.699999362994987
 31
0.0
  0
LINE
  5
3CE
  8
2
 10
123.299999884241
 20
44.300000549127432
 30
0.0
 11
121.949999383562
 21
44.300000549127432
 31
0.0
  0
LINE
  5
3CF
  8
2
 10
123.299999884241
 20
75.699999362994987
 30
0.0
 11
123.299999884241
 21
44.300000549127432
 31
0.0
  0
LINE
  5
3D0
  8
2
 10
140.99999961900039
 20
47.999999851753088
 30
0.0
 11
137.69999991657659
 21
47.999999851753088
 31
0.0
  0
LINE
  5
3D1
  8
0
 10
140.99999961900039
 20
34.999999583532187
 30
0.0
 11
140.99999961900039
 21
85.000000328590247
 31
0.0
  0
LINE
  5
3D2
  8
0
 10
140.99999961900039
 20
85.000000328590247
 30
0.0
 11
139.0049995620779
 21
85.000000328590247
 31
0.0
  0
LINE
  5
3D3
  8
2
 10
137.69999991657659
 20
72.000000060369331
 30
0.0
 11
140.99999961900039
 21
72.000000060369331
 31
0.0
  0
LINE
  5
3D4
  8
2
 10
121.949999383562
 20
75.699999362994987
 30
0.0
 11
123.299999884241
 21
75.699999362994987
 31
0.0
  0
LINE
  5
3D5
  8
2
 10
121.0000000660352
 20
74.999999620785076
 30
0.0
 11
121.949999383562
 21
74.999999620785076
 31
0.0
  0
LINE
  5
3D6
  8
2
 10
119.9999999021224
 20
75.577349767853576
 30
0.0
 11
121.0000000660352
 21
74.999999620785076
 31
0.0
  0
LINE
  5
3D7
  8
0
 10
121.9949990277223
 20
85.000000328590247
 30
0.0
 11
119.9999999021224
 21
85.000000328590247
 31
0.0
  0
LINE
  5
3D8
  8
0
 10
129.49499932574551
 20
78.706751943399269
 30
0.0
 11
121.9949990277223
 21
85.000000328590247
 31
0.0
  0
LINE
  5
3D9
  8
0
 10
131.49499965357111
 20
77.500000030567008
 30
0.0
 11
129.49499932574551
 21
77.500000030567008
 31
0.0
  0
LINE
  5
3DA
  8
0
 10
139.0049995620779
 20
85.000000328590247
 30
0.0
 11
131.49499965357111
 21
78.698362589647132
 31
0.0
  0
LINE
  5
3DB
  8
2
 10
121.0000000660352
 20
45.000000291337336
 30
0.0
 11
121.0000000660352
 21
74.999999620785076
 31
0.0
  0
LINE
  5
3DC
  8
1
 10
145.99999961900039
 20
59.99999995606121
 30
0.0
 11
114.9999999021225
 21
59.99999995606121
 31
0.0
  0
LINE
  5
3DD
  8
1
 10
29.999999902122479
 20
59.99999995606121
 30
0.0
 11
89.999999902122482
 21
59.99999995606121
 31
0.0
  0
LINE
  5
3DE
  8
1
 10
59.999999902122482
 20
89.999999956061203
 30
0.0
 11
59.999999902122482
 21
29.99999995606122
 31
0.0
  0
LINE
  5
3DF
  8
2
 10
137.69999989869521
 20
74.699999956061305
 30
0.0
 11
137.69999989869521
 21
45.29999995606115
 31
0.0
  0
LINE
  5
3E0
  8
0
 10
121.9949990277223
 20
85.000000328590247
 30
0.0
 11
121.9949990277223
 21
34.999999583532187
 31
0.0
  0
LINE
  5
3E1
  8
0
 10
139.0049995620779
 20
85.000000328590247
 30
0.0
 11
139.0049995620779
 21
34.999999583532187
 31
0.0
  0
LINE
  5
3E2
  8
2
 10
127.29499989869549
 20
67.499999956061217
 30
0.0
 11
133.74999989869559
 21
67.499999956061217
 31
0.0
  0
LINE
  5
3E3
  8
2
 10
125.2949995522436
 20
51.499999494125213
 30
0.0
 11
123.3449999940626
 21
51.49999949412522
 31
0.0
  0
LINE
  5
3E4
  8
2
 10
137.69999991657659
 20
51.49999949412522
 30
0.0
 11
135.75000024514739
 21
51.49999949412522
 31
0.0
  0
LINE
  5
3E5
  8
2
 10
129.2949998819318
 20
48.499999933709489
 30
0.0
 11
131.74999991545931
 21
48.499999933709489
 31
0.0
  0
LINE
  5
3E6
  8
2
 10
127.29499989869549
 20
52.49999995606121
 30
0.0
 11
133.74999989869559
 21
52.49999995606121
 31
0.0
  0
LINE
  5
3E7
  8
2
 10
126.1075648341475
 20
72.199999494125194
 30
0.0
 11
123.3449999940626
 21
72.199999494125223
 31
0.0
  0
LINE
  5
3E8
  8
2
 10
137.69999991657659
 20
72.199999494125223
 30
0.0
 11
134.93743496324359
 21
72.199999494125223
 31
0.0
  0
LINE
  5
3E9
  8
2
 10
126.1075648341475
 20
47.800000417997232
 30
0.0
 11
123.3449999940626
 21
47.800000417997211
 31
0.0
  0
LINE
  5
3EA
  8
2
 10
137.69999991657659
 20
47.800000417997211
 30
0.0
 11
134.93743496324359
 21
47.800000417997197
 31
0.0
  0
TEXT
  5
5A9
  8
0
 62
     3
 10
0.0
 20
0.0
 30
0.0
 40
10.0
  1
GRL50SWA-Y
  7
STANDARD1
  0
ENDSEC
  0
EOF
