  0
SECTION
  2
HEADER
  9
$ACADVER
  1
AC1009
  9
$INSBASE
 10
0.0
 20
0.0
 30
0.0
  9
$EXTMIN
 10
0.0
 20
-2.960436562073669
 30
0.0
  9
$EXTMAX
 10
159.2227432595428
 20
107.82376074997229
 30
0.0
  9
$LIMMIN
 10
0.0
 20
0.0
  9
$LIMMAX
 10
270.0
 20
175.0
  9
$ORTHOMODE
 70
     1
  9
$REGENMODE
 70
     1
  9
$FILLMODE
 70
     1
  9
$QTEXTMODE
 70
     0
  9
$MIRRTEXT
 70
     0
  9
$DRAGMODE
 70
     2
  9
$LTSCALE
 40
10.0
  9
$OSMODE
 70
  3071
  9
$ATTMODE
 70
     1
  9
$TEXTSIZE
 40
0.2
  9
$TRACEWID
 40
0.05
  9
$TEXTSTYLE
  7
STANDARD
  9
$CLAYER
  8
0
  9
$CELTYPE
  6
BYLAYER
  9
$CECOLOR
 62
   256
  9
$DIMSCALE
 40
1.0
  9
$DIMASZ
 40
3.0
  9
$DIMEXO
 40
2.0
  9
$DIMDLI
 40
0.3799999999999999
  9
$DIMRND
 40
0.0
  9
$DIMDLE
 40
0.0
  9
$DIMEXE
 40
2.0
  9
$DIMTP
 40
0.0
  9
$DIMTM
 40
0.0
  9
$DIMTXT
 40
3.2000000000000002
  9
$DIMCEN
 40
0.09
  9
$DIMTSZ
 40
0.0
  9
$DIMTOL
 70
     0
  9
$DIMLIM
 70
     0
  9
$DIMTIH
 70
     0
  9
$DIMTOH
 70
     0
  9
$DIMSE1
 70
     0
  9
$DIMSE2
 70
     0
  9
$DIMTAD
 70
     1
  9
$DIMZIN
 70
     0
  9
$DIMBLK
  1

  9
$DIMASO
 70
     0
  9
$DIMSHO
 70
     0
  9
$DIMPOST
  1

  9
$DIMAPOST
  1

  9
$DIMALT
 70
     0
  9
$DIMALTD
 70
     2
  9
$DIMALTF
 40
25.399999999999999
  9
$DIMLFAC
 40
1.0
  9
$DIMTOFL
 70
     0
  9
$DIMTVP
 40
1.6000000000000001
  9
$DIMTIX
 70
     1
  9
$DIMSOXD
 70
     0
  9
$DIMSAH
 70
     0
  9
$DIMBLK1
  1

  9
$DIMBLK2
  1

  9
$DIMSTYLE
  2
STANDARD
  9
$DIMCLRD
 70
     0
  9
$DIMCLRE
 70
     0
  9
$DIMCLRT
 70
     0
  9
$DIMTFAC
 40
1.0
  9
$DIMGAP
 40
0.09
  9
$LUNITS
 70
     2
  9
$LUPREC
 70
     4
  9
$SKETCHINC
 40
0.1
  9
$FILLETRAD
 40
0.0
  9
$AUNITS
 70
     0
  9
$AUPREC
 70
     0
  9
$MENU
  1
ACAD
  9
$ELEVATION
 40
0.0
  9
$PELEVATION
 40
0.0
  9
$THICKNESS
 40
0.0
  9
$LIMCHECK
 70
     0
  9
$BLIPMODE
 70
     0
  9
$CHAMFERA
 40
0.0
  9
$CHAMFERB
 40
0.0
  9
$SKPOLY
 70
     0
  9
$TDCREATE
 40
2448280.4733540509
  9
$TDUPDATE
 40
2456598.6898908452
  9
$TDINDWG
 40
0.0065248264
  9
$TDUSRTIMER
 40
0.0065248264
  9
$USRTIMER
 70
     1
  9
$ANGBASE
 50
0.0
  9
$ANGDIR
 70
     0
  9
$PDMODE
 70
     0
  9
$PDSIZE
 40
0.0
  9
$PLINEWID
 40
0.0
  9
$COORDS
 70
     1
  9
$SPLFRAME
 70
     0
  9
$SPLINETYPE
 70
     6
  9
$SPLINESEGS
 70
     8
  9
$ATTDIA
 70
     0
  9
$ATTREQ
 70
     1
  9
$HANDLING
 70
     1
  9
$HANDSEED
  5
1F3
  9
$SURFTAB1
 70
     6
  9
$SURFTAB2
 70
     6
  9
$SURFTYPE
 70
     6
  9
$SURFU
 70
     6
  9
$SURFV
 70
     6
  9
$UCSNAME
  2

  9
$UCSORG
 10
0.0
 20
0.0
 30
0.0
  9
$UCSXDIR
 10
1.0
 20
0.0
 30
0.0
  9
$UCSYDIR
 10
0.0
 20
1.0
 30
0.0
  9
$PUCSNAME
  2

  9
$PUCSORG
 10
0.0
 20
0.0
 30
0.0
  9
$PUCSXDIR
 10
1.0
 20
0.0
 30
0.0
  9
$PUCSYDIR
 10
0.0
 20
1.0
 30
0.0
  9
$USERI1
 70
     0
  9
$USERI2
 70
     1
  9
$USERI3
 70
     0
  9
$USERI4
 70
     0
  9
$USERI5
 70
     0
  9
$USERR1
 40
0.0
  9
$USERR2
 40
0.0
  9
$USERR3
 40
0.0
  9
$USERR4
 40
0.0
  9
$USERR5
 40
0.0
  9
$WORLDVIEW
 70
     1
  9
$SHADEDGE
 70
     3
  9
$SHADEDIF
 70
    70
  9
$TILEMODE
 70
     1
  9
$MAXACTVP
 70
    16
  9
$PLIMCHECK
 70
     0
  9
$PEXTMIN
 10
1.0000000000000000E+020
 20
1.0000000000000000E+020
 30
1.0000000000000000E+020
  9
$PEXTMAX
 10
-1.0000000000000000E+020
 20
-1.0000000000000000E+020
 30
-1.0000000000000000E+020
  9
$PLIMMIN
 10
0.0
 20
0.0
  9
$PLIMMAX
 10
12.0
 20
9.0
  9
$UNITMODE
 70
     0
  9
$VISRETAIN
 70
     0
  9
$PLINEGEN
 70
     1
  9
$PSLTSCALE
 70
     0
  0
ENDSEC
  0
SECTION
  2
TABLES
  0
TABLE
  2
VPORT
 70
     1
  0
VPORT
  2
*ACTIVE
 70
     0
 10
0.0
 20
0.0
 11
1.0
 21
1.0
 12
134.99588044126969
 22
86.400589071664527
 13
0.0
 23
0.0
 14
10.0
 24
10.0
 15
10.0
 25
10.0
 16
0.0
 26
0.0
 36
1.0
 17
0.0
 27
0.0
 37
0.0
 40
180.7855228654438
 41
2.304913294797688
 42
50.0
 43
0.0
 44
0.0
 50
0.0
 51
0.0
 71
     0
 72
   500
 73
     1
 74
     0
 75
     0
 76
     0
 77
     0
 78
     1
  0
ENDTAB
  0
TABLE
  2
LTYPE
 70
     4
  0
LTYPE
  2
CONTINUOUS
 70
     0
  3
Solid Line
 72
    65
 73
     0
 40
0.0
  0
LTYPE
  2
CENTER
 70
     0
  3
____ _ ____ _ ____ _ ____ _ ____ _ ____ _ ____
 72
    65
 73
     4
 40
2.0
 49
1.25
 49
-0.25
 49
0.25
 49
-0.25
  0
LTYPE
  2
HIDDEN
 70
     0
  3
_ _ _ _ _ _ _ _ _ _ _ _ _ _ _ _ _ _ _ _ _ _ _
 72
    65
 73
     2
 40
0.375
 49
0.25
 49
-0.125
  0
LTYPE
  2
PHANTOM2
 70
     0
  3
___ _ _ ___ _ _ ___ _ _ ___ _ _
 72
    65
 73
     6
 40
1.25
 49
0.625
 49
-0.125
 49
0.125
 49
-0.125
 49
0.125
 49
-0.125
  0
ENDTAB
  0
TABLE
  2
LAYER
 70
     3
  0
LAYER
  2
0
 70
     0
 62
     7
  6
CONTINUOUS
  0
LAYER
  2
1
 70
     0
 62
     1
  6
CENTER
  0
LAYER
  2
2
 70
     0
 62
     2
  6
HIDDEN
  0
ENDTAB
  0
TABLE
  2
STYLE
 70
     2
  0
STYLE
  2
STANDARD
 70
     0
 40
0.0
 41
1.0
 50
0.0
 71
     0
 42
0.2
  3
TXT
  4
BIGFONT
  0
STYLE
  2
STANDARD1
 70
     0
 40
0.0
 41
1.0
 50
0.0
 71
     0
 42
3.0
  3
txt
  4

  0
ENDTAB
  0
TABLE
  2
VIEW
 70
     0
  0
ENDTAB
  0
TABLE
  2
UCS
 70
     0
  0
ENDTAB
  0
TABLE
  2
APPID
 70
     3
  0
APPID
  2
ACAD
 70
     0
  0
APPID
  2
ACAD_MLEADERVER
 70
     0
  0
APPID
  2
ACAD_NAV_VCDISPLAY
 70
     0
  0
ENDTAB
  0
TABLE
  2
DIMSTYLE
 70
     1
  0
DIMSTYLE
  2
STANDARD
 70
     0
  3

  4

  5

  6

  7

 40
1.0
 41
0.18
 42
0.0625
 43
0.38
 44
0.18
 45
0.0
 46
0.0
 47
0.0
 48
0.0
140
0.18
141
0.09
142
0.0
143
25.399999999999999
144
1.0
145
0.0
146
1.0
147
0.09
 71
     0
 72
     0
 73
     1
 74
     1
 75
     0
 76
     0
 77
     0
 78
     0
170
     0
171
     2
172
     0
173
     0
174
     0
175
     0
176
     0
177
     0
178
     0
  0
ENDTAB
  0
ENDSEC
  0
SECTION
  2
BLOCKS
  0
BLOCK
  8
0
  2
$MODEL_SPACE
 70
     0
 10
0.0
 20
0.0
 30
0.0
  3
$MODEL_SPACE
  1

  0
ENDBLK
  5
9
  8
0
  0
BLOCK
 67
     1
  8
0
  2
$PAPER_SPACE
 70
     0
 10
0.0
 20
0.0
 30
0.0
  3
$PAPER_SPACE
  1

  0
ENDBLK
  5
E
 67
     1
  8
0
  0
ENDSEC
  0
SECTION
  2
ENTITIES
  0
LINE
  5
26
  8
0
 10
152.82639911874421
 20
102.82376074997219
 30
0.0
 11
152.82639911874421
 21
52.823760749972337
 31
0.0
  0
LINE
  5
27
  8
0
 10
148.20757081684471
 20
94.823715459645342
 30
0.0
 11
148.20757081684471
 21
60.823806040299253
 31
0.0
  0
LINE
  5
28
  8
0
 10
136.2379157022412
 20
60.823806040299253
 30
0.0
 11
136.2379157022412
 21
94.823715459645342
 31
0.0
  0
LINE
  5
29
  8
0
 10
131.6190874003417
 20
102.82376074997219
 30
0.0
 11
131.6190874003417
 21
52.823760749972337
 31
0.0
  0
LINE
  5
2A
  8
0
 10
152.82639911874421
 20
102.82376074997219
 30
0.0
 11
154.22274325954311
 21
102.82376074997219
 31
0.0
1001
ACAD
1000
ASC_BOUNDS
1002
{
1070
    19
1002
}
  0
LINE
  5
2B
  8
0
 10
148.20757081684471
 20
94.823715459645342
 30
0.0
 11
152.82639911874421
 21
102.82376074997219
 31
0.0
1001
ACAD
1000
ASC_BOUNDS
1002
{
1070
    19
1002
}
  0
LINE
  5
2C
  8
0
 10
130.22274325954339
 20
102.82376074997219
 30
0.0
 11
131.6190874003417
 21
102.82376074997219
 31
0.0
1001
ACAD
1000
ASC_BOUNDS
1002
{
1070
    19
1002
}
  0
LINE
  5
2D
  8
0
 10
136.2379157022412
 20
94.823715459645342
 30
0.0
 11
131.6190874003417
 21
102.82376074997219
 31
0.0
1001
ACAD
1000
ASC_BOUNDS
1002
{
1070
    19
1002
}
  0
LINE
  5
2E
  8
0
 10
136.2379157022412
 20
94.82376074997228
 30
0.0
 11
148.20757081684471
 21
94.82376074997228
 31
0.0
1001
ACAD
1000
ASC_BOUNDS
1002
{
1070
    19
1002
}
  0
LINE
  5
2F
  8
2
 10
147.95479406711189
 20
87.82376074997245
 30
0.0
 11
150.22274325954291
 21
87.82376074997245
 31
0.0
  0
ARC
  5
32
  8
2
 10
150.02274325954281
 20
90.623760749972462
 30
0.0
 40
0.2
 50
360.0
 51
90.0
1001
ACAD
1000
ASC_BOUNDS
1002
{
1070
    19
1002
}
  0
ARC
  5
33
  8
2
 10
149.9227432595429
 20
90.523760749972411
 30
0.0
 40
0.3
 50
0.0
 51
89.999999999999801
  0
LINE
  5
34
  8
2
 10
147.95479406711189
 20
85.823760749972422
 30
0.0
 11
150.22274325954291
 21
85.823760749972422
 31
0.0
  0
ARC
  5
35
  8
2
 10
149.8227432595429
 20
83.223760749972357
 30
0.0
 40
0.4000000000000001
 50
270.0
 51
0.0
  0
CIRCLE
  5
36
  8
2
 10
146.22274325954291
 20
86.823760749972493
 30
0.0
 40
2.0
  0
LINE
  5
37
  8
2
 10
154.22274325954271
 20
88.823760749972365
 30
0.0
 11
150.22274325954291
 21
88.823760749972394
 31
0.0
1001
ACAD
1000
ASC_BOUNDS
1002
{
1070
    19
1002
}
  0
ARC
  5
38
  8
2
 10
149.8227432595429
 20
72.423760749972232
 30
0.0
 40
0.4000000000000001
 50
0.0
 51
90.000000000000028
  0
LINE
  5
39
  8
2
 10
150.22274325954291
 20
90.623760749972462
 30
0.0
 11
150.22274325954291
 21
80.823760749972337
 31
0.0
1001
ACAD
1000
ASC_BOUNDS
1002
{
1070
    19
1002
}
  0
ARC
  5
3A
  8
2
 10
142.52274325954281
 20
90.523760749972411
 30
0.0
 40
0.3
 50
89.999999999999801
 51
180.0
1001
ACAD
1000
ASC_BOUNDS
1002
{
1070
    19
1002
}
  0
LINE
  5
3B
  8
2
 10
139.95479406711181
 20
87.82376074997245
 30
0.0
 11
142.2227432595428
 21
87.82376074997245
 31
0.0
  0
ARC
  5
3C
  8
2
 10
141.92274325954281
 20
90.523760749972411
 30
0.0
 40
0.3
 50
0.0
 51
89.999999999999801
  0
ARC
  5
3D
  8
2
 10
142.02274325954269
 20
90.623760749972462
 30
0.0
 40
0.2
 50
360.0
 51
90.0
1001
ACAD
1000
ASC_BOUNDS
1002
{
1070
    19
1002
}
  0
ARC
  5
3E
  8
2
 10
142.52274325954281
 20
83.123760749972462
 30
0.0
 40
0.3
 50
180.0
 51
270.0
  0
ARC
  5
3F
  8
2
 10
141.92274325954281
 20
83.123760749972462
 30
0.0
 40
0.3
 50
270.0
 51
0.0
  0
LINE
  5
40
  8
2
 10
139.95479406711181
 20
85.823760749972422
 30
0.0
 11
142.2227432595428
 21
85.823760749972422
 31
0.0
  0
LINE
  5
41
  8
2
 10
142.2227432595428
 20
90.623760749972462
 30
0.0
 11
142.2227432595428
 21
83.049534000039046
 31
0.0
1001
ACAD
1000
ASC_BOUNDS
1002
{
1070
    19
1002
}
  0
LINE
  5
42
  8
2
 10
133.02274325954269
 20
89.195655930635951
 30
0.0
 11
134.22274325954271
 21
89.195655930635951
 31
0.0
  0
ARC
  5
43
  8
2
 10
134.52274325954269
 20
90.523760749972411
 30
0.0
 40
0.3
 50
89.999999999999801
 51
180.0
  0
LINE
  5
44
  8
2
 10
134.22274325954271
 20
91.423760749972445
 30
0.0
 11
132.8727432595428
 21
91.423760749972445
 31
0.0
1001
ACAD
1000
ASC_BOUNDS
1002
{
1070
    19
1002
}
  0
LINE
  5
45
  8
2
 10
131.22274325954299
 20
90.823760749972436
 30
0.0
 11
130.2227432595428
 21
91.201111019161957
 31
0.0
1001
ACAD
1000
ASC_BOUNDS
1002
{
1070
    19
1002
}
  0
LINE
  5
46
  8
2
 10
131.22274325954311
 20
90.823760749972436
 30
0.0
 11
132.8727432595428
 21
90.823760749972422
 31
0.0
1001
ACAD
1000
ASC_BOUNDS
1002
{
1070
    19
1002
}
  0
ARC
  5
47
  8
2
 10
134.52274325954269
 20
83.123760749972462
 30
0.0
 40
0.3
 50
180.0
 51
270.0
  0
CIRCLE
  5
48
  8
2
 10
138.2227432595428
 20
86.823760749972493
 30
0.0
 40
2.0
  0
LINE
  5
49
  8
2
 10
134.52274325954269
 20
82.82376074997245
 30
0.0
 11
141.92274325954281
 21
82.82376074997245
 31
0.0
  0
LINE
  5
4A
  8
2
 10
134.22274325954271
 20
85.823760749972422
 30
0.0
 11
136.49069245197381
 21
85.823760749972422
 31
0.0
  0
LINE
  5
4B
  8
2
 10
134.22274325954271
 20
90.823760749972422
 30
0.0
 11
142.02274325954269
 21
90.823760749972422
 31
0.0
1001
ACAD
1000
ASC_BOUNDS
1002
{
1070
    19
1002
}
  0
LINE
  5
4C
  8
2
 10
134.22274325954271
 20
87.82376074997245
 30
0.0
 11
136.49069245197381
 21
87.82376074997245
 31
0.0
  0
ARC
  5
4D
  8
2
 10
142.52274325954281
 20
72.523760749972425
 30
0.0
 40
0.3
 50
90.0
 51
180.0
  0
ARC
  5
4E
  8
2
 10
141.92274325954281
 20
72.523760749972425
 30
0.0
 40
0.3
 50
0.0
 51
90.0
  0
ARC
  5
4F
  8
2
 10
134.52274325954269
 20
72.523760749972425
 30
0.0
 40
0.3
 50
90.0
 51
180.0
  0
LINE
  5
50
  8
2
 10
134.52274325954269
 20
72.82376074997245
 30
0.0
 11
141.92274325954281
 21
72.82376074997245
 31
0.0
  0
LINE
  5
51
  8
2
 10
134.22274325954271
 20
91.423760749972445
 30
0.0
 11
134.22274325954271
 21
80.823760749972337
 31
0.0
1001
ACAD
1000
ASC_BOUNDS
1002
{
1070
    19
1002
}
  0
LINE
  5
52
  8
2
 10
142.2227432595428
 20
90.823760749972422
 30
0.0
 11
150.02274325954281
 21
90.823760749972422
 31
0.0
1001
ACAD
1000
ASC_BOUNDS
1002
{
1070
    19
1002
}
  0
LINE
  5
53
  8
2
 10
142.52274325954281
 20
82.82376074997245
 30
0.0
 11
149.8227432595429
 21
82.82376074997245
 31
0.0
  0
LINE
  5
54
  8
2
 10
142.52274325954281
 20
72.82376074997245
 30
0.0
 11
149.8227432595429
 21
72.82376074997245
 31
0.0
  0
LINE
  5
55
  8
2
 10
142.2227432595428
 20
85.823760749972422
 30
0.0
 11
144.4906924519739
 21
85.823760749972422
 31
0.0
  0
LINE
  5
56
  8
2
 10
142.2227432595428
 20
87.82376074997245
 30
0.0
 11
144.4906924519739
 21
87.82376074997245
 31
0.0
  0
LINE
  5
57
  8
2
 10
147.95479406711189
 20
67.82376074997245
 30
0.0
 11
150.22274325954291
 21
67.82376074997245
 31
0.0
  0
LINE
  5
58
  8
2
 10
147.95479406711189
 20
69.823760749972465
 30
0.0
 11
150.22274325954291
 21
69.823760749972465
 31
0.0
  0
CIRCLE
  5
59
  8
2
 10
146.22274325954291
 20
68.823760749972394
 30
0.0
 40
2.0
  0
ARC
  5
5A
  8
2
 10
150.02274325954281
 20
65.023760749972425
 30
0.0
 40
0.2
 50
270.0
 51
360.0
1001
ACAD
1000
ASC_BOUNDS
1002
{
1070
    19
1002
}
  0
ARC
  5
5B
  8
2
 10
149.9227432595429
 20
65.12376074997249
 30
0.0
 40
0.3
 50
270.00000000000023
 51
0.0
  0
LINE
  5
5C
  8
2
 10
154.22274325954299
 20
66.823760749972493
 30
0.0
 11
150.22274325954291
 21
66.823760749972493
 31
0.0
1001
ACAD
1000
ASC_BOUNDS
1002
{
1070
    19
1002
}
  0
LINE
  5
5D
  8
0
 10
152.82639911874421
 20
52.823760749972337
 30
0.0
 11
154.22274325954311
 21
52.823760749972337
 31
0.0
1001
ACAD
1000
ASC_BOUNDS
1002
{
1070
    19
1002
}
  0
LINE
  5
5E
  8
0
 10
148.20757081684471
 20
60.823806040299253
 30
0.0
 11
152.82639911874421
 21
52.823760749972337
 31
0.0
1001
ACAD
1000
ASC_BOUNDS
1002
{
1070
    19
1002
}
  0
LINE
  5
5F
  8
2
 10
139.95479406711181
 20
69.823760749972465
 30
0.0
 11
142.2227432595428
 21
69.823760749972465
 31
0.0
  0
LINE
  5
60
  8
2
 10
139.95479406711181
 20
67.82376074997245
 30
0.0
 11
142.2227432595428
 21
67.82376074997245
 31
0.0
  0
ARC
  5
61
  8
2
 10
142.52274325954281
 20
65.12376074997249
 30
0.0
 40
0.3
 50
180.0
 51
270.00000000000023
1001
ACAD
1000
ASC_BOUNDS
1002
{
1070
    19
1002
}
  0
ARC
  5
62
  8
2
 10
141.92274325954281
 20
65.12376074997249
 30
0.0
 40
0.3
 50
270.00000000000023
 51
0.0
  0
ARC
  5
63
  8
2
 10
142.02274325954269
 20
65.023760749972425
 30
0.0
 40
0.2
 50
270.0
 51
360.0
1001
ACAD
1000
ASC_BOUNDS
1002
{
1070
    19
1002
}
  0
LINE
  5
64
  8
2
 10
133.02274325954269
 20
66.451865569308936
 30
0.0
 11
134.22274325954271
 21
66.451865569308936
 31
0.0
  0
LINE
  5
65
  8
2
 10
134.22274325954271
 20
64.223760749972456
 30
0.0
 11
132.8727432595428
 21
64.223760749972456
 31
0.0
1001
ACAD
1000
ASC_BOUNDS
1002
{
1070
    19
1002
}
  0
ARC
  5
66
  8
2
 10
134.52274325954269
 20
65.12376074997249
 30
0.0
 40
0.3
 50
180.0
 51
270.00000000000023
  0
LINE
  5
67
  8
2
 10
131.22274325954299
 20
64.823760749972493
 30
0.0
 11
130.2227432595428
 21
64.24641048078287
 31
0.0
1001
ACAD
1000
ASC_BOUNDS
1002
{
1070
    19
1002
}
  0
LINE
  5
68
  8
2
 10
131.22274325954299
 20
64.823760749972465
 30
0.0
 11
132.8727432595428
 21
64.823760749972465
 31
0.0
1001
ACAD
1000
ASC_BOUNDS
1002
{
1070
    19
1002
}
  0
CIRCLE
  5
69
  8
2
 10
138.2227432595428
 20
68.823760749972394
 30
0.0
 40
2.0
  0
LINE
  5
6A
  8
2
 10
134.22274325954271
 20
64.823760749972465
 30
0.0
 11
142.02274325954269
 21
64.823760749972465
 31
0.0
1001
ACAD
1000
ASC_BOUNDS
1002
{
1070
    19
1002
}
  0
LINE
  5
6B
  8
2
 10
134.22274325954271
 20
67.82376074997245
 30
0.0
 11
136.49069245197381
 21
67.82376074997245
 31
0.0
  0
LINE
  5
6C
  8
2
 10
134.22274325954271
 20
69.823760749972465
 30
0.0
 11
136.49069245197381
 21
69.823760749972465
 31
0.0
  0
LINE
  5
6D
  8
0
 10
130.22274325954339
 20
52.823760749972337
 30
0.0
 11
131.6190874003417
 21
52.823760749972337
 31
0.0
1001
ACAD
1000
ASC_BOUNDS
1002
{
1070
    19
1002
}
  0
LINE
  5
6E
  8
0
 10
136.2379157022412
 20
60.823806040299253
 30
0.0
 11
131.6190874003417
 21
52.823760749972337
 31
0.0
1001
ACAD
1000
ASC_BOUNDS
1002
{
1070
    19
1002
}
  0
LINE
  5
6F
  8
2
 10
142.2227432595428
 20
64.823760749972465
 30
0.0
 11
150.02274325954281
 21
64.823760749972465
 31
0.0
1001
ACAD
1000
ASC_BOUNDS
1002
{
1070
    19
1002
}
  0
LINE
  5
70
  8
2
 10
142.2227432595428
 20
69.823760749972465
 30
0.0
 11
144.4906924519739
 21
69.823760749972465
 31
0.0
  0
LINE
  5
71
  8
2
 10
142.2227432595428
 20
67.82376074997245
 30
0.0
 11
144.4906924519739
 21
67.82376074997245
 31
0.0
  0
LINE
  5
73
  8
2
 10
131.22274325954299
 20
64.823760749972493
 30
0.0
 11
131.22274325954299
 21
90.82376074997245
 31
0.0
  0
LINE
  5
74
  8
2
 10
132.8727432595428
 20
91.423760749972445
 30
0.0
 11
132.8727432595428
 21
64.223760749972456
 31
0.0
1001
ACAD
1000
ASC_BOUNDS
1002
{
1070
    19
1002
}
  0
LINE
  5
75
  8
2
 10
133.02274325954269
 20
91.423760749972416
 30
0.0
 11
133.02274325954269
 21
64.223760749972456
 31
0.0
  0
LINE
  5
76
  8
2
 10
134.22274325954271
 20
74.823760749972351
 30
0.0
 11
134.22274325954271
 21
64.223760749972456
 31
0.0
1001
ACAD
1000
ASC_BOUNDS
1002
{
1070
    19
1002
}
  0
LINE
  5
77
  8
2
 10
150.22274325954291
 20
74.823760749972351
 30
0.0
 11
150.22274325954291
 21
65.023760749972425
 31
0.0
1001
ACAD
1000
ASC_BOUNDS
1002
{
1070
    19
1002
}
  0
LINE
  5
78
  8
2
 10
142.2227432595428
 20
83.123760749972462
 30
0.0
 11
142.2227432595428
 21
65.023760749972425
 31
0.0
1001
ACAD
1000
ASC_BOUNDS
1002
{
1070
    19
1002
}
  0
LINE
  5
79
  8
2
 10
150.22274325954299
 20
87.323760749972308
 30
0.0
 11
150.22274325954299
 21
68.323760749972266
 31
0.0
  0
LINE
  5
7A
  8
2
 10
134.22274325954271
 20
85.523760749972254
 30
0.0
 11
134.22274325954271
 21
70.123760749972334
 31
0.0
  0
LINE
  5
7B
  8
0
 10
130.2227432595426
 20
102.82376074997219
 30
0.0
 11
130.22274325954339
 21
52.823760749972337
 31
0.0
1001
ACAD
1000
ASC_BOUNDS
1002
{
1070
    19
1002
}
  0
LINE
  5
7C
  8
0
 10
154.2227432595426
 20
102.82376074997219
 30
0.0
 11
154.22274325954311
 21
52.823760749972337
 31
0.0
1001
ACAD
1000
ASC_BOUNDS
1002
{
1070
    19
1002
}
  0
LINE
  5
7D
  8
1
 10
125.22274325954299
 20
77.823760749972294
 30
0.0
 11
159.2227432595428
 21
77.82376074997228
 31
0.0
  0
LINE
  5
80
  8
0
 10
58.243081315540557
 20
84.055705868381835
 30
0.0
 11
59.210514902924501
 21
84.73311015898534
 31
0.0
  0
LINE
  5
81
  8
2
 10
61.899977058315812
 20
81.188408336305173
 30
0.0
 11
62.479532554089317
 21
81.343699763366743
 31
0.0
  0
LINE
  5
82
  8
0
 10
59.837787960159559
 20
80.635846432813906
 30
0.0
 11
61.899977058315812
 21
81.188408336305173
 31
0.0
  0
LINE
  5
83
  8
2
 10
61.899977058315812
 20
74.459113163639643
 30
0.0
 11
62.479532554089239
 21
74.303821736578215
 31
0.0
  0
LINE
  5
84
  8
0
 10
59.837787960159559
 20
75.011675067130909
 30
0.0
 11
61.899977058315812
 21
74.459113163639643
 31
0.0
  0
CIRCLE
  5
85
  8
0
 10
59.040434637850019
 20
73.301745349346874
 30
0.0
 40
1.25
  0
ARC
  5
86
  8
0
 10
59.218932479062339
 20
82.429011060919237
 30
0.0
 40
1.8969505765761081
 50
120.95946438502941
 51
289.04053561497182
  0
CIRCLE
  5
87
  8
0
 10
59.040434637850019
 20
82.345776150597942
 30
0.0
 40
1.25
  0
CIRCLE
  5
88
  8
0
 10
49.342941316558829
 20
77.823760749972337
 30
0.0
 40
5.0
  0
LINE
  5
89
  8
0
 10
58.243081315540557
 20
71.59181563156298
 30
0.0
 11
59.210514902924501
 21
70.914411340959475
 31
0.0
  0
ARC
  5
8A
  8
0
 10
59.218932479062339
 20
73.218510439025579
 30
0.0
 40
1.8969505765761081
 50
70.959464385028241
 51
239.04053561497051
  0
CIRCLE
  5
8B
  8
0
 10
49.342941316557912
 20
77.823760749972337
 30
0.0
 40
13.0
  0
ARC
  5
8C
  8
0
 10
50.142941316557888
 20
77.823760749972337
 30
0.0
 40
11.4
 50
37.306834345821507
 51
322.69316565417881
  0
CIRCLE
  5
8D
  8
2
 10
49.342941316557912
 20
77.823760749972337
 30
0.0
 40
13.6
  0
CIRCLE
  5
8E
  8
2
 10
49.342941316558829
 20
77.823760749972337
 30
0.0
 40
17.0
  0
LINE
  5
8F
  8
1
 10
49.342941316558829
 20
107.82376074997229
 30
0.0
 11
49.342941316558829
 21
47.82376074997233
 31
0.0
  0
CIRCLE
  5
90
  8
0
 10
49.342941316558829
 20
77.823760749972337
 30
0.0
 40
25.0
  0
LINE
  5
91
  8
1
 10
79.342941316558836
 20
77.823760749972337
 30
0.0
 11
19.342941316558829
 21
77.823760749972337
 31
0.0
  0
LINE
  5
B7
  8
0
 10
136.2379157022412
 20
60.823760749972308
 30
0.0
 11
148.20757081684471
 21
60.823760749972308
 31
0.0
1001
ACAD
1000
ASC_BOUNDS
1002
{
1070
    19
1002
}
  0
TEXT
  5
15E
  8
0
 62
     3
 10
0.0
 20
0.0
 30
0.0
 40
10.0
  1
GRL50SH-V
  7
STANDARD1
  0
ENDSEC
  0
EOF
