  0
SECTION
  2
HEADER
  9
$ACADVER
  1
AC1009
  9
$INSBASE
 10
0.0
 20
0.0
 30
0.0
  9
$EXTMIN
 10
0.0
 20
-2.960436562073669
 30
0.0
  9
$EXTMAX
 10
159.01381101174971
 20
106.1320751810598
 30
0.0
  9
$LIMMIN
 10
0.0
 20
0.0
  9
$LIMMAX
 10
187.5
 20
135.0
  9
$ORTHOMODE
 70
     0
  9
$REGENMODE
 70
     1
  9
$FILLMODE
 70
     1
  9
$QTEXTMODE
 70
     0
  9
$MIRRTEXT
 70
     0
  9
$DRAGMODE
 70
     2
  9
$LTSCALE
 40
5.0
  9
$OSMODE
 70
  3071
  9
$ATTMODE
 70
     1
  9
$TEXTSIZE
 40
0.2
  9
$TRACEWID
 40
0.05
  9
$TEXTSTYLE
  7
STANDARD
  9
$CLAYER
  8
0
  9
$CELTYPE
  6
BYLAYER
  9
$CECOLOR
 62
   256
  9
$DIMSCALE
 40
0.5
  9
$DIMASZ
 40
3.0
  9
$DIMEXO
 40
2.0
  9
$DIMDLI
 40
0.3799999999999999
  9
$DIMRND
 40
0.0
  9
$DIMDLE
 40
0.0
  9
$DIMEXE
 40
2.0
  9
$DIMTP
 40
0.0
  9
$DIMTM
 40
0.0
  9
$DIMTXT
 40
3.2000000000000002
  9
$DIMCEN
 40
0.09
  9
$DIMTSZ
 40
0.0
  9
$DIMTOL
 70
     0
  9
$DIMLIM
 70
     0
  9
$DIMTIH
 70
     0
  9
$DIMTOH
 70
     0
  9
$DIMSE1
 70
     0
  9
$DIMSE2
 70
     0
  9
$DIMTAD
 70
     1
  9
$DIMZIN
 70
     0
  9
$DIMBLK
  1

  9
$DIMASO
 70
     0
  9
$DIMSHO
 70
     0
  9
$DIMPOST
  1

  9
$DIMAPOST
  1

  9
$DIMALT
 70
     0
  9
$DIMALTD
 70
     2
  9
$DIMALTF
 40
25.399999999999999
  9
$DIMLFAC
 40
1.0
  9
$DIMTOFL
 70
     0
  9
$DIMTVP
 40
1.6000000000000001
  9
$DIMTIX
 70
     1
  9
$DIMSOXD
 70
     0
  9
$DIMSAH
 70
     0
  9
$DIMBLK1
  1

  9
$DIMBLK2
  1

  9
$DIMSTYLE
  2
STANDARD
  9
$DIMCLRD
 70
     0
  9
$DIMCLRE
 70
     0
  9
$DIMCLRT
 70
     0
  9
$DIMTFAC
 40
1.0
  9
$DIMGAP
 40
0.09
  9
$LUNITS
 70
     2
  9
$LUPREC
 70
     4
  9
$SKETCHINC
 40
0.1
  9
$FILLETRAD
 40
0.4
  9
$AUNITS
 70
     0
  9
$AUPREC
 70
     0
  9
$MENU
  1
E:\r13\win\SUPPORT\ACAD
  9
$ELEVATION
 40
0.0
  9
$PELEVATION
 40
0.0
  9
$THICKNESS
 40
0.0
  9
$LIMCHECK
 70
     0
  9
$BLIPMODE
 70
     0
  9
$CHAMFERA
 40
0.0
  9
$CHAMFERB
 40
0.0
  9
$SKPOLY
 70
     0
  9
$TDCREATE
 40
2451824.6906229062
  9
$TDUPDATE
 40
2456598.689850104
  9
$TDINDWG
 40
0.0286460069
  9
$TDUSRTIMER
 40
0.0286460069
  9
$USRTIMER
 70
     1
  9
$ANGBASE
 50
0.0
  9
$ANGDIR
 70
     0
  9
$PDMODE
 70
     0
  9
$PDSIZE
 40
0.0
  9
$PLINEWID
 40
0.0
  9
$COORDS
 70
     1
  9
$SPLFRAME
 70
     0
  9
$SPLINETYPE
 70
     6
  9
$SPLINESEGS
 70
     8
  9
$ATTDIA
 70
     0
  9
$ATTREQ
 70
     1
  9
$HANDLING
 70
     1
  9
$HANDSEED
  5
1E6
  9
$SURFTAB1
 70
     6
  9
$SURFTAB2
 70
     6
  9
$SURFTYPE
 70
     6
  9
$SURFU
 70
     6
  9
$SURFV
 70
     6
  9
$UCSNAME
  2

  9
$UCSORG
 10
0.0
 20
0.0
 30
0.0
  9
$UCSXDIR
 10
1.0
 20
0.0
 30
0.0
  9
$UCSYDIR
 10
0.0
 20
1.0
 30
0.0
  9
$PUCSNAME
  2

  9
$PUCSORG
 10
0.0
 20
0.0
 30
0.0
  9
$PUCSXDIR
 10
1.0
 20
0.0
 30
0.0
  9
$PUCSYDIR
 10
0.0
 20
1.0
 30
0.0
  9
$USERI1
 70
     0
  9
$USERI2
 70
     1
  9
$USERI3
 70
     0
  9
$USERI4
 70
     0
  9
$USERI5
 70
     0
  9
$USERR1
 40
0.0
  9
$USERR2
 40
0.0
  9
$USERR3
 40
0.0
  9
$USERR4
 40
0.0
  9
$USERR5
 40
0.0
  9
$WORLDVIEW
 70
     1
  9
$SHADEDGE
 70
     3
  9
$SHADEDIF
 70
    70
  9
$TILEMODE
 70
     1
  9
$MAXACTVP
 70
    16
  9
$PLIMCHECK
 70
     0
  9
$PEXTMIN
 10
1.0000000000000000E+020
 20
1.0000000000000000E+020
 30
1.0000000000000000E+020
  9
$PEXTMAX
 10
-1.0000000000000000E+020
 20
-1.0000000000000000E+020
 30
-1.0000000000000000E+020
  9
$PLIMMIN
 10
0.0
 20
0.0
  9
$PLIMMAX
 10
12.0
 20
9.0
  9
$UNITMODE
 70
     0
  9
$VISRETAIN
 70
     0
  9
$PLINEGEN
 70
     0
  9
$PSLTSCALE
 70
     0
  0
ENDSEC
  0
SECTION
  2
TABLES
  0
TABLE
  2
VPORT
 70
     1
  0
VPORT
  2
*ACTIVE
 70
     0
 10
0.0
 20
0.0
 11
1.0
 21
1.0
 12
93.74713919532617
 22
66.313465060797697
 13
0.0
 23
0.0
 14
5.0
 24
5.0
 15
5.0
 25
5.0
 16
0.0
 26
0.0
 36
1.0
 17
0.0
 27
0.0
 37
0.0
 40
140.15365342376049
 41
2.304913294797688
 42
50.0
 43
0.0
 44
0.0
 50
0.0
 51
0.0
 71
     0
 72
   500
 73
     1
 74
     0
 75
     0
 76
     0
 77
     0
 78
     2
  0
ENDTAB
  0
TABLE
  2
LTYPE
 70
     4
  0
LTYPE
  2
CONTINUOUS
 70
     0
  3
Solid Line
 72
    65
 73
     0
 40
0.0
  0
LTYPE
  2
CENTER
 70
     0
  3
____ _ ____ _ ____ _ ____ _ ____ _ ____ _ ____
 72
    65
 73
     4
 40
2.0
 49
1.25
 49
-0.25
 49
0.25
 49
-0.25
  0
LTYPE
  2
HIDDEN
 70
     0
  3
__ __ __ __ __ __ __ __ __ __ __ __ __ __ __ __
 72
    65
 73
     2
 40
0.375
 49
0.25
 49
-0.125
  0
LTYPE
  2
PHANTOM2
 70
     0
  3
___ _ _ ___ _ _ ___ _ _ ___ _ _
 72
    65
 73
     6
 40
1.25
 49
0.625
 49
-0.125
 49
0.125
 49
-0.125
 49
0.125
 49
-0.125
  0
ENDTAB
  0
TABLE
  2
LAYER
 70
     3
  0
LAYER
  2
0
 70
     0
 62
     7
  6
CONTINUOUS
  0
LAYER
  2
1
 70
     0
 62
     1
  6
CENTER
  0
LAYER
  2
2
 70
     0
 62
     2
  6
HIDDEN
  0
ENDTAB
  0
TABLE
  2
STYLE
 70
     2
  0
STYLE
  2
STANDARD
 70
     0
 40
0.0
 41
1.0
 50
0.0
 71
     0
 42
0.2
  3
TXT
  4
BIGFONT
  0
STYLE
  2
STANDARD1
 70
     0
 40
0.0
 41
1.0
 50
0.0
 71
     0
 42
3.0
  3
txt
  4

  0
ENDTAB
  0
TABLE
  2
VIEW
 70
     0
  0
ENDTAB
  0
TABLE
  2
UCS
 70
     0
  0
ENDTAB
  0
TABLE
  2
APPID
 70
     3
  0
APPID
  2
ACAD
 70
     0
  0
APPID
  2
ACAD_MLEADERVER
 70
     0
  0
APPID
  2
ACAD_NAV_VCDISPLAY
 70
     0
  0
ENDTAB
  0
TABLE
  2
DIMSTYLE
 70
     1
  0
DIMSTYLE
  2
STANDARD
 70
     0
  3

  4

  5

  6

  7

 40
1.0
 41
0.18
 42
0.0625
 43
0.38
 44
0.18
 45
0.0
 46
0.0
 47
0.0
 48
0.0
140
0.18
141
0.09
142
0.0
143
25.399999999999999
144
1.0
145
0.0
146
1.0
147
0.09
 71
     0
 72
     0
 73
     1
 74
     1
 75
     0
 76
     0
 77
     0
 78
     0
170
     0
171
     2
172
     0
173
     0
174
     0
175
     0
176
     0
177
     0
178
     0
  0
ENDTAB
  0
ENDSEC
  0
SECTION
  2
BLOCKS
  0
BLOCK
  8
0
  2
$MODEL_SPACE
 70
     0
 10
0.0
 20
0.0
 30
0.0
  3
$MODEL_SPACE
  1

  0
ENDBLK
  5
9
  8
0
  0
BLOCK
 67
     1
  8
0
  2
$PAPER_SPACE
 70
     0
 10
0.0
 20
0.0
 30
0.0
  3
$PAPER_SPACE
  1

  0
ENDBLK
  5
E
 67
     1
  8
0
  0
ENDSEC
  0
SECTION
  2
ENTITIES
  0
LINE
  5
26
  8
2
 10
140.8138109964103
 20
71.132075181059804
 30
0.0
 11
148.21381099641039
 21
71.132075181059804
 31
0.0
  0
LINE
  5
27
  8
2
 10
140.8138109964103
 20
81.132075181059804
 30
0.0
 11
148.21381099641039
 21
81.132075181059804
 31
0.0
  0
ARC
  5
28
  8
2
 10
140.21381099641039
 20
63.432075181059837
 30
0.0
 40
0.3
 50
270.0
 51
0.0
  0
ARC
  5
29
  8
2
 10
132.8138109964103
 20
63.432075181059837
 30
0.0
 40
0.3
 50
180.0
 51
270.0
  0
LINE
  5
2A
  8
2
 10
132.51381099641031
 20
68.132075181059832
 30
0.0
 11
134.7817601888413
 21
68.132075181059832
 31
0.0
  0
LINE
  5
2B
  8
2
 10
132.51381099641031
 20
66.132075181059804
 30
0.0
 11
134.7817601888413
 21
66.132075181059804
 31
0.0
  0
CIRCLE
  5
2C
  8
2
 10
136.5138109964104
 20
67.132075181059733
 30
0.0
 40
2.0
  0
LINE
  5
2D
  8
2
 10
138.2458618039793
 20
66.132075181059804
 30
0.0
 11
140.5138109964104
 21
66.132075181059804
 31
0.0
  0
LINE
  5
2E
  8
2
 10
138.2458618039793
 20
68.132075181059832
 30
0.0
 11
140.5138109964104
 21
68.132075181059832
 31
0.0
  0
ARC
  5
2F
  8
2
 10
132.8138109964103
 20
70.832075181059793
 30
0.0
 40
0.3
 50
90.0
 51
180.0
  0
ARC
  5
30
  8
2
 10
140.21381099641039
 20
70.832075181059793
 30
0.0
 40
0.3
 50
0.0
 51
90.0
  0
ARC
  5
31
  8
2
 10
140.21381099641039
 20
81.432075181059815
 30
0.0
 40
0.3
 50
270.0
 51
0.0
  0
ARC
  5
32
  8
2
 10
132.8138109964103
 20
81.432075181059815
 30
0.0
 40
0.3
 50
180.0
 51
270.0
  0
ARC
  5
33
  8
2
 10
140.21381099641039
 20
88.832075181059736
 30
0.0
 40
0.3
 50
0.0
 51
90.0
1001
ACAD
1000
ASC_BOUNDS
1002
{
1070
    19
1005
0
1002
}
  0
ARC
  5
34
  8
2
 10
132.8138109964103
 20
88.832075181059736
 30
0.0
 40
0.3
 50
90.0
 51
180.0
  0
LINE
  5
35
  8
2
 10
138.2458618039793
 20
84.132075181059776
 30
0.0
 11
140.5138109964104
 21
84.132075181059776
 31
0.0
  0
LINE
  5
36
  8
2
 10
138.2458618039793
 20
86.132075181059804
 30
0.0
 11
140.5138109964104
 21
86.132075181059804
 31
0.0
  0
CIRCLE
  5
37
  8
2
 10
136.5138109964104
 20
85.132075181059861
 30
0.0
 40
2.0
  0
LINE
  5
38
  8
2
 10
132.51381099641031
 20
86.132075181059804
 30
0.0
 11
134.7817601888413
 21
86.132075181059804
 31
0.0
  0
LINE
  5
39
  8
2
 10
132.51381099641031
 20
84.132075181059776
 30
0.0
 11
134.7817601888413
 21
84.132075181059776
 31
0.0
  0
LINE
  5
3A
  8
2
 10
140.5138109964104
 20
88.832075181059736
 30
0.0
 11
140.5138109964104
 21
63.332075181059793
 31
0.0
1001
ACAD
1000
ASC_BOUNDS
1002
{
1070
    19
1005
0
1005
0
1002
}
  0
LINE
  5
3B
  8
0
 10
154.0138110227939
 20
94.132075017507788
 30
0.0
 11
131.88034349240101
 21
94.132075017507816
 31
0.0
  0
LINE
  5
3D
  8
0
 10
131.4818656131643
 20
94.497212720408783
 30
0.0
 11
130.90139037811301
 21
101.1320750175078
 31
0.0
  0
LINE
  5
3E
  8
0
 10
130.90139037811301
 20
101.1320750175078
 30
0.0
 11
127.0138110227939
 21
101.1320750175077
 31
0.0
  0
ARC
  5
3F
  8
0
 10
131.88034349240101
 20
94.532075017507822
 30
0.0
 40
0.4
 50
184.9999999999965
 51
270.0
  0
ARC
  5
40
  8
0
 10
131.88034349240101
 20
57.732075017508208
 30
0.0
 40
0.4
 50
90.0
 51
175.0000000000035
  0
LINE
  5
41
  8
0
 10
131.4818656131643
 20
57.76693731460724
 30
0.0
 11
130.90139037811301
 21
51.132075017508207
 31
0.0
  0
LINE
  5
42
  8
0
 10
154.0138110227939
 20
58.132075017508207
 30
0.0
 11
131.88034349240101
 21
58.132075017508207
 31
0.0
  0
LINE
  5
43
  8
0
 10
130.90139037811301
 20
51.132075017508207
 30
0.0
 11
127.0138110227939
 21
51.132075017508228
 31
0.0
  0
LINE
  5
44
  8
1
 10
92.013810996410484
 20
76.132075181059804
 30
0.0
 11
32.013810996410491
 21
76.132075181059804
 31
0.0
  0
LINE
  5
47
  8
1
 10
62.013810996410477
 20
106.1320751810598
 30
0.0
 11
62.013810996410477
 21
46.132075181059797
 31
0.0
  0
CIRCLE
  5
48
  8
2
 10
62.013810996410477
 20
76.132075181059804
 30
0.0
 40
18.0
  0
CIRCLE
  5
4B
  8
0
 10
62.013810996410477
 20
76.132075181059804
 30
0.0
 40
25.0
  0
CIRCLE
  5
4C
  8
0
 10
62.013810996410477
 20
76.132075181059804
 30
0.0
 40
5.0
  0
CIRCLE
  5
4D
  8
2
 10
62.013810996409582
 20
76.132075181059804
 30
0.0
 40
13.6
  0
ARC
  5
4E
  8
0
 10
62.813810996409522
 20
76.132075181059804
 30
0.0
 40
11.4
 50
37.306834345821422
 51
322.69316565417859
  0
LINE
  5
4F
  8
0
 10
70.913950995392213
 20
82.364020299469303
 30
0.0
 11
71.88138458277615
 21
83.041424590072793
 31
0.0
  0
LINE
  5
50
  8
0
 10
72.508657640011222
 20
78.944160863901374
 30
0.0
 11
74.570846738167461
 21
79.49672276739264
 31
0.0
  0
CIRCLE
  5
51
  8
0
 10
71.711304317701661
 20
80.654090581685395
 30
0.0
 40
1.25
  0
ARC
  5
52
  8
0
 10
71.889802158913994
 20
80.737325492006704
 30
0.0
 40
1.8969505765761081
 50
120.9594643850297
 51
289.04053561497108
  0
ARC
  5
53
  8
0
 10
71.889802158913994
 20
71.526824870113046
 30
0.0
 40
1.8969505765761081
 50
70.959464385028738
 51
239.04053561497031
  0
CIRCLE
  5
54
  8
0
 10
71.711304317701661
 20
71.610059780434341
 30
0.0
 40
1.25
  0
LINE
  5
55
  8
0
 10
72.508657640011222
 20
73.319989498218376
 30
0.0
 11
74.570846738167461
 21
72.767427594727096
 31
0.0
  0
LINE
  5
56
  8
0
 10
70.913950995392213
 20
69.900130062650433
 30
0.0
 11
71.88138458277615
 21
69.222725772046942
 31
0.0
  0
CIRCLE
  5
57
  8
0
 10
62.013810996409582
 20
76.132075181059804
 30
0.0
 40
13.0
  0
LINE
  5
58
  8
2
 10
74.570846738167461
 20
72.767427594727096
 30
0.0
 11
75.150402233940895
 21
72.612136167665682
 31
0.0
  0
LINE
  5
59
  8
2
 10
74.570846738167461
 20
79.49672276739264
 30
0.0
 11
75.150402233941008
 21
79.65201419445421
 31
0.0
  0
LINE
  5
5A
  8
2
 10
148.5138109964104
 20
88.832075181059736
 30
0.0
 11
148.5138109964104
 21
63.332075181059793
 31
0.0
1001
ACAD
1000
ASC_BOUNDS
1002
{
1070
    19
1005
0
1005
0
1002
}
  0
LINE
  5
5B
  8
2
 10
132.51381099641031
 20
89.732075181059784
 30
0.0
 11
132.51381099641031
 21
62.532075181059803
 31
0.0
1001
ACAD
1000
ASC_BOUNDS
1002
{
1070
    19
1005
0
1005
0
1002
}
  0
LINE
  5
5C
  8
2
 10
131.31381099641021
 20
89.732075181059784
 30
0.0
 11
131.31381099641021
 21
62.532075181059803
 31
0.0
  0
LINE
  5
5D
  8
2
 10
131.1638109964104
 20
89.732075181059784
 30
0.0
 11
131.1638109964104
 21
62.532075181059803
 31
0.0
1001
ACAD
1000
ASC_BOUNDS
1002
{
1070
    19
1005
0
1005
0
1002
}
  0
LINE
  5
5E
  8
2
 10
132.8138109964103
 20
81.132075181059804
 30
0.0
 11
140.21381099641039
 21
81.132075181059804
 31
0.0
  0
LINE
  5
5F
  8
2
 10
140.51381099641031
 20
84.132075181059776
 30
0.0
 11
142.7817601888413
 21
84.132075181059776
 31
0.0
  0
LINE
  5
60
  8
2
 10
140.51381099641031
 20
86.132075181059804
 30
0.0
 11
142.7817601888413
 21
86.132075181059804
 31
0.0
  0
CIRCLE
  5
61
  8
2
 10
144.51381099641031
 20
85.132075181059861
 30
0.0
 40
2.0
  0
LINE
  5
62
  8
2
 10
146.24586180397941
 20
86.132075181059804
 30
0.0
 11
148.5138109964104
 21
86.132075181059804
 31
0.0
  0
LINE
  5
63
  8
2
 10
146.24586180397941
 20
84.132075181059776
 30
0.0
 11
148.5138109964104
 21
84.132075181059776
 31
0.0
  0
ARC
  5
64
  8
2
 10
140.8138109964103
 20
88.832075181059736
 30
0.0
 40
0.3
 50
90.0
 51
180.0
  0
ARC
  5
65
  8
2
 10
148.21381099641039
 20
88.832075181059736
 30
0.0
 40
0.3
 50
0.0
 51
90.0
1001
ACAD
1000
ASC_BOUNDS
1002
{
1070
    19
1005
0
1002
}
  0
ARC
  5
66
  8
2
 10
140.8138109964103
 20
81.432075181059815
 30
0.0
 40
0.3
 50
180.0
 51
270.0
  0
ARC
  5
67
  8
2
 10
148.21381099641039
 20
81.432075181059815
 30
0.0
 40
0.3
 50
270.0
 51
0.0
  0
ARC
  5
68
  8
2
 10
148.21381099641039
 20
70.832075181059793
 30
0.0
 40
0.3
 50
0.0
 51
90.0
  0
ARC
  5
69
  8
2
 10
140.8138109964103
 20
70.832075181059793
 30
0.0
 40
0.3
 50
90.0
 51
180.0
  0
LINE
  5
6A
  8
2
 10
132.8138109964103
 20
71.132075181059804
 30
0.0
 11
140.21381099641039
 21
71.132075181059804
 31
0.0
  0
LINE
  5
6B
  8
2
 10
146.24586180397941
 20
68.132075181059832
 30
0.0
 11
148.5138109964104
 21
68.132075181059832
 31
0.0
  0
LINE
  5
6C
  8
2
 10
146.24586180397941
 20
66.132075181059804
 30
0.0
 11
148.5138109964104
 21
66.132075181059804
 31
0.0
  0
CIRCLE
  5
6D
  8
2
 10
144.51381099641031
 20
67.132075181059733
 30
0.0
 40
2.0
  0
LINE
  5
6E
  8
2
 10
140.51381099641031
 20
66.132075181059804
 30
0.0
 11
142.7817601888413
 21
66.132075181059804
 31
0.0
  0
LINE
  5
6F
  8
2
 10
140.51381099641031
 20
68.132075181059832
 30
0.0
 11
142.7817601888413
 21
68.132075181059832
 31
0.0
  0
ARC
  5
70
  8
2
 10
140.8138109964103
 20
63.432075181059837
 30
0.0
 40
0.3
 50
180.0
 51
270.0
  0
ARC
  5
71
  8
2
 10
148.21381099641039
 20
63.432075181059837
 30
0.0
 40
0.3
 50
270.0
 51
0.0
  0
LINE
  5
72
  8
2
 10
131.31381099641021
 20
87.503970361723304
 30
0.0
 11
132.51381099641031
 21
87.503970361723304
 31
0.0
  0
LINE
  5
73
  8
2
 10
131.31381099641021
 20
64.760180000396304
 30
0.0
 11
132.51381099641031
 21
64.760180000396304
 31
0.0
  0
ARC
  5
74
  8
2
 10
148.3138109964103
 20
63.332075181059793
 30
0.0
 40
0.2
 50
270.0
 51
0.0
1001
ACAD
1000
ASC_BOUNDS
1002
{
1070
    19
1005
0
1002
}
  0
ARC
  5
75
  8
2
 10
148.3138109964103
 20
88.932075181059815
 30
0.0
 40
0.2
 50
0.0
 51
90.0
1001
ACAD
1000
ASC_BOUNDS
1002
{
1070
    19
1005
0
1002
}
  0
LINE
  5
76
  8
2
 10
128.01381099641071
 20
89.132075181059747
 30
0.0
 11
131.1638109964104
 21
89.132075181059747
 31
0.0
1001
ACAD
1000
ASC_BOUNDS
1002
{
1070
    19
1005
0
1002
}
  0
LINE
  5
77
  8
2
 10
132.51381099641031
 20
89.732075181059784
 30
0.0
 11
131.1638109964104
 21
89.732075181059784
 31
0.0
1001
ACAD
1000
ASC_BOUNDS
1002
{
1070
    19
1005
0
1005
0
1002
}
  0
LINE
  5
78
  8
2
 10
132.51381099641031
 20
89.132075181059747
 30
0.0
 11
148.3138109964103
 21
89.132075181059747
 31
0.0
1001
ACAD
1000
ASC_BOUNDS
1002
{
1070
    19
1005
0
1002
}
  0
LINE
  5
79
  8
2
 10
128.01381099641071
 20
89.132075181059747
 30
0.0
 11
127.0138109964105
 21
89.509425450249296
 31
0.0
1001
ACAD
1000
ASC_BOUNDS
1002
{
1070
    19
1005
0
1002
}
  0
LINE
  5
7A
  8
2
 10
154.01381099641051
 20
87.132075181059733
 30
0.0
 11
148.5138109964104
 21
87.132075181059733
 31
0.0
1001
ACAD
1000
ASC_BOUNDS
1002
{
1070
    19
1005
0
1002
}
  0
LINE
  5
7B
  8
2
 10
154.01381099641051
 20
65.132075181059861
 30
0.0
 11
148.5138109964104
 21
65.132075181059861
 31
0.0
1001
ACAD
1000
ASC_BOUNDS
1002
{
1070
    19
1005
0
1002
}
  0
LINE
  5
7C
  8
2
 10
128.01381099641071
 20
63.132075181059832
 30
0.0
 11
128.01381099641071
 21
89.132075181059747
 31
0.0
  0
LINE
  5
7D
  8
2
 10
128.01381099641071
 20
63.132075181059832
 30
0.0
 11
127.0138109964105
 21
62.554724911870203
 31
0.0
1001
ACAD
1000
ASC_BOUNDS
1002
{
1070
    19
1005
0
1002
}
  0
LINE
  5
7E
  8
2
 10
132.51381099641031
 20
63.132075181059832
 30
0.0
 11
148.3138109964103
 21
63.132075181059832
 31
0.0
1001
ACAD
1000
ASC_BOUNDS
1002
{
1070
    19
1005
0
1002
}
  0
LINE
  5
7F
  8
2
 10
132.51381099641031
 20
62.532075181059803
 30
0.0
 11
131.1638109964104
 21
62.532075181059803
 31
0.0
1001
ACAD
1000
ASC_BOUNDS
1002
{
1070
    19
1005
0
1005
0
1002
}
  0
LINE
  5
80
  8
2
 10
128.01381099641071
 20
63.132075181059832
 30
0.0
 11
131.1638109964104
 21
63.132075181059832
 31
0.0
1001
ACAD
1000
ASC_BOUNDS
1002
{
1070
    19
1005
0
1002
}
  0
LINE
  5
81
  8
1
 10
122.0138109964105
 20
76.132075181059804
 30
0.0
 11
159.01381101174971
 21
76.132075181059804
 31
0.0
  0
LINE
  5
82
  8
0
 10
154.01381100070549
 20
58.132075017508207
 30
0.0
 11
154.0138110227939
 21
94.132075017507788
 31
0.0
1001
ACAD
1000
ASC_BOUNDS
1002
{
1070
    19
1005
0
1005
0
1002
}
  0
LINE
  5
83
  8
0
 10
127.0138109964105
 20
51.132075181060081
 30
0.0
 11
127.0138109964105
 21
101.13207518105961
 31
0.0
1001
ACAD
1000
ASC_BOUNDS
1002
{
1070
    19
1005
0
1005
0
1005
0
1005
0
1002
}
  0
LINE
  5
A1
  8
0
 10
130.90139037811301
 20
101.1320750175078
 30
0.0
 11
130.90139037811301
 21
51.132075017508207
 31
0.0
  0
LINE
  5
A2
  8
0
 10
131.6101074093547
 20
94.237164082783778
 30
0.0
 11
131.6101074093547
 21
58.026985952232252
 31
0.0
  0
TEXT
  5
151
  8
0
 62
     3
 10
0.0
 20
0.0
 30
0.0
 40
10.0
  1
GRL50S2-L
  7
STANDARD1
  0
ENDSEC
  0
EOF
