  0
SECTION
  2
HEADER
  9
$ACADVER
  1
AC1009
  9
$INSBASE
 10
0.0
 20
0.0
 30
0.0
  9
$EXTMIN
 10
0.0
 20
-2.960436562073669
 30
0.0
  9
$EXTMAX
 10
156.1058586943287
 20
115.2086744300823
 30
0.0
  9
$LIMMIN
 10
0.0
 20
0.0
  9
$LIMMAX
 10
187.5
 20
135.0
  9
$ORTHOMODE
 70
     1
  9
$REGENMODE
 70
     1
  9
$FILLMODE
 70
     1
  9
$QTEXTMODE
 70
     0
  9
$MIRRTEXT
 70
     0
  9
$DRAGMODE
 70
     2
  9
$LTSCALE
 40
10.0
  9
$OSMODE
 70
  3071
  9
$ATTMODE
 70
     1
  9
$TEXTSIZE
 40
0.2
  9
$TRACEWID
 40
0.05
  9
$TEXTSTYLE
  7
STANDARD
  9
$CLAYER
  8
0
  9
$CELTYPE
  6
BYLAYER
  9
$CECOLOR
 62
   256
  9
$DIMSCALE
 40
0.5
  9
$DIMASZ
 40
3.0
  9
$DIMEXO
 40
2.0
  9
$DIMDLI
 40
0.3799999999999999
  9
$DIMRND
 40
0.0
  9
$DIMDLE
 40
0.0
  9
$DIMEXE
 40
2.0
  9
$DIMTP
 40
0.0
  9
$DIMTM
 40
0.0
  9
$DIMTXT
 40
3.2000000000000002
  9
$DIMCEN
 40
0.09
  9
$DIMTSZ
 40
0.0
  9
$DIMTOL
 70
     0
  9
$DIMLIM
 70
     0
  9
$DIMTIH
 70
     0
  9
$DIMTOH
 70
     0
  9
$DIMSE1
 70
     0
  9
$DIMSE2
 70
     0
  9
$DIMTAD
 70
     1
  9
$DIMZIN
 70
     0
  9
$DIMBLK
  1

  9
$DIMASO
 70
     0
  9
$DIMSHO
 70
     0
  9
$DIMPOST
  1

  9
$DIMAPOST
  1

  9
$DIMALT
 70
     0
  9
$DIMALTD
 70
     2
  9
$DIMALTF
 40
25.399999999999999
  9
$DIMLFAC
 40
1.0
  9
$DIMTOFL
 70
     0
  9
$DIMTVP
 40
1.6000000000000001
  9
$DIMTIX
 70
     1
  9
$DIMSOXD
 70
     0
  9
$DIMSAH
 70
     0
  9
$DIMBLK1
  1

  9
$DIMBLK2
  1

  9
$DIMSTYLE
  2
STANDARD
  9
$DIMCLRD
 70
     0
  9
$DIMCLRE
 70
     0
  9
$DIMCLRT
 70
     0
  9
$DIMTFAC
 40
1.0
  9
$DIMGAP
 40
0.09
  9
$LUNITS
 70
     2
  9
$LUPREC
 70
     4
  9
$SKETCHINC
 40
0.1
  9
$FILLETRAD
 40
0.4
  9
$AUNITS
 70
     0
  9
$AUPREC
 70
     0
  9
$MENU
  1
E:\r13\win\SUPPORT\ACAD
  9
$ELEVATION
 40
0.0
  9
$PELEVATION
 40
0.0
  9
$THICKNESS
 40
0.0
  9
$LIMCHECK
 70
     0
  9
$BLIPMODE
 70
     0
  9
$CHAMFERA
 40
0.0
  9
$CHAMFERB
 40
0.0
  9
$SKPOLY
 70
     0
  9
$TDCREATE
 40
2451824.6906229062
  9
$TDUPDATE
 40
2456598.6897585648
  9
$TDINDWG
 40
0.0280853125
  9
$TDUSRTIMER
 40
0.0280853125
  9
$USRTIMER
 70
     1
  9
$ANGBASE
 50
0.0
  9
$ANGDIR
 70
     0
  9
$PDMODE
 70
     0
  9
$PDSIZE
 40
0.0
  9
$PLINEWID
 40
0.0
  9
$COORDS
 70
     1
  9
$SPLFRAME
 70
     0
  9
$SPLINETYPE
 70
     6
  9
$SPLINESEGS
 70
     8
  9
$ATTDIA
 70
     0
  9
$ATTREQ
 70
     1
  9
$HANDLING
 70
     1
  9
$HANDSEED
  5
1F3
  9
$SURFTAB1
 70
     6
  9
$SURFTAB2
 70
     6
  9
$SURFTYPE
 70
     6
  9
$SURFU
 70
     6
  9
$SURFV
 70
     6
  9
$UCSNAME
  2

  9
$UCSORG
 10
0.0
 20
0.0
 30
0.0
  9
$UCSXDIR
 10
1.0
 20
0.0
 30
0.0
  9
$UCSYDIR
 10
0.0
 20
1.0
 30
0.0
  9
$PUCSNAME
  2

  9
$PUCSORG
 10
0.0
 20
0.0
 30
0.0
  9
$PUCSXDIR
 10
1.0
 20
0.0
 30
0.0
  9
$PUCSYDIR
 10
0.0
 20
1.0
 30
0.0
  9
$USERI1
 70
     0
  9
$USERI2
 70
     1
  9
$USERI3
 70
     0
  9
$USERI4
 70
     0
  9
$USERI5
 70
     0
  9
$USERR1
 40
0.0
  9
$USERR2
 40
0.0
  9
$USERR3
 40
0.0
  9
$USERR4
 40
0.0
  9
$USERR5
 40
0.0
  9
$WORLDVIEW
 70
     1
  9
$SHADEDGE
 70
     3
  9
$SHADEDIF
 70
    70
  9
$TILEMODE
 70
     1
  9
$MAXACTVP
 70
    16
  9
$PLIMCHECK
 70
     0
  9
$PEXTMIN
 10
1.0000000000000000E+020
 20
1.0000000000000000E+020
 30
1.0000000000000000E+020
  9
$PEXTMAX
 10
-1.0000000000000000E+020
 20
-1.0000000000000000E+020
 30
-1.0000000000000000E+020
  9
$PLIMMIN
 10
0.0
 20
0.0
  9
$PLIMMAX
 10
12.0
 20
9.0
  9
$UNITMODE
 70
     0
  9
$VISRETAIN
 70
     0
  9
$PLINEGEN
 70
     0
  9
$PSLTSCALE
 70
     0
  0
ENDSEC
  0
SECTION
  2
TABLES
  0
TABLE
  2
VPORT
 70
     1
  0
VPORT
  2
*ACTIVE
 70
     0
 10
0.0
 20
0.0
 11
1.0
 21
1.0
 12
93.74713919532617
 22
66.313465060797697
 13
0.0
 23
0.0
 14
5.0
 24
5.0
 15
5.0
 25
5.0
 16
0.0
 26
0.0
 36
1.0
 17
0.0
 27
0.0
 37
0.0
 40
140.15365342376049
 41
2.304913294797688
 42
50.0
 43
0.0
 44
0.0
 50
0.0
 51
0.0
 71
     0
 72
   500
 73
     1
 74
     0
 75
     0
 76
     0
 77
     0
 78
     2
  0
ENDTAB
  0
TABLE
  2
LTYPE
 70
     5
  0
LTYPE
  2
CONTINUOUS
 70
     0
  3
Solid Line
 72
    65
 73
     0
 40
0.0
  0
LTYPE
  2
CENTER
 70
     0
  3
____ _ ____ _ ____ _ ____ _ ____ _ ____ _ ____
 72
    65
 73
     4
 40
2.0
 49
1.25
 49
-0.25
 49
0.25
 49
-0.25
  0
LTYPE
  2
HIDDEN
 70
     0
  3
__ __ __ __ __ __ __ __ __ __ __ __ __ __ __ __
 72
    65
 73
     2
 40
0.375
 49
0.25
 49
-0.125
  0
LTYPE
  2
PHANTOM
 70
     0
  3
_____ _ _ _____ _ _ _____ _ _ _____ _ _ ____
 72
    65
 73
     6
 40
2.5
 49
1.25
 49
-0.25
 49
0.25
 49
-0.25
 49
0.25
 49
-0.25
  0
LTYPE
  2
PHANTOM2
 70
     0
  3
___ _ _ ___ _ _ ___ _ _ ___ _ _
 72
    65
 73
     6
 40
1.25
 49
0.625
 49
-0.125
 49
0.125
 49
-0.125
 49
0.125
 49
-0.125
  0
ENDTAB
  0
TABLE
  2
LAYER
 70
     4
  0
LAYER
  2
0
 70
     0
 62
     7
  6
CONTINUOUS
  0
LAYER
  2
1
 70
     0
 62
     1
  6
CENTER
  0
LAYER
  2
2
 70
     0
 62
     2
  6
HIDDEN
  0
LAYER
  2
5
 70
     0
 62
     3
  6
PHANTOM
  0
ENDTAB
  0
TABLE
  2
STYLE
 70
     2
  0
STYLE
  2
STANDARD
 70
     0
 40
0.0
 41
1.0
 50
0.0
 71
     0
 42
0.2
  3
TXT
  4
BIGFONT
  0
STYLE
  2
STANDARD1
 70
     0
 40
0.0
 41
1.0
 50
0.0
 71
     0
 42
3.0
  3
txt
  4

  0
ENDTAB
  0
TABLE
  2
VIEW
 70
     0
  0
ENDTAB
  0
TABLE
  2
UCS
 70
     0
  0
ENDTAB
  0
TABLE
  2
APPID
 70
     3
  0
APPID
  2
ACAD
 70
     0
  0
APPID
  2
ACAD_MLEADERVER
 70
     0
  0
APPID
  2
ACAD_NAV_VCDISPLAY
 70
     0
  0
ENDTAB
  0
TABLE
  2
DIMSTYLE
 70
     1
  0
DIMSTYLE
  2
STANDARD
 70
     0
  3

  4

  5

  6

  7

 40
1.0
 41
0.18
 42
0.0625
 43
0.38
 44
0.18
 45
0.0
 46
0.0
 47
0.0
 48
0.0
140
0.18
141
0.09
142
0.0
143
25.399999999999999
144
1.0
145
0.0
146
1.0
147
0.09
 71
     0
 72
     0
 73
     1
 74
     1
 75
     0
 76
     0
 77
     0
 78
     0
170
     0
171
     2
172
     0
173
     0
174
     0
175
     0
176
     0
177
     0
178
     0
  0
ENDTAB
  0
ENDSEC
  0
SECTION
  2
BLOCKS
  0
BLOCK
  8
0
  2
$MODEL_SPACE
 70
     0
 10
0.0
 20
0.0
 30
0.0
  3
$MODEL_SPACE
  1

  0
ENDBLK
  5
9
  8
0
  0
BLOCK
 67
     1
  8
0
  2
$PAPER_SPACE
 70
     0
 10
0.0
 20
0.0
 30
0.0
  3
$PAPER_SPACE
  1

  0
ENDBLK
  5
E
 67
     1
  8
0
  0
ENDSEC
  0
SECTION
  2
ENTITIES
  0
LINE
  5
26
  8
1
 10
140.2280060422213
 20
35.292452562088272
 30
0.0
 11
140.22800604221979
 21
115.2086744300823
 31
0.0
  0
LINE
  5
29
  8
1
 10
127.7280060422198
 20
102.7086744300823
 30
0.0
 11
152.72800604221979
 21
102.7086744300823
 31
0.0
  0
CIRCLE
  5
2A
  8
5
 10
140.22800604221979
 20
102.7086744300823
 30
0.0
 40
10.0
  0
LINE
  5
2D
  8
0
 10
139.2280060422195
 20
90.493701167936877
 30
0.0
 11
131.72144643938421
 21
96.792452562086567
 31
0.0
  0
LINE
  5
2E
  8
0
 10
141.22800604221999
 20
90.493701167936422
 30
0.0
 11
148.73456564505571
 21
96.792452562086794
 31
0.0
  0
LINE
  5
2F
  8
0
 10
149.72800604222039
 20
96.79245256208668
 30
0.0
 11
148.73456564505571
 21
96.792452562086794
 31
0.0
1001
ACAD
1000
ASC_BOUNDS
1002
{
1070
    19
1002
}
  0
LINE
  5
31
  8
0
 10
141.22800604221999
 20
89.292452562086794
 30
0.0
 11
139.22800604221999
 21
89.292452562086794
 31
0.0
1001
ACAD
1000
ASC_BOUNDS
1002
{
1070
    19
1002
}
  0
LINE
  5
33
  8
0
 10
131.72144643938421
 20
96.792452562086567
 30
0.0
 11
130.72800604221999
 21
96.792452562086453
 31
0.0
1001
ACAD
1000
ASC_BOUNDS
1002
{
1070
    19
1002
}
  0
LINE
  5
35
  8
0
 10
141.22800604221999
 20
90.493701167936422
 30
0.0
 11
141.22800604221999
 21
53.091203956237052
 31
0.0
  0
LINE
  5
36
  8
0
 10
131.72144643938421
 20
46.792452562086901
 30
0.0
 11
130.72800604221999
 21
46.792452562087021
 31
0.0
1001
ACAD
1000
ASC_BOUNDS
1002
{
1070
    19
1002
}
  0
LINE
  5
37
  8
0
 10
139.22800604223369
 20
90.493701167924996
 30
0.0
 11
139.2280060422195
 21
53.091203956236598
 31
0.0
  0
LINE
  5
38
  8
0
 10
141.22800604221999
 20
54.29245256208668
 30
0.0
 11
139.22800604221999
 21
54.29245256208668
 31
0.0
1001
ACAD
1000
ASC_BOUNDS
1002
{
1070
    19
1002
}
  0
LINE
  5
39
  8
0
 10
149.72800604222039
 20
46.792452562086787
 30
0.0
 11
148.73456564505571
 21
46.79245256208668
 31
0.0
1001
ACAD
1000
ASC_BOUNDS
1002
{
1070
    19
1002
}
  0
LINE
  5
3A
  8
0
 10
141.22800604221999
 20
53.091203956237052
 30
0.0
 11
148.73456564505571
 21
46.79245256208668
 31
0.0
  0
LINE
  5
3B
  8
0
 10
139.2280060422195
 20
53.091203956236598
 30
0.0
 11
131.72144643938421
 21
46.792452562086901
 31
0.0
  0
CIRCLE
  5
3C
  8
5
 10
140.2280060422213
 20
44.792452562088272
 30
0.0
 40
7.0
  0
LINE
  5
3D
  8
1
 10
149.7280060422213
 20
44.792452562088272
 30
0.0
 11
130.7280060422213
 21
44.792452562088272
 31
0.0
  0
LINE
  5
3E
  8
1
 10
86.728006042219931
 20
71.792452562086737
 30
0.0
 11
26.728006042219931
 21
71.792452562086737
 31
0.0
  0
LINE
  5
3F
  8
1
 10
56.728006042219931
 20
101.79245256208669
 30
0.0
 11
56.728006042219931
 21
41.79245256208673
 31
0.0
  0
CIRCLE
  5
43
  8
0
 10
56.728006042219931
 20
71.792452562086737
 30
0.0
 40
25.0
  0
CIRCLE
  5
44
  8
0
 10
56.728006042219931
 20
71.792452562086737
 30
0.0
 40
5.0
  0
CIRCLE
  5
45
  8
2
 10
56.728006042219022
 20
71.792452562086737
 30
0.0
 40
13.6
  0
ARC
  5
46
  8
0
 10
57.528006042219033
 20
71.792452562086737
 30
0.0
 40
11.4
 50
37.306834345821578
 51
322.69316565417859
  0
LINE
  5
47
  8
0
 10
65.62814604120166
 20
78.024397680496236
 30
0.0
 11
66.595579628585597
 21
78.701801971099741
 31
0.0
  0
LINE
  5
48
  8
0
 10
67.222852685820669
 20
74.604538244928307
 30
0.0
 11
69.285041783976908
 21
75.157100148419573
 31
0.0
  0
CIRCLE
  5
49
  8
0
 10
66.425499363511165
 20
76.314467962712342
 30
0.0
 40
1.25
  0
ARC
  5
4A
  8
0
 10
66.603997204723441
 20
76.397702873033623
 30
0.0
 40
1.8969505765761081
 50
120.9594643850297
 51
289.04053561497119
  0
ARC
  5
4B
  8
0
 10
66.603997204723441
 20
67.187202251139965
 30
0.0
 40
1.8969505765761081
 50
70.959464385028809
 51
239.04053561497031
  0
CIRCLE
  5
4C
  8
0
 10
66.425499363511165
 20
67.270437161461274
 30
0.0
 40
1.25
  0
LINE
  5
4D
  8
0
 10
67.222852685820669
 20
68.980366879245295
 30
0.0
 11
69.285041783976908
 21
68.427804975754043
 31
0.0
  0
LINE
  5
4E
  8
0
 10
65.62814604120166
 20
65.56050744367738
 30
0.0
 11
66.595579628585597
 21
64.883103153073876
 31
0.0
  0
CIRCLE
  5
4F
  8
0
 10
56.728006042219022
 20
71.792452562086737
 30
0.0
 40
13.0
  0
LINE
  5
50
  8
2
 10
69.285041783976908
 20
68.427804975754043
 30
0.0
 11
69.864597279750342
 21
68.272513548692615
 31
0.0
  0
LINE
  5
51
  8
2
 10
69.285041783976908
 20
75.157100148419573
 30
0.0
 11
69.864597279750456
 21
75.312391575481143
 31
0.0
  0
LINE
  5
52
  8
2
 10
144.2280060422199
 20
84.492452562086669
 30
0.0
 11
144.2280060422199
 21
58.992452562086719
 31
0.0
  0
LINE
  5
53
  8
2
 10
136.22800604221979
 20
85.392452562086703
 30
0.0
 11
136.22800604221979
 21
58.192452562086743
 31
0.0
  0
LINE
  5
54
  8
2
 10
135.0280060422198
 20
85.392452562086703
 30
0.0
 11
135.0280060422198
 21
58.192452562086743
 31
0.0
  0
LINE
  5
55
  8
2
 10
134.87800604221991
 20
85.392452562086703
 30
0.0
 11
134.87800604221991
 21
58.192452562086743
 31
0.0
  0
LINE
  5
56
  8
2
 10
136.5280060422198
 20
76.792452562086737
 30
0.0
 11
143.92800604221989
 21
76.792452562086737
 31
0.0
  0
LINE
  5
57
  8
2
 10
136.22800604221979
 20
79.792452562086694
 30
0.0
 11
138.49595523465081
 21
79.792452562086694
 31
0.0
  0
LINE
  5
58
  8
2
 10
136.22800604221979
 20
81.792452562086737
 30
0.0
 11
138.49595523465081
 21
81.792452562086737
 31
0.0
  0
CIRCLE
  5
59
  8
2
 10
140.22800604221979
 20
80.792452562086794
 30
0.0
 40
2.0
  0
LINE
  5
5A
  8
2
 10
141.96005684978891
 20
81.792452562086737
 30
0.0
 11
144.2280060422199
 21
81.792452562086737
 31
0.0
  0
LINE
  5
5B
  8
2
 10
141.96005684978891
 20
79.792452562086694
 30
0.0
 11
144.2280060422199
 21
79.792452562086694
 31
0.0
  0
ARC
  5
5C
  8
2
 10
136.5280060422198
 20
84.492452562086669
 30
0.0
 40
0.3
 50
90.0
 51
180.0
  0
ARC
  5
5D
  8
2
 10
143.92800604221989
 20
84.492452562086669
 30
0.0
 40
0.3
 50
0.0
 51
90.0
  0
ARC
  5
5E
  8
2
 10
136.5280060422198
 20
77.092452562086734
 30
0.0
 40
0.3
 50
180.0
 51
270.0
  0
ARC
  5
5F
  8
2
 10
143.92800604221989
 20
77.092452562086734
 30
0.0
 40
0.3
 50
270.0
 51
0.0
  0
ARC
  5
60
  8
2
 10
143.92800604221989
 20
66.492452562086726
 30
0.0
 40
0.3
 50
0.0
 51
90.0
  0
ARC
  5
61
  8
2
 10
136.5280060422198
 20
66.492452562086726
 30
0.0
 40
0.3
 50
90.0
 51
180.0
  0
LINE
  5
62
  8
2
 10
136.5280060422198
 20
66.792452562086737
 30
0.0
 11
143.92800604221989
 21
66.792452562086737
 31
0.0
  0
LINE
  5
63
  8
2
 10
141.96005684978891
 20
63.792452562086758
 30
0.0
 11
144.2280060422199
 21
63.792452562086758
 31
0.0
  0
LINE
  5
64
  8
2
 10
141.96005684978891
 20
61.79245256208673
 30
0.0
 11
144.2280060422199
 21
61.79245256208673
 31
0.0
  0
CIRCLE
  5
65
  8
2
 10
140.22800604221979
 20
62.79245256208668
 30
0.0
 40
2.0
  0
LINE
  5
66
  8
2
 10
136.22800604221979
 20
61.79245256208673
 30
0.0
 11
138.49595523465081
 21
61.79245256208673
 31
0.0
  0
LINE
  5
67
  8
2
 10
136.22800604221979
 20
63.792452562086758
 30
0.0
 11
138.49595523465081
 21
63.792452562086758
 31
0.0
  0
ARC
  5
68
  8
2
 10
136.5280060422198
 20
59.09245256208677
 30
0.0
 40
0.3
 50
180.0
 51
270.0
  0
ARC
  5
69
  8
2
 10
143.92800604221989
 20
59.09245256208677
 30
0.0
 40
0.3
 50
270.0
 51
0.0
  0
LINE
  5
6A
  8
2
 10
135.0280060422198
 20
83.164347742750223
 30
0.0
 11
136.22800604221979
 21
83.164347742750223
 31
0.0
  0
LINE
  5
6B
  8
2
 10
135.0280060422198
 20
60.42055738142323
 30
0.0
 11
136.22800604221979
 21
60.42055738142323
 31
0.0
  0
ARC
  5
6C
  8
2
 10
144.0280060422198
 20
58.992452562086719
 30
0.0
 40
0.2
 50
270.0
 51
0.0
  0
ARC
  5
6D
  8
2
 10
144.0280060422198
 20
84.592452562086734
 30
0.0
 40
0.2
 50
0.0
 51
90.0
  0
LINE
  5
6E
  8
2
 10
131.72800604222019
 20
84.792452562086694
 30
0.0
 11
134.87800604221991
 21
84.792452562086694
 31
0.0
  0
LINE
  5
6F
  8
2
 10
136.22800604221979
 20
85.392452562086703
 30
0.0
 11
134.87800604221991
 21
85.392452562086703
 31
0.0
  0
LINE
  5
70
  8
2
 10
136.22800604221979
 20
84.792452562086694
 30
0.0
 11
144.0280060422198
 21
84.792452562086694
 31
0.0
  0
LINE
  5
71
  8
2
 10
131.72800604222019
 20
84.792452562086694
 30
0.0
 11
130.72800604221999
 21
85.169802831276215
 31
0.0
  0
LINE
  5
72
  8
2
 10
149.72800604221999
 20
82.79245256208668
 30
0.0
 11
144.2280060422199
 21
82.79245256208668
 31
0.0
  0
LINE
  5
73
  8
2
 10
149.72800604221999
 20
60.792452562086787
 30
0.0
 11
144.2280060422199
 21
60.792452562086787
 31
0.0
  0
LINE
  5
74
  8
2
 10
131.72800604222019
 20
58.792452562086758
 30
0.0
 11
131.72800604222019
 21
84.792452562086694
 31
0.0
  0
LINE
  5
75
  8
2
 10
131.72800604222019
 20
58.792452562086758
 30
0.0
 11
130.72800604221999
 21
58.215102292897143
 31
0.0
  0
LINE
  5
76
  8
2
 10
136.22800604221979
 20
58.792452562086758
 30
0.0
 11
144.0280060422198
 21
58.792452562086758
 31
0.0
  0
LINE
  5
77
  8
2
 10
136.22800604221979
 20
58.192452562086743
 30
0.0
 11
134.87800604221991
 21
58.192452562086743
 31
0.0
  0
LINE
  5
78
  8
2
 10
131.72800604222019
 20
58.792452562086758
 30
0.0
 11
134.87800604221991
 21
58.792452562086758
 31
0.0
  0
LINE
  5
79
  8
1
 10
126.7280060422199
 20
71.792452562086737
 30
0.0
 11
156.1058586943287
 21
71.792452562086737
 31
0.0
  0
LINE
  5
7A
  8
0
 10
149.72800604221999
 20
46.792452562086588
 30
0.0
 11
149.72800604221999
 21
96.792452562086567
 31
0.0
  0
LINE
  5
7B
  8
0
 10
130.72800604221999
 20
46.792452562087021
 30
0.0
 11
130.72800604221999
 21
96.792452562086567
 31
0.0
  0
LINE
  5
98
  8
0
 10
131.72144643938421
 20
96.792452562086567
 30
0.0
 11
131.72144643938421
 21
46.792452562086901
 31
0.0
  0
LINE
  5
99
  8
0
 10
148.73456564505571
 20
46.79245256208668
 30
0.0
 11
148.73456564506151
 21
96.792452562086794
 31
0.0
  0
CIRCLE
  5
B5
  8
2
 10
56.728006042219931
 20
71.792452562086737
 30
0.0
 40
17.50000000000006
  0
TEXT
  5
15C
  8
0
 62
     3
 10
0.0
 20
0.0
 30
0.0
 40
10.0
  1
GRL50J-Y
  7
STANDARD1
  0
ENDSEC
  0
EOF
