  0
SECTION
  2
HEADER
  9
$ACADVER
  1
AC1009
  9
$INSBASE
 10
0.0
 20
0.0
 30
0.0
  9
$EXTMIN
 10
0.0
 20
-2.960436562073669
 30
0.0
  9
$EXTMAX
 10
121.1050477489768
 20
68.0
 30
0.0
  9
$LIMMIN
 10
0.0
 20
0.0
  9
$LIMMAX
 10
187.5
 20
135.0
  9
$ORTHOMODE
 70
     1
  9
$REGENMODE
 70
     1
  9
$FILLMODE
 70
     1
  9
$QTEXTMODE
 70
     0
  9
$MIRRTEXT
 70
     0
  9
$DRAGMODE
 70
     2
  9
$LTSCALE
 40
5.0
  9
$OSMODE
 70
    37
  9
$ATTMODE
 70
     1
  9
$TEXTSIZE
 40
0.2
  9
$TRACEWID
 40
0.05
  9
$TEXTSTYLE
  7
STANDARD
  9
$CLAYER
  8
0
  9
$CELTYPE
  6
BYLAYER
  9
$CECOLOR
 62
   256
  9
$DIMSCALE
 40
0.5
  9
$DIMASZ
 40
3.0
  9
$DIMEXO
 40
2.0
  9
$DIMDLI
 40
0.38
  9
$DIMRND
 40
0.0
  9
$DIMDLE
 40
0.0
  9
$DIMEXE
 40
2.0
  9
$DIMTP
 40
0.0
  9
$DIMTM
 40
0.0
  9
$DIMTXT
 40
3.0
  9
$DIMCEN
 40
0.0
  9
$DIMTSZ
 40
0.0
  9
$DIMTOL
 70
     0
  9
$DIMLIM
 70
     0
  9
$DIMTIH
 70
     0
  9
$DIMTOH
 70
     0
  9
$DIMSE1
 70
     0
  9
$DIMSE2
 70
     0
  9
$DIMTAD
 70
     1
  9
$DIMZIN
 70
     8
  9
$DIMBLK
  1

  9
$DIMASO
 70
     0
  9
$DIMSHO
 70
     0
  9
$DIMPOST
  1

  9
$DIMAPOST
  1

  9
$DIMALT
 70
     0
  9
$DIMALTD
 70
     2
  9
$DIMALTF
 40
25.399999999999999
  9
$DIMLFAC
 40
1.0
  9
$DIMTOFL
 70
     1
  9
$DIMTVP
 40
1.6000000000000001
  9
$DIMTIX
 70
     1
  9
$DIMSOXD
 70
     0
  9
$DIMSAH
 70
     0
  9
$DIMBLK1
  1

  9
$DIMBLK2
  1

  9
$DIMSTYLE
  2
STANDARD
  9
$DIMCLRD
 70
     0
  9
$DIMCLRE
 70
     0
  9
$DIMCLRT
 70
     0
  9
$DIMTFAC
 40
1.0
  9
$DIMGAP
 40
0.09
  9
$LUNITS
 70
     2
  9
$LUPREC
 70
     1
  9
$SKETCHINC
 40
0.1
  9
$FILLETRAD
 40
0.5
  9
$AUNITS
 70
     0
  9
$AUPREC
 70
     0
  9
$MENU
  1
E:\r13\win\SUPPORT\ACAD
  9
$ELEVATION
 40
0.0
  9
$PELEVATION
 40
0.0
  9
$THICKNESS
 40
0.0
  9
$LIMCHECK
 70
     0
  9
$BLIPMODE
 70
     0
  9
$CHAMFERA
 40
0.2
  9
$CHAMFERB
 40
0.2
  9
$SKPOLY
 70
     0
  9
$TDCREATE
 40
2449840.6116550928
  9
$TDUPDATE
 40
2459250.5873305439
  9
$TDINDWG
 40
0.0660110764
  9
$TDUSRTIMER
 40
0.0660110764
  9
$USRTIMER
 70
     1
  9
$ANGBASE
 50
0.0
  9
$ANGDIR
 70
     0
  9
$PDMODE
 70
     0
  9
$PDSIZE
 40
0.0
  9
$PLINEWID
 40
0.0
  9
$COORDS
 70
     1
  9
$SPLFRAME
 70
     0
  9
$SPLINETYPE
 70
     6
  9
$SPLINESEGS
 70
     8
  9
$ATTDIA
 70
     0
  9
$ATTREQ
 70
     1
  9
$HANDLING
 70
     1
  9
$HANDSEED
  5
E62
  9
$SURFTAB1
 70
     6
  9
$SURFTAB2
 70
     6
  9
$SURFTYPE
 70
     6
  9
$SURFU
 70
     6
  9
$SURFV
 70
     6
  9
$UCSNAME
  2

  9
$UCSORG
 10
0.0
 20
0.0
 30
0.0
  9
$UCSXDIR
 10
1.0
 20
0.0
 30
0.0
  9
$UCSYDIR
 10
0.0
 20
1.0
 30
0.0
  9
$PUCSNAME
  2

  9
$PUCSORG
 10
0.0
 20
0.0
 30
0.0
  9
$PUCSXDIR
 10
1.0
 20
0.0
 30
0.0
  9
$PUCSYDIR
 10
0.0
 20
1.0
 30
0.0
  9
$USERI1
 70
     3
  9
$USERI2
 70
     1
  9
$USERI3
 70
     0
  9
$USERI4
 70
     0
  9
$USERI5
 70
     0
  9
$USERR1
 40
0.5
  9
$USERR2
 40
3.0
  9
$USERR3
 40
3.0
  9
$USERR4
 40
3.0
  9
$USERR5
 40
10.0
  9
$WORLDVIEW
 70
     1
  9
$SHADEDGE
 70
     3
  9
$SHADEDIF
 70
    70
  9
$TILEMODE
 70
     1
  9
$MAXACTVP
 70
    16
  9
$PLIMCHECK
 70
     0
  9
$PEXTMIN
 10
1.0000000000000000E+020
 20
1.0000000000000000E+020
 30
1.0000000000000000E+020
  9
$PEXTMAX
 10
-1.0000000000000000E+020
 20
-1.0000000000000000E+020
 30
-1.0000000000000000E+020
  9
$PLIMMIN
 10
0.0
 20
0.0
  9
$PLIMMAX
 10
12.0
 20
9.0
  9
$UNITMODE
 70
     0
  9
$VISRETAIN
 70
     0
  9
$PLINEGEN
 70
     0
  9
$PSLTSCALE
 70
     0
  0
ENDSEC
  0
SECTION
  2
TABLES
  0
TABLE
  2
VPORT
 70
     1
  0
VPORT
  2
*ACTIVE
 70
     0
 10
0.0
 20
0.0
 11
1.0
 21
1.0
 12
132.35294117647061
 22
50.0
 13
0.0
 23
0.0
 14
5.0
 24
5.0
 15
10.0
 25
10.0
 16
0.0
 26
0.0
 36
1.0
 17
0.0
 27
0.0
 37
0.0
 40
100.0
 41
2.6470588235294108
 42
50.0
 43
0.0
 44
0.0
 50
0.0
 51
0.0
 71
     0
 72
   100
 73
     1
 74
     0
 75
     0
 76
     0
 77
     0
 78
     0
  0
ENDTAB
  0
TABLE
  2
LTYPE
 70
     4
  0
LTYPE
  2
CONTINUOUS
 70
     0
  3
Solid Line
 72
    65
 73
     0
 40
0.0
  0
LTYPE
  2
CENTER
 70
     0
  3
____ _ ____ _ ____ _ ____ _ ____ _ ____ _ ____
 72
    65
 73
     4
 40
2.0
 49
1.25
 49
-0.25
 49
0.25
 49
-0.25
  0
LTYPE
  2
HIDDEN
 70
     0
  3
_ _ _ _ _ _ _ _ _ _ _ _ _ _ _ _ _ _ _ _ _ _ _
 72
    65
 73
     2
 40
0.375
 49
0.25
 49
-0.125
  0
LTYPE
  2
PHANTOM2
 70
     0
  3
___ _ _ ___ _ _ ___ _ _ ___ _ _
 72
    65
 73
     6
 40
1.25
 49
0.625
 49
-0.125
 49
0.125
 49
-0.125
 49
0.125
 49
-0.125
  0
ENDTAB
  0
TABLE
  2
LAYER
 70
     5
  0
LAYER
  2
0
 70
     0
 62
     7
  6
CONTINUOUS
  0
LAYER
  2
1
 70
     0
 62
     1
  6
CENTER
  0
LAYER
  2
2
 70
     0
 62
     2
  6
HIDDEN
  0
LAYER
  2
DEFPOINTS
 70
     0
 62
     7
  6
CONTINUOUS
  0
LAYER
  2
3
 70
     0
 62
     3
  6
CONTINUOUS
  0
ENDTAB
  0
TABLE
  2
STYLE
 70
     2
  0
STYLE
  2
STANDARD
 70
     0
 40
0.0
 41
1.0
 50
0.0
 71
     0
 42
0.2
  3
TXT
  4
BIGFONT
  0
STYLE
  2
STANDARD1
 70
     0
 40
0.0
 41
1.0
 50
0.0
 71
     0
 42
3.0
  3
txt
  4

  0
ENDTAB
  0
TABLE
  2
VIEW
 70
     0
  0
ENDTAB
  0
TABLE
  2
UCS
 70
     0
  0
ENDTAB
  0
TABLE
  2
APPID
 70
     7
  0
APPID
  2
ACAD
 70
     0
  0
APPID
  2
ACAD_MLEADERVER
 70
     0
  0
APPID
  2
ACAD_NAV_VCDISPLAY
 70
     0
  0
APPID
  2
ACAD_EXEMPT_FROM_CAD_STANDARDS
 70
     0
  0
APPID
  2
ACAD_DSTYLE_DIMRADIAL_EXTENSION
 70
     0
  0
APPID
  2
ACAD_DSTYLE_DIMJAG
 70
     0
  0
APPID
  2
ACAD_DSTYLE_DIMTALN
 70
     0
  0
ENDTAB
  0
TABLE
  2
DIMSTYLE
 70
     1
  0
DIMSTYLE
  2
STANDARD
 70
     0
  3

  4

  5

  6

  7

 40
1.0
 41
0.18
 42
0.0625
 43
0.38
 44
0.18
 45
0.0
 46
0.0
 47
0.0
 48
0.0
140
0.18
141
0.09
142
0.0
143
25.399999999999999
144
1.0
145
0.0
146
1.0
147
0.09
 71
     0
 72
     0
 73
     1
 74
     1
 75
     0
 76
     0
 77
     0
 78
     0
170
     0
171
     2
172
     0
173
     0
174
     0
175
     0
176
     0
177
     0
178
     0
  0
ENDTAB
  0
ENDSEC
  0
SECTION
  2
BLOCKS
  0
BLOCK
  8
0
  2
$MODEL_SPACE
 70
     0
 10
0.0
 20
0.0
 30
0.0
  3
$MODEL_SPACE
  1

  0
ENDBLK
  5
DF
  8
0
  0
BLOCK
 67
     1
  8
0
  2
$PAPER_SPACE
 70
     0
 10
0.0
 20
0.0
 30
0.0
  3
$PAPER_SPACE
  1

  0
ENDBLK
  5
DD
 67
     1
  8
0
  0
ENDSEC
  0
SECTION
  2
ENTITIES
  0
TEXT
  5
1D1
  8
0
 62
     3
 10
0.0
 20
0.0
 30
0.0
 40
10.0
  1
GRL30M6P-R-SUS
  7
STANDARD1
  0
ARC
  5
B1C
  8
2
 10
96.800000000000011
 20
60.699999999999989
 30
0.0
 40
0.3
 50
90.0
 51
180.0
  0
LINE
  5
B1D
  8
2
 10
103.2
 20
61.0
 30
0.0
 11
96.800000000000011
 21
61.0
 31
0.0
  0
ARC
  5
B1E
  8
2
 10
103.2
 20
60.699999999999989
 30
0.0
 40
0.3
 50
0.0
 51
90.0
  0
ARC
  5
B1F
  8
2
 10
96.800000000000011
 20
39.299999999999983
 30
0.0
 40
0.3
 50
180.0
 51
270.0
  0
LINE
  5
B20
  8
2
 10
103.2
 20
39.0
 30
0.0
 11
96.800000000000011
 21
39.0
 31
0.0
  0
ARC
  5
B21
  8
2
 10
103.2
 20
39.299999999999983
 30
0.0
 40
0.3
 50
270.0
 51
0.0
  0
ARC
  5
B22
  8
2
 10
96.800000000000011
 20
45.699999999999989
 30
0.0
 40
0.3
 50
90.0
 51
180.0
  0
ARC
  5
B23
  8
2
 10
103.2
 20
45.699999999999989
 30
0.0
 40
0.3
 50
0.0
 51
90.0
  0
ARC
  5
B24
  8
2
 10
96.800000000000011
 20
54.300000000000011
 30
0.0
 40
0.3
 50
180.0
 51
270.0
  0
ARC
  5
B25
  8
2
 10
103.2
 20
54.300000000000011
 30
0.0
 40
0.3
 50
270.0
 51
0.0
  0
CIRCLE
  5
B26
  8
2
 10
100.0
 20
42.5
 30
0.0
 40
1.984499999999999
  0
LINE
  5
B27
  8
2
 10
98.285869999999974
 20
43.5
 30
0.0
 11
97.837262000000024
 21
43.5
 31
0.0
  0
LINE
  5
B28
  8
2
 10
98.285869999999974
 20
41.5
 30
0.0
 11
97.837262000000024
 21
41.5
 31
0.0
  0
ARC
  5
B29
  8
2
 10
100.03
 20
42.5
 30
0.0
 40
2.0600000000000001
 50
150.9589
 51
209.0411
  0
ARC
  5
B2A
  8
2
 10
100.03
 20
42.5
 30
0.0
 40
2.4100000000000001
 50
155.48460299999971
 51
204.51539700000029
  0
LINE
  5
B2B
  8
2
 10
101.71413
 20
43.5
 30
0.0
 11
102.162738
 21
43.5
 31
0.0
  0
LINE
  5
B2C
  8
2
 10
101.71413
 20
41.5
 30
0.0
 11
102.162738
 21
41.5
 31
0.0
  0
ARC
  5
B2D
  8
2
 10
99.969999999999985
 20
42.5
 30
0.0
 40
2.0600000000000001
 50
330.95890000000003
 51
29.041099999999961
  0
ARC
  5
B2E
  8
2
 10
99.969999999999985
 20
42.5
 30
0.0
 40
2.4100000000000001
 50
335.48460299999971
 51
24.515397000000299
  0
LINE
  5
B2F
  8
2
 10
96.5
 20
40.484999999999978
 30
0.0
 11
96.800000000000011
 21
40.484999999999978
 31
0.0
  0
LINE
  5
B30
  8
2
 10
97.099999999999994
 20
40.409999999999989
 30
0.0
 11
96.800000000000011
 21
40.409999999999989
 31
0.0
  0
LINE
  5
B31
  8
2
 10
96.5
 20
44.75
 30
0.0
 11
97.199999999999974
 21
44.75
 31
0.0
  0
LINE
  5
B32
  8
2
 10
96.800000000000011
 20
44.649999999999999
 30
0.0
 11
97.099999999999994
 21
44.649999999999999
 31
0.0
  0
LINE
  5
B33
  8
2
 10
97.199999999999974
 20
43.93
 30
0.0
 11
98.624013000000005
 21
43.93
 31
0.0
  0
LINE
  5
B34
  8
2
 10
97.199999999999974
 20
44.75
 30
0.0
 11
97.199999999999974
 21
43.93
 31
0.0
  0
LINE
  5
B35
  8
2
 10
97.099999999999994
 20
40.484999999999978
 30
0.0
 11
97.400000000000006
 21
40.484999999999978
 31
0.0
  0
LINE
  5
B36
  8
2
 10
96.800000000000011
 20
40.909999999999997
 30
0.0
 11
96.800000000000011
 21
40.409999999999989
 31
0.0
  0
LINE
  5
B37
  8
2
 10
97.099999999999994
 20
40.909999999999997
 30
0.0
 11
96.800000000000011
 21
40.909999999999997
 31
0.0
  0
LINE
  5
B38
  8
2
 10
97.099999999999994
 20
40.409999999999989
 30
0.0
 11
97.099999999999994
 21
40.909999999999997
 31
0.0
  0
LINE
  5
B39
  8
2
 10
96.800000000000011
 20
41.209999999999972
 30
0.0
 11
97.099999999999994
 21
40.909999999999997
 31
0.0
  0
LINE
  5
B3A
  8
2
 10
96.800000000000011
 20
41.209999999999972
 30
0.0
 11
96.800000000000011
 21
44.649999999999999
 31
0.0
  0
LINE
  5
B3B
  8
2
 10
97.400000000000006
 20
41.034264
 30
0.0
 11
97.099999999999994
 21
41.334264000000019
 31
0.0
  0
LINE
  5
B3C
  8
2
 10
97.099999999999994
 20
41.334264000000019
 30
0.0
 11
97.099999999999994
 21
44.649999999999999
 31
0.0
  0
LINE
  5
B3D
  8
2
 10
97.400000000000006
 20
40.484999999999978
 30
0.0
 11
97.400000000000006
 21
41.034264
 31
0.0
  0
LINE
  5
B3E
  8
2
 10
97.400000000000006
 20
41.0
 30
0.0
 11
98.700676999999985
 21
41.0
 31
0.0
  0
LINE
  5
B3F
  8
2
 10
103.5
 20
40.484999999999978
 30
0.0
 11
103.2
 21
40.484999999999978
 31
0.0
  0
LINE
  5
B40
  8
2
 10
102.90000000000001
 20
40.409999999999989
 30
0.0
 11
103.2
 21
40.409999999999989
 31
0.0
  0
LINE
  5
B41
  8
2
 10
103.5
 20
44.75
 30
0.0
 11
102.8
 21
44.75
 31
0.0
  0
LINE
  5
B42
  8
2
 10
103.2
 20
44.649999999999999
 30
0.0
 11
102.90000000000001
 21
44.649999999999999
 31
0.0
  0
LINE
  5
B43
  8
2
 10
102.8
 20
44.75
 30
0.0
 11
102.8
 21
43.93
 31
0.0
  0
LINE
  5
B44
  8
2
 10
102.90000000000001
 20
40.484999999999978
 30
0.0
 11
102.59999999999999
 21
40.484999999999978
 31
0.0
  0
LINE
  5
B45
  8
2
 10
103.2
 20
40.909999999999997
 30
0.0
 11
103.2
 21
40.409999999999989
 31
0.0
  0
LINE
  5
B46
  8
2
 10
102.90000000000001
 20
40.909999999999997
 30
0.0
 11
103.2
 21
40.909999999999997
 31
0.0
  0
LINE
  5
B47
  8
2
 10
102.90000000000001
 20
40.409999999999989
 30
0.0
 11
102.90000000000001
 21
40.909999999999997
 31
0.0
  0
LINE
  5
B48
  8
2
 10
103.2
 20
41.209999999999972
 30
0.0
 11
102.90000000000001
 21
40.909999999999997
 31
0.0
  0
LINE
  5
B49
  8
2
 10
103.2
 20
41.209999999999972
 30
0.0
 11
103.2
 21
44.649999999999999
 31
0.0
  0
LINE
  5
B4A
  8
2
 10
102.59999999999999
 20
41.034264
 30
0.0
 11
102.90000000000001
 21
41.334264000000019
 31
0.0
  0
LINE
  5
B4B
  8
2
 10
102.90000000000001
 20
41.334264000000019
 30
0.0
 11
102.90000000000001
 21
44.649999999999999
 31
0.0
  0
LINE
  5
B4C
  8
2
 10
102.59999999999999
 20
40.484999999999978
 30
0.0
 11
102.59999999999999
 21
41.034264
 31
0.0
  0
LINE
  5
B4D
  8
2
 10
101.37598699999999
 20
43.93
 30
0.0
 11
102.8
 21
43.93
 31
0.0
  0
LINE
  5
B4E
  8
2
 10
101.299323
 20
41.0
 30
0.0
 11
102.59999999999999
 21
41.0
 31
0.0
  0
CIRCLE
  5
B4F
  8
2
 10
100.0
 20
57.5
 30
0.0
 40
1.984499999999999
  0
LINE
  5
B50
  8
2
 10
98.285869999999974
 20
56.5
 30
0.0
 11
97.837262000000024
 21
56.5
 31
0.0
  0
LINE
  5
B51
  8
2
 10
98.285869999999974
 20
58.5
 30
0.0
 11
97.837262000000024
 21
58.5
 31
0.0
  0
ARC
  5
B52
  8
2
 10
100.03
 20
57.5
 30
0.0
 40
2.0600000000000001
 50
150.9589
 51
209.0411
  0
ARC
  5
B53
  8
2
 10
100.03
 20
57.5
 30
0.0
 40
2.4100000000000001
 50
155.48460299999971
 51
204.51539700000029
  0
LINE
  5
B54
  8
2
 10
101.71413
 20
56.5
 30
0.0
 11
102.162738
 21
56.5
 31
0.0
  0
LINE
  5
B55
  8
2
 10
101.71413
 20
58.5
 30
0.0
 11
102.162738
 21
58.5
 31
0.0
  0
ARC
  5
B56
  8
2
 10
99.969999999999985
 20
57.5
 30
0.0
 40
2.0600000000000001
 50
330.95890000000003
 51
29.041099999999101
  0
ARC
  5
B57
  8
2
 10
99.969999999999985
 20
57.5
 30
0.0
 40
2.4100000000000001
 50
335.48460299999971
 51
24.515397000000299
  0
LINE
  5
B58
  8
2
 10
96.5
 20
59.514999999999993
 30
0.0
 11
96.800000000000011
 21
59.514999999999993
 31
0.0
  0
LINE
  5
B59
  8
2
 10
97.099999999999994
 20
59.590000000000003
 30
0.0
 11
96.800000000000011
 21
59.590000000000003
 31
0.0
  0
LINE
  5
B5A
  8
2
 10
96.5
 20
55.25
 30
0.0
 11
97.199999999999974
 21
55.25
 31
0.0
  0
LINE
  5
B5B
  8
2
 10
96.800000000000011
 20
55.350000000000001
 30
0.0
 11
97.099999999999994
 21
55.350000000000001
 31
0.0
  0
LINE
  5
B5C
  8
2
 10
97.199999999999974
 20
56.069999999999993
 30
0.0
 11
98.624013000000005
 21
56.069999999999993
 31
0.0
  0
LINE
  5
B5D
  8
2
 10
97.199999999999974
 20
55.25
 30
0.0
 11
97.199999999999974
 21
56.069999999999993
 31
0.0
  0
LINE
  5
B5E
  8
2
 10
97.099999999999994
 20
59.514999999999993
 30
0.0
 11
97.400000000000006
 21
59.514999999999993
 31
0.0
  0
LINE
  5
B5F
  8
2
 10
96.800000000000011
 20
59.090000000000003
 30
0.0
 11
96.800000000000011
 21
59.590000000000003
 31
0.0
  0
LINE
  5
B60
  8
2
 10
97.099999999999994
 20
59.090000000000003
 30
0.0
 11
96.800000000000011
 21
59.090000000000003
 31
0.0
  0
LINE
  5
B61
  8
2
 10
97.099999999999994
 20
59.590000000000003
 30
0.0
 11
97.099999999999994
 21
59.090000000000003
 31
0.0
  0
LINE
  5
B62
  8
2
 10
96.800000000000011
 20
58.79000000000002
 30
0.0
 11
97.099999999999994
 21
59.090000000000003
 31
0.0
  0
LINE
  5
B63
  8
2
 10
96.800000000000011
 20
58.79000000000002
 30
0.0
 11
96.800000000000011
 21
55.350000000000001
 31
0.0
  0
LINE
  5
B64
  8
2
 10
97.400000000000006
 20
58.965735999999993
 30
0.0
 11
97.099999999999994
 21
58.665735999999981
 31
0.0
  0
LINE
  5
B65
  8
2
 10
97.099999999999994
 20
58.665735999999981
 30
0.0
 11
97.099999999999994
 21
55.350000000000001
 31
0.0
  0
LINE
  5
B66
  8
2
 10
97.400000000000006
 20
59.514999999999993
 30
0.0
 11
97.400000000000006
 21
58.965735999999993
 31
0.0
  0
LINE
  5
B67
  8
2
 10
97.400000000000006
 20
59.0
 30
0.0
 11
98.700676999999985
 21
59.0
 31
0.0
  0
LINE
  5
B68
  8
2
 10
103.5
 20
59.514999999999993
 30
0.0
 11
103.2
 21
59.514999999999993
 31
0.0
  0
LINE
  5
B69
  8
2
 10
102.90000000000001
 20
59.590000000000003
 30
0.0
 11
103.2
 21
59.590000000000003
 31
0.0
  0
LINE
  5
B6A
  8
2
 10
103.5
 20
55.25
 30
0.0
 11
102.8
 21
55.25
 31
0.0
  0
LINE
  5
B6B
  8
2
 10
103.2
 20
55.350000000000001
 30
0.0
 11
102.90000000000001
 21
55.350000000000001
 31
0.0
  0
LINE
  5
B6C
  8
2
 10
102.8
 20
55.25
 30
0.0
 11
102.8
 21
56.069999999999993
 31
0.0
  0
LINE
  5
B6D
  8
2
 10
102.90000000000001
 20
59.514999999999993
 30
0.0
 11
102.59999999999999
 21
59.514999999999993
 31
0.0
  0
LINE
  5
B6E
  8
2
 10
103.2
 20
59.090000000000003
 30
0.0
 11
103.2
 21
59.590000000000003
 31
0.0
  0
LINE
  5
B6F
  8
2
 10
102.90000000000001
 20
59.090000000000003
 30
0.0
 11
103.2
 21
59.090000000000003
 31
0.0
  0
LINE
  5
B70
  8
2
 10
102.90000000000001
 20
59.590000000000003
 30
0.0
 11
102.90000000000001
 21
59.090000000000003
 31
0.0
  0
LINE
  5
B71
  8
2
 10
103.2
 20
58.79000000000002
 30
0.0
 11
102.90000000000001
 21
59.090000000000003
 31
0.0
  0
LINE
  5
B72
  8
2
 10
103.2
 20
58.79000000000002
 30
0.0
 11
103.2
 21
55.350000000000001
 31
0.0
  0
LINE
  5
B73
  8
2
 10
102.59999999999999
 20
58.965735999999993
 30
0.0
 11
102.90000000000001
 21
58.665735999999981
 31
0.0
  0
LINE
  5
B74
  8
2
 10
102.90000000000001
 20
58.665735999999981
 30
0.0
 11
102.90000000000001
 21
55.350000000000001
 31
0.0
  0
LINE
  5
B75
  8
2
 10
102.59999999999999
 20
59.514999999999993
 30
0.0
 11
102.59999999999999
 21
58.965735999999993
 31
0.0
  0
LINE
  5
B76
  8
2
 10
101.37598699999999
 20
56.069999999999993
 30
0.0
 11
102.8
 21
56.069999999999993
 31
0.0
  0
LINE
  5
B77
  8
2
 10
101.299323
 20
59.0
 30
0.0
 11
102.59999999999999
 21
59.0
 31
0.0
  0
LINE
  5
B78
  8
2
 10
96.5
 20
39.75
 30
0.0
 11
95.5
 21
39.75
 31
0.0
  0
LINE
  5
B79
  8
2
 10
103.5
 20
39.75
 30
0.0
 11
104.5
 21
39.75
 31
0.0
  0
LINE
  5
B7A
  8
2
 10
96.5
 20
60.25
 30
0.0
 11
95.5
 21
60.25
 31
0.0
  0
LINE
  5
B7B
  8
2
 10
103.5
 20
60.25
 30
0.0
 11
104.5
 21
60.25
 31
0.0
  0
LINE
  5
B7C
  8
0
 10
104.5
 20
44.900000000000013
 30
0.0
 11
105.5
 21
44.900000000000013
 31
0.0
  0
LINE
  5
B7D
  8
0
 10
104.5
 20
55.099999999999987
 30
0.0
 11
105.5
 21
55.099999999999987
 31
0.0
  0
LINE
  5
B7E
  8
0
 10
113.0
 20
53.0
 30
0.0
 11
113.5
 21
52.5
 31
0.0
  0
LINE
  5
B7F
  8
0
 10
113.5
 20
47.5
 30
0.0
 11
113.5
 21
52.5
 31
0.0
  0
LINE
  5
B80
  8
0
 10
113.0
 20
47.0
 30
0.0
 11
113.5
 21
47.5
 31
0.0
  0
LINE
  5
B81
  8
2
 10
96.5
 20
60.699999999999989
 30
0.0
 11
96.5
 21
54.0
 31
0.0
  0
LINE
  5
B82
  8
2
 10
96.5
 20
46.0
 30
0.0
 11
96.5
 21
39.299999999999983
 31
0.0
  0
LINE
  5
B83
  8
2
 10
96.199999999999989
 20
54.0
 30
0.0
 11
96.199999999999989
 21
46.0
 31
0.0
  0
LINE
  5
B84
  8
2
 10
96.199999999999989
 20
46.0
 30
0.0
 11
103.5
 21
46.0
 31
0.0
  0
LINE
  5
B85
  8
2
 10
96.199999999999989
 20
54.0
 30
0.0
 11
103.5
 21
54.0
 31
0.0
  0
LINE
  5
B86
  8
1
 10
92.500000000000028
 20
50.0
 30
0.0
 11
116.5
 21
50.0
 31
0.0
  0
LINE
  5
B87
  8
2
 10
103.5
 20
39.299999999999983
 30
0.0
 11
103.5
 21
60.699999999999989
 31
0.0
  0
LINE
  5
B88
  8
0
 10
105.5
 20
55.099999999999987
 30
0.0
 11
105.5
 21
44.900000000000013
 31
0.0
  0
LINE
  5
B8A
  8
0
 10
104.5
 20
64.800000000000026
 30
0.0
 11
104.5
 21
35.20000000000001
 31
0.0
  0
LINE
  5
B8C
  8
0
 10
95.5
 20
64.799999999999997
 30
0.0
 11
95.5
 21
35.200000000000003
 31
0.0
  0
LINE
  5
B8D
  8
0
 10
105.5
 20
52.349999999999987
 30
0.0
 11
107.5
 21
52.349999999999987
 31
0.0
  0
LINE
  5
B8E
  8
0
 10
105.5
 20
47.649999999999999
 30
0.0
 11
107.5
 21
47.649999999999999
 31
0.0
  0
LINE
  5
B8F
  8
0
 10
113.0
 20
53.0
 30
0.0
 11
107.5
 21
53.0
 31
0.0
  0
LINE
  5
B90
  8
0
 10
113.0
 20
47.0
 30
0.0
 11
107.5
 21
47.0
 31
0.0
  0
LINE
  5
B91
  8
0
 10
107.5
 20
53.0
 30
0.0
 11
107.5
 21
47.0
 31
0.0
  0
LINE
  5
B92
  8
2
 10
103.4999999999999
 20
44.900000000000013
 30
0.0
 11
104.5
 21
44.900000000000013
 31
0.0
  0
LINE
  5
B93
  8
2
 10
103.4999999999999
 20
55.099999999999987
 30
0.0
 11
104.5
 21
55.099999999999987
 31
0.0
  0
LINE
  5
B94
  8
0
 10
47.500000000000277
 20
48.55662432702615
 30
0.0
 11
50.000000000000277
 21
47.113248654052022
 31
0.0
  0
LINE
  5
B95
  8
0
 10
50.000000000000277
 20
47.113248654052022
 30
0.0
 11
52.5
 21
48.55662432702615
 31
0.0
  0
LINE
  5
B96
  8
0
 10
52.5
 20
48.55662432702615
 30
0.0
 11
52.5
 21
51.443375672974689
 31
0.0
  0
LINE
  5
B97
  8
0
 10
52.5
 20
51.443375672974689
 30
0.0
 11
50.0
 21
52.886751345948248
 31
0.0
  0
LINE
  5
B98
  8
0
 10
50.0
 20
52.886751345948248
 30
0.0
 11
47.499999999999709
 21
51.443375672973843
 31
0.0
  0
LINE
  5
B99
  8
0
 10
47.499999999999709
 20
51.443375672973843
 30
0.0
 11
47.500000000000277
 21
48.55662432702615
 31
0.0
  0
LINE
  5
B9A
  8
3
 10
107.5
 20
52.458500000000129
 30
0.0
 11
113.5
 21
52.4585000000001
 31
0.0
  0
LINE
  5
B9B
  8
3
 10
107.4999999999999
 20
47.541499999999949
 30
0.0
 11
113.5
 21
47.541499999999949
 31
0.0
  0
LINE
  5
B9C
  8
0
 10
113.0
 20
53.0
 30
0.0
 11
113.0
 21
47.0
 31
0.0
  0
LINE
  5
B9D
  8
1
 10
68.0
 20
50.0
 30
0.0
 11
32.0
 21
50.0
 31
0.0
  0
LINE
  5
B9E
  8
1
 10
50.0
 20
68.0
 30
0.0
 11
50.0
 21
32.0
 31
0.0
  0
CIRCLE
  5
B9F
  8
0
 10
50.0
 20
50.0
 30
0.0
 40
15.0
  0
CIRCLE
  5
BA0
  8
2
 10
50.0
 20
50.0
 30
0.0
 40
13.0
  0
CIRCLE
  5
BA1
  8
2
 10
50.0
 20
50.0
 30
0.0
 40
11.0
  0
CIRCLE
  5
BA2
  8
0
 10
50.0
 20
50.0
 30
0.0
 40
4.0
  0
CIRCLE
  5
BA3
  8
0
 10
50.0
 20
50.0
 30
0.0
 40
10.25
  0
CIRCLE
  5
BA4
  8
0
 10
50.0
 20
50.0
 30
0.0
 40
5.25
  0
CIRCLE
  5
BA5
  8
0
 10
50.0
 20
50.0
 30
0.0
 40
9.0900000000000034
  0
CIRCLE
  5
BA6
  8
0
 10
50.0
 20
50.0
 30
0.0
 40
9.5149999999999864
  0
LINE
  5
CB1
  8
2
 10
99.699999999999974
 20
52.886751345948248
 30
0.0
 11
99.699999999999974
 21
47.113248654052022
 31
0.0
  0
LINE
  5
CB2
  8
2
 10
96.199999999999989
 20
52.886751345948248
 30
0.0
 11
99.699999999999974
 21
52.886751345948248
 31
0.0
  0
LINE
  5
CB3
  8
2
 10
96.199999999999989
 20
51.443375672974689
 30
0.0
 11
99.699999999999974
 21
51.443375672974689
 31
0.0
  0
LINE
  5
CB4
  8
2
 10
96.199999999999989
 20
48.55662432702615
 30
0.0
 11
99.699999999999974
 21
48.55662432702615
 31
0.0
  0
LINE
  5
CB5
  8
2
 10
96.199999999999989
 20
47.113248654052022
 30
0.0
 11
99.699999999999974
 21
47.113248654052022
 31
0.0
  0
LINE
  5
CB6
  8
2
 10
99.699999999999974
 20
52.886751345948248
 30
0.0
 11
101.3666666666667
 21
50.0
 31
0.0
  0
LINE
  5
CB7
  8
2
 10
99.699999999999974
 20
47.113248654051738
 30
0.0
 11
101.3666666666667
 21
50.0
 31
0.0
  0
LINE
  5
D9C
  8
0
 10
104.3
 20
65.0
 30
0.0
 11
102.4494897427832
 21
65.0
 31
0.0
  0
LINE
  5
D9D
  8
0
 10
104.3
 20
35.0
 30
0.0
 11
102.4494897427832
 21
35.0
 31
0.0
  0
ARC
  5
DA1
  8
0
 10
100.0
 20
65.5
 30
0.0
 40
2.5
 50
191.5369590328155
 51
348.4630409671845
  0
LINE
  5
DA2
  8
0
 10
97.550510257216843
 20
65.0
 30
0.0
 11
95.700000000000017
 21
65.0
 31
0.0
  0
ARC
  5
DA3
  8
0
 10
100.0
 20
34.5
 30
0.0
 40
2.5
 50
11.53695903281565
 51
168.4630409671843
  0
LINE
  5
DA4
  8
0
 10
97.550510257216843
 20
35.0
 30
0.0
 11
95.700000000000003
 21
35.0
 31
0.0
  0
LINE
  5
DA6
  8
0
 10
95.5
 20
64.799999999999997
 30
0.0
 11
95.700000000000003
 21
65.0
 31
0.0
  0
LINE
  5
DA7
  8
0
 10
104.3
 20
65.0
 30
0.0
 11
104.5
 21
64.799999999999997
 31
0.0
  0
LINE
  5
DA8
  8
0
 10
95.5
 20
35.200000000000003
 30
0.0
 11
95.700000000000003
 21
35.0
 31
0.0
  0
LINE
  5
DA9
  8
0
 10
104.3
 20
35.0
 30
0.0
 11
104.5
 21
35.200000000000003
 31
0.0
  0
ENDSEC
  0
EOF
