  0
SECTION
  2
HEADER
  9
$ACADVER
  1
AC1009
  9
$INSBASE
 10
0.0
 20
0.0
 30
0.0
  9
$EXTMIN
 10
0.0
 20
-1.4802182810368341
 30
0.0
  9
$EXTMAX
 10
175.40000000000001
 20
81.098730181343839
 30
0.0
  9
$LIMMIN
 10
0.0
 20
0.0
  9
$LIMMAX
 10
187.5
 20
135.0
  9
$ORTHOMODE
 70
     1
  9
$REGENMODE
 70
     1
  9
$FILLMODE
 70
     1
  9
$QTEXTMODE
 70
     0
  9
$MIRRTEXT
 70
     0
  9
$DRAGMODE
 70
     2
  9
$LTSCALE
 40
5.0
  9
$OSMODE
 70
    37
  9
$ATTMODE
 70
     1
  9
$TEXTSIZE
 40
0.06
  9
$TRACEWID
 40
0.05
  9
$TEXTSTYLE
  7
STANDARD
  9
$CLAYER
  8
0
  9
$CELTYPE
  6
BYLAYER
  9
$CECOLOR
 62
   256
  9
$DIMSCALE
 40
0.5
  9
$DIMASZ
 40
3.0
  9
$DIMEXO
 40
2.0
  9
$DIMDLI
 40
10.0
  9
$DIMRND
 40
0.0
  9
$DIMDLE
 40
0.0
  9
$DIMEXE
 40
2.0
  9
$DIMTP
 40
0.0
  9
$DIMTM
 40
0.0
  9
$DIMTXT
 40
3.0
  9
$DIMCEN
 40
0.0
  9
$DIMTSZ
 40
0.0
  9
$DIMTOL
 70
     0
  9
$DIMLIM
 70
     0
  9
$DIMTIH
 70
     0
  9
$DIMTOH
 70
     0
  9
$DIMSE1
 70
     0
  9
$DIMSE2
 70
     0
  9
$DIMTAD
 70
     1
  9
$DIMZIN
 70
     8
  9
$DIMBLK
  1

  9
$DIMASO
 70
     1
  9
$DIMSHO
 70
     0
  9
$DIMPOST
  1

  9
$DIMAPOST
  1

  9
$DIMALT
 70
     0
  9
$DIMALTD
 70
     2
  9
$DIMALTF
 40
25.399999999999999
  9
$DIMLFAC
 40
1.0
  9
$DIMTOFL
 70
     1
  9
$DIMTVP
 40
1.6000000000000001
  9
$DIMTIX
 70
     1
  9
$DIMSOXD
 70
     0
  9
$DIMSAH
 70
     0
  9
$DIMBLK1
  1

  9
$DIMBLK2
  1

  9
$DIMSTYLE
  2
STANDARD
  9
$DIMCLRD
 70
     0
  9
$DIMCLRE
 70
     0
  9
$DIMCLRT
 70
     0
  9
$DIMTFAC
 40
1.0
  9
$DIMGAP
 40
0.09
  9
$LUNITS
 70
     2
  9
$LUPREC
 70
     1
  9
$SKETCHINC
 40
0.1
  9
$FILLETRAD
 40
0.0
  9
$AUNITS
 70
     0
  9
$AUPREC
 70
     1
  9
$MENU
  1
E:\r13\win\SUPPORT\ACAD
  9
$ELEVATION
 40
0.0
  9
$PELEVATION
 40
0.0
  9
$THICKNESS
 40
0.0
  9
$LIMCHECK
 70
     0
  9
$BLIPMODE
 70
     0
  9
$CHAMFERA
 40
0.0
  9
$CHAMFERB
 40
0.0
  9
$SKPOLY
 70
     0
  9
$TDCREATE
 40
2449840.5918518519
  9
$TDUPDATE
 40
2457711.4315382871
  9
$TDINDWG
 40
0.210039838
  9
$TDUSRTIMER
 40
2456598.3030596301
  9
$USRTIMER
 70
     1
  9
$ANGBASE
 50
0.0
  9
$ANGDIR
 70
     0
  9
$PDMODE
 70
     1
  9
$PDSIZE
 40
0.0
  9
$PLINEWID
 40
0.0
  9
$COORDS
 70
     1
  9
$SPLFRAME
 70
     0
  9
$SPLINETYPE
 70
     6
  9
$SPLINESEGS
 70
     8
  9
$ATTDIA
 70
     0
  9
$ATTREQ
 70
     1
  9
$HANDLING
 70
     1
  9
$HANDSEED
  5
8793
  9
$SURFTAB1
 70
     6
  9
$SURFTAB2
 70
     6
  9
$SURFTYPE
 70
     6
  9
$SURFU
 70
     6
  9
$SURFV
 70
     6
  9
$UCSNAME
  2

  9
$UCSORG
 10
0.0
 20
0.0
 30
0.0
  9
$UCSXDIR
 10
1.0
 20
0.0
 30
0.0
  9
$UCSYDIR
 10
0.0
 20
1.0
 30
0.0
  9
$PUCSNAME
  2

  9
$PUCSORG
 10
0.0
 20
0.0
 30
0.0
  9
$PUCSXDIR
 10
1.0
 20
0.0
 30
0.0
  9
$PUCSYDIR
 10
0.0
 20
1.0
 30
0.0
  9
$USERI1
 70
     3
  9
$USERI2
 70
     1
  9
$USERI3
 70
     1
  9
$USERI4
 70
     0
  9
$USERI5
 70
     0
  9
$USERR1
 40
0.5
  9
$USERR2
 40
3.0
  9
$USERR3
 40
3.0
  9
$USERR4
 40
3.0
  9
$USERR5
 40
10.0
  9
$WORLDVIEW
 70
     1
  9
$SHADEDGE
 70
     3
  9
$SHADEDIF
 70
    70
  9
$TILEMODE
 70
     1
  9
$MAXACTVP
 70
    16
  9
$PLIMCHECK
 70
     0
  9
$PEXTMIN
 10
1.0000000000000000E+020
 20
1.0000000000000000E+020
 30
1.0000000000000000E+020
  9
$PEXTMAX
 10
-1.0000000000000000E+020
 20
-1.0000000000000000E+020
 30
-1.0000000000000000E+020
  9
$PLIMMIN
 10
0.0
 20
0.0
  9
$PLIMMAX
 10
12.0
 20
9.0
  9
$UNITMODE
 70
     0
  9
$VISRETAIN
 70
     0
  9
$PLINEGEN
 70
     0
  9
$PSLTSCALE
 70
     0
  0
ENDSEC
  0
SECTION
  2
TABLES
  0
TABLE
  2
VPORT
 70
     1
  0
VPORT
  2
*ACTIVE
 70
     0
 10
0.0
 20
0.0
 11
1.0
 21
1.0
 12
172.55044476548889
 22
95.0
 13
0.0
 23
0.0
 14
5.0
 24
5.0
 15
10.0
 25
10.0
 16
0.0
 26
0.0
 36
1.0
 17
0.0
 27
0.0
 37
0.0
 40
190.02692649439399
 41
1.816239316239316
 42
50.0
 43
0.0
 44
0.0
 50
0.0
 51
0.0
 71
     0
 72
   100
 73
     1
 74
     0
 75
     0
 76
     0
 77
     0
 78
     2
  0
ENDTAB
  0
TABLE
  2
LTYPE
 70
     3
  0
LTYPE
  2
CONTINUOUS
 70
     0
  3
Solid Line
 72
    65
 73
     0
 40
0.0
  0
LTYPE
  2
CENTER
 70
     0
  3
____ _ ____ _ ____ _ ____ _ ____ _ ____ _ ____
 72
    65
 73
     4
 40
2.0
 49
1.25
 49
-0.25
 49
0.25
 49
-0.25
  0
LTYPE
  2
PHANTOM2
 70
     0
  3
___ _ _ ___ _ _ ___ _ _ ___ _ _
 72
    65
 73
     6
 40
1.25
 49
0.625
 49
-0.125
 49
0.125
 49
-0.125
 49
0.125
 49
-0.125
  0
ENDTAB
  0
TABLE
  2
LAYER
 70
     4
  0
LAYER
  2
0
 70
     0
 62
     7
  6
CONTINUOUS
  0
LAYER
  2
1
 70
     0
 62
     1
  6
CENTER
  0
LAYER
  2
DEFPOINTS
 70
     0
 62
     7
  6
CONTINUOUS
  0
LAYER
  2
3
 70
     0
 62
     3
  6
CONTINUOUS
  0
ENDTAB
  0
TABLE
  2
STYLE
 70
     2
  0
STYLE
  2
STANDARD
 70
     0
 40
0.0
 41
1.0
 50
0.0
 71
     0
 42
0.06
  3
TXT
  4
BIGFONT
  0
STYLE
  2
STANDARD1
 70
     0
 40
0.0
 41
1.0
 50
0.0
 71
     0
 42
3.0
  3
txt
  4

  0
ENDTAB
  0
TABLE
  2
VIEW
 70
     1
  0
VIEW
  2
OLE1
 70
     0
 40
49.461987069607659
 10
68.652811878138095
 20
25.624498797118591
 41
61.510419817332611
 11
0.0
 21
0.0
 31
1.0
 12
0.0
 22
0.0
 32
0.0
 42
50.0
 43
0.0
 44
0.0
 50
0.0
 71
     0
  0
ENDTAB
  0
TABLE
  2
UCS
 70
     0
  0
ENDTAB
  0
TABLE
  2
APPID
 70
     8
  0
APPID
  2
ACAD
 70
     0
  0
APPID
  2
ACAD_MLEADERVER
 70
     0
  0
APPID
  2
ACAD_NAV_VCDISPLAY
 70
     0
  0
APPID
  2
ACAD_EXEMPT_FROM_CAD_STANDARDS
 70
     0
  0
APPID
  2
ACAD_DSTYLE_DIMJAG
 70
     0
  0
APPID
  2
ACAD_DSTYLE_DIMTALN
 70
     0
  0
APPID
  2
MCAD_NO_VIS
 70
     0
  0
APPID
  2
DCO15
 70
     0
  0
ENDTAB
  0
TABLE
  2
DIMSTYLE
 70
     1
  0
DIMSTYLE
  2
STANDARD
 70
     0
  3

  4

  5

  6

  7

 40
1.0
 41
0.18
 42
0.0625
 43
0.38
 44
0.18
 45
0.0
 46
0.0
 47
0.0
 48
0.0
140
0.18
141
0.09
142
0.0
143
25.399999999999999
144
1.0
145
0.0
146
1.0
147
0.09
 71
     0
 72
     0
 73
     1
 74
     1
 75
     0
 76
     0
 77
     0
 78
     0
170
     0
171
     2
172
     0
173
     0
174
     0
175
     0
176
     0
177
     0
178
     0
  0
ENDTAB
  0
ENDSEC
  0
SECTION
  2
BLOCKS
  0
BLOCK
  8
0
  2
$MODEL_SPACE
 70
     0
 10
0.0
 20
0.0
 30
0.0
  3
$MODEL_SPACE
  1

  0
ENDBLK
  5
BD
  8
0
  0
BLOCK
 67
     1
  8
0
  2
$PAPER_SPACE
 70
     0
 10
0.0
 20
0.0
 30
0.0
  3
$PAPER_SPACE
  1

  0
ENDBLK
  5
BB
 67
     1
  8
0
  0
ENDSEC
  0
SECTION
  2
ENTITIES
  0
TEXT
  5
2FF
  8
0
 62
     3
 10
0.0
 20
0.0
 30
0.0
 40
5.0
  1
GP-604H-A
  7
STANDARD1
  0
LINE
  5
1A9F
  8
0
 10
20.0
 20
20.0
 30
0.0
 11
172.40000000000001
 21
20.0
 31
0.0
  0
LINE
  5
1AA1
  8
0
 10
20.000000000000028
 20
26.35000000000003
 30
0.0
 11
172.40000000000001
 21
26.35000000000003
 31
0.0
  0
LINE
  5
1AA3
  8
0
 10
20.000000000000028
 20
21.587499999999991
 30
0.0
 11
172.40000000000001
 21
21.587499999999991
 31
0.0
  0
LINE
  5
1AA6
  8
0
 10
20.000000000000028
 20
26.35000000000003
 30
0.0
 11
20.000000000000028
 21
18.800000000000001
 31
0.0
  0
LINE
  5
1AA7
  8
0
 10
172.40000000000001
 20
26.35000000000003
 30
0.0
 11
172.40000000000001
 21
18.800000000000001
 31
0.0
  0
LINE
  5
1AB1
  8
0
 10
20.0
 20
78.098730181343839
 30
0.0
 11
172.40000000000001
 21
78.098730181343839
 31
0.0
  0
LINE
  5
1AB2
  8
0
 10
172.40000000000001
 20
78.098730181343839
 30
0.0
 11
172.40000000000001
 21
46.348730181343853
 31
0.0
  0
LINE
  5
1AB3
  8
0
 10
172.40000000000001
 20
46.348730181343853
 30
0.0
 11
20.0
 21
46.348730181343853
 31
0.0
  0
LINE
  5
1AB4
  8
0
 10
20.0
 20
46.348730181343853
 30
0.0
 11
20.0
 21
78.098730181343839
 31
0.0
  0
LINE
  5
1AB9
  8
1
 10
175.40000000000001
 20
62.223730181343839
 30
0.0
 11
17.0
 21
62.223730181343839
 31
0.0
  0
LINE
  5
1ABA
  8
1
 10
96.200000000000003
 20
15.800000000000001
 30
0.0
 11
96.200000000000003
 21
29.35000000000003
 31
0.0
  0
LINE
  5
1AC1
  8
1
 10
96.200000000000003
 20
43.348730181343853
 30
0.0
 11
96.200000000000003
 21
81.098730181343839
 31
0.0
  0
LINE
  5
55B6
  8
0
 10
20.000000000000028
 20
24.889499978162348
 30
0.0
 11
172.40000000000001
 21
24.889499978162348
 31
0.0
  0
LINE
  5
6A15
  8
3
 10
46.968143131488063
 20
78.098731194622843
 30
0.0
 11
19.999999058246601
 21
51.130588713620533
 31
0.0
  0
LINE
  5
6A16
  8
3
 10
51.458272980945992
 20
78.098731194622829
 30
0.0
 11
19.999999058246601
 21
46.64045912926651
 31
0.0
  0
LINE
  5
6A17
  8
3
 10
55.948402830403971
 20
78.098731194622843
 30
0.0
 11
24.19839994255781
 21
46.348730181343853
 31
0.0
  0
LINE
  5
6A18
  8
3
 10
60.438532679861972
 20
78.098731194622843
 30
0.0
 11
28.6885297920158
 21
46.348730181343853
 31
0.0
  0
LINE
  5
6A19
  8
3
 10
64.928662529319922
 20
78.098731194622843
 30
0.0
 11
33.178659641473757
 21
46.348730181343853
 31
0.0
  0
LINE
  5
6A1A
  8
3
 10
69.41879237877788
 20
78.098731194622843
 30
0.0
 11
37.668789490931722
 21
46.348730181343853
 31
0.0
  0
LINE
  5
6A1B
  8
3
 10
73.908922228235838
 20
78.098731194622843
 30
0.0
 11
42.158919340389673
 21
46.348730181343853
 31
0.0
  0
LINE
  5
6A1C
  8
3
 10
78.399052077693796
 20
78.098731194622843
 30
0.0
 11
46.649049189847617
 21
46.348730181343853
 31
0.0
  0
LINE
  5
6A1D
  8
3
 10
82.889181927151753
 20
78.098731194622843
 30
0.0
 11
51.139179039305589
 21
46.348730181343861
 31
0.0
  0
LINE
  5
6A1E
  8
3
 10
87.379311776609711
 20
78.098731194622843
 30
0.0
 11
55.629308888763553
 21
46.348730181343853
 31
0.0
  0
LINE
  5
6A1F
  8
3
 10
91.869441626067669
 20
78.098731194622843
 30
0.0
 11
60.119438738221511
 21
46.348730181343853
 31
0.0
  0
LINE
  5
6A20
  8
3
 10
96.359571475525627
 20
78.098731194622843
 30
0.0
 11
64.609568587679462
 21
46.348730181343853
 31
0.0
  0
LINE
  5
6A21
  8
3
 10
100.8497013249836
 20
78.098731194622843
 30
0.0
 11
69.099698437137477
 21
46.348730181343853
 31
0.0
  0
LINE
  5
6A22
  8
3
 10
105.3398311744416
 20
78.098731194622843
 30
0.0
 11
73.589828286595434
 21
46.348730181343853
 31
0.0
  0
LINE
  5
6A23
  8
3
 10
109.8299610238995
 20
78.098731194622843
 30
0.0
 11
78.079958136053392
 21
46.348730181343853
 31
0.0
  0
LINE
  5
6A24
  8
3
 10
114.3200908733575
 20
78.098731194622843
 30
0.0
 11
82.57008798551135
 21
46.348730181343853
 31
0.0
  0
LINE
  5
6A25
  8
3
 10
118.8102207228155
 20
78.098731194622843
 30
0.0
 11
87.060217834969308
 21
46.348730181343853
 31
0.0
  0
LINE
  5
6A26
  8
3
 10
123.3003505722734
 20
78.098731194622843
 30
0.0
 11
91.550347684427265
 21
46.348730181343853
 31
0.0
  0
LINE
  5
6A27
  8
3
 10
127.7904804217314
 20
78.098731194622843
 30
0.0
 11
96.040477533885223
 21
46.348730181343853
 31
0.0
  0
LINE
  5
6A28
  8
3
 10
132.28061027118929
 20
78.098731194622843
 30
0.0
 11
100.5306073833432
 21
46.348730181343853
 31
0.0
  0
LINE
  5
6A29
  8
3
 10
136.7707401206473
 20
78.098731194622843
 30
0.0
 11
105.0207372328011
 21
46.348730181343853
 31
0.0
  0
LINE
  5
6A2A
  8
3
 10
141.26086997010529
 20
78.098731194622843
 30
0.0
 11
109.5108670822591
 21
46.348730181343853
 31
0.0
  0
LINE
  5
6A2B
  8
3
 10
145.75099981956319
 20
78.098731194622843
 30
0.0
 11
114.000996931717
 21
46.348730181343853
 31
0.0
  0
LINE
  5
6A2C
  8
3
 10
150.24112966902121
 20
78.098731194622843
 30
0.0
 11
118.491126781175
 21
46.348730181343853
 31
0.0
  0
LINE
  5
6A2D
  8
3
 10
154.73125951847911
 20
78.098731194622843
 30
0.0
 11
122.9812566306329
 21
46.348730181343853
 31
0.0
  0
LINE
  5
6A2E
  8
3
 10
159.22138936793709
 20
78.098731194622843
 30
0.0
 11
127.4713864800909
 21
46.348730181343853
 31
0.0
  0
LINE
  5
6A2F
  8
3
 10
163.71151921739499
 20
78.098731194622843
 30
0.0
 11
131.96151632954891
 21
46.348730181343853
 31
0.0
  0
LINE
  5
6A30
  8
3
 10
168.20164906685301
 20
78.098731194622843
 30
0.0
 11
136.45164617900679
 21
46.348730181343853
 31
0.0
  0
LINE
  5
6A31
  8
3
 10
172.4000009417534
 20
77.806953237292191
 30
0.0
 11
140.9417760284648
 21
46.348730181343853
 31
0.0
  0
LINE
  5
6A32
  8
3
 10
172.4000009417534
 20
73.316823652938155
 30
0.0
 11
145.43190587792279
 21
46.348730181343853
 31
0.0
  0
LINE
  5
6A33
  8
3
 10
172.4000009417534
 20
68.826694068584104
 30
0.0
 11
149.9220357273808
 21
46.348730181343853
 31
0.0
  0
LINE
  5
6A34
  8
3
 10
172.4000009417534
 20
64.336564484230081
 30
0.0
 11
154.4121655768387
 21
46.348730181343861
 31
0.0
  0
LINE
  5
6A35
  8
3
 10
172.4000009417534
 20
59.846434899876023
 30
0.0
 11
158.90229542629669
 21
46.348730181343853
 31
0.0
  0
LINE
  5
6A36
  8
3
 10
172.4000009417534
 20
55.356305315521979
 30
0.0
 11
163.39242527575459
 21
46.348730181343853
 31
0.0
  0
LINE
  5
6A37
  8
3
 10
172.4000009417534
 20
50.866175731167928
 30
0.0
 11
167.8825551252126
 21
46.348730181343853
 31
0.0
  0
LINE
  5
6A47
  8
3
 10
24.517502335323769
 20
78.098731194622843
 30
0.0
 11
19.999999058246601
 21
73.581228184265754
 31
0.0
  0
LINE
  5
6A48
  8
3
 10
29.007632184781698
 20
78.098731194622829
 30
0.0
 11
19.999999058246601
 21
69.091098599911732
 31
0.0
  0
LINE
  5
6A49
  8
3
 10
33.497762034239692
 20
78.098731194622843
 30
0.0
 11
19.999999058246601
 21
64.600969015557666
 31
0.0
  0
LINE
  5
6A4A
  8
3
 10
37.987891883697671
 20
78.098731194622843
 30
0.0
 11
19.999999058246601
 21
60.110839431203601
 31
0.0
  0
LINE
  5
6A4B
  8
3
 10
42.478021733155622
 20
78.098731194622843
 30
0.0
 11
19.999999058246601
 21
55.620709846849557
 31
0.0
  0
LINE
  5
6AD7
  8
3
 10
145.43185686851189
 20
78.098731194622843
 30
0.0
 11
172.4000009417534
 21
51.130588713620533
 31
0.0
  0
LINE
  5
6AD8
  8
3
 10
140.94172701905401
 20
78.098731194622829
 30
0.0
 11
172.4000009417534
 21
46.64045912926651
 31
0.0
  0
LINE
  5
6AD9
  8
3
 10
136.451597169596
 20
78.098731194622843
 30
0.0
 11
168.20160005744211
 21
46.348730181343853
 31
0.0
  0
LINE
  5
6ADA
  8
3
 10
131.96146732013801
 20
78.098731194622843
 30
0.0
 11
163.71147020798409
 21
46.348730181343853
 31
0.0
  0
LINE
  5
6ADB
  8
3
 10
127.47133747068
 20
78.098731194622843
 30
0.0
 11
159.22134035852619
 21
46.348730181343853
 31
0.0
  0
LINE
  5
6ADC
  8
3
 10
122.9812076212221
 20
78.098731194622843
 30
0.0
 11
154.73121050906821
 21
46.348730181343853
 31
0.0
  0
LINE
  5
6ADD
  8
3
 10
118.4910777717641
 20
78.098731194622843
 30
0.0
 11
150.2410806596103
 21
46.348730181343853
 31
0.0
  0
LINE
  5
6ADE
  8
3
 10
114.0009479223062
 20
78.098731194622843
 30
0.0
 11
145.75095081015229
 21
46.348730181343853
 31
0.0
  0
LINE
  5
6ADF
  8
3
 10
109.5108180728482
 20
78.098731194622843
 30
0.0
 11
141.26082096069439
 21
46.348730181343861
 31
0.0
  0
LINE
  5
6AE0
  8
3
 10
105.0206882233902
 20
78.098731194622843
 30
0.0
 11
136.7706911112364
 21
46.348730181343853
 31
0.0
  0
LINE
  5
6AE1
  8
3
 10
100.53055837393229
 20
78.098731194622843
 30
0.0
 11
132.28056126177839
 21
46.348730181343853
 31
0.0
  0
LINE
  5
6AE2
  8
3
 10
96.040428524474351
 20
78.098731194622843
 30
0.0
 11
127.7904314123205
 21
46.348730181343853
 31
0.0
  0
LINE
  5
6AE3
  8
3
 10
91.550298675016336
 20
78.098731194622843
 30
0.0
 11
123.3003015628625
 21
46.348730181343853
 31
0.0
  0
LINE
  5
6AE4
  8
3
 10
87.060168825558378
 20
78.098731194622843
 30
0.0
 11
118.8101717134045
 21
46.348730181343853
 31
0.0
  0
LINE
  5
6AE5
  8
3
 10
82.57003897610042
 20
78.098731194622843
 30
0.0
 11
114.3200418639466
 21
46.348730181343853
 31
0.0
  0
LINE
  5
6AE6
  8
3
 10
78.079909126642463
 20
78.098731194622843
 30
0.0
 11
109.8299120144886
 21
46.348730181343853
 31
0.0
  0
LINE
  5
6AE7
  8
3
 10
73.589779277184505
 20
78.098731194622843
 30
0.0
 11
105.3397821650307
 21
46.348730181343853
 31
0.0
  0
LINE
  5
6AE8
  8
3
 10
69.099649427726547
 20
78.098731194622843
 30
0.0
 11
100.8496523155727
 21
46.348730181343853
 31
0.0
  0
LINE
  5
6AE9
  8
3
 10
64.609519578268589
 20
78.098731194622843
 30
0.0
 11
96.359522466114754
 21
46.348730181343853
 31
0.0
  0
LINE
  5
6AEA
  8
3
 10
60.119389728810631
 20
78.098731194622843
 30
0.0
 11
91.869392616656796
 21
46.348730181343853
 31
0.0
  0
LINE
  5
6AEB
  8
3
 10
55.629259879352666
 20
78.098731194622843
 30
0.0
 11
87.379262767198838
 21
46.348730181343853
 31
0.0
  0
LINE
  5
6AEC
  8
3
 10
51.139130029894709
 20
78.098731194622843
 30
0.0
 11
82.889132917740881
 21
46.348730181343853
 31
0.0
  0
LINE
  5
6AED
  8
3
 10
46.649000180436758
 20
78.098731194622843
 30
0.0
 11
78.399003068282923
 21
46.348730181343853
 31
0.0
  0
LINE
  5
6AEE
  8
3
 10
42.1588703309788
 20
78.098731194622843
 30
0.0
 11
73.908873218824965
 21
46.348730181343853
 31
0.0
  0
LINE
  5
6AEF
  8
3
 10
37.66874048152085
 20
78.098731194622843
 30
0.0
 11
69.418743369367007
 21
46.348730181343853
 31
0.0
  0
LINE
  5
6AF0
  8
3
 10
33.178610632062892
 20
78.098731194622843
 30
0.0
 11
64.92861351990905
 21
46.348730181343853
 31
0.0
  0
LINE
  5
6AF1
  8
3
 10
28.68848078260493
 20
78.098731194622843
 30
0.0
 11
60.438483670451092
 21
46.348730181343853
 31
0.0
  0
LINE
  5
6AF2
  8
3
 10
24.198350933146969
 20
78.098731194622843
 30
0.0
 11
55.948353820993127
 21
46.348730181343853
 31
0.0
  0
LINE
  5
6AF3
  8
3
 10
19.999999058246601
 20
77.806953237292191
 30
0.0
 11
51.458223971535119
 21
46.348730181343853
 31
0.0
  0
LINE
  5
6AF4
  8
3
 10
19.999999058246601
 20
73.316823652938155
 30
0.0
 11
46.968094122077147
 21
46.348730181343853
 31
0.0
  0
LINE
  5
6AF5
  8
3
 10
19.999999058246601
 20
68.826694068584104
 30
0.0
 11
42.477964272619197
 21
46.348730181343853
 31
0.0
  0
LINE
  5
6AF6
  8
3
 10
19.999999058246601
 20
64.336564484230081
 30
0.0
 11
37.987834423161253
 21
46.348730181343861
 31
0.0
  0
LINE
  5
6AF7
  8
3
 10
19.999999058246601
 20
59.846434899876023
 30
0.0
 11
33.497704573703288
 21
46.348730181343853
 31
0.0
  0
LINE
  5
6AF8
  8
3
 10
19.999999058246601
 20
55.356305315521979
 30
0.0
 11
29.00757472424533
 21
46.348730181343853
 31
0.0
  0
LINE
  5
6AF9
  8
3
 10
19.999999058246601
 20
50.866175731167928
 30
0.0
 11
24.517444874787369
 21
46.348730181343853
 31
0.0
  0
LINE
  5
6AFA
  8
3
 10
167.88249766467621
 20
78.098731194622843
 30
0.0
 11
172.4000009417534
 21
73.581228184265754
 31
0.0
  0
LINE
  5
6AFB
  8
3
 10
163.39236781521831
 20
78.098731194622829
 30
0.0
 11
172.4000009417534
 21
69.091098599911732
 31
0.0
  0
LINE
  5
6AFC
  8
3
 10
158.90223796576029
 20
78.098731194622843
 30
0.0
 11
172.4000009417534
 21
64.600969015557666
 31
0.0
  0
LINE
  5
6AFD
  8
3
 10
154.41210811630231
 20
78.098731194622843
 30
0.0
 11
172.4000009417534
 21
60.110839431203601
 31
0.0
  0
LINE
  5
6AFE
  8
3
 10
149.92197826684429
 20
78.098731194622843
 30
0.0
 11
172.4000009417534
 21
55.620709846849557
 31
0.0
  0
LINE
  5
6D0B
  8
0
 10
134.36610372039291
 20
24.88949997816237
 30
0.0
 11
136.61116877767381
 21
26.350000000000051
 31
0.0
  0
LINE
  5
6D0C
  8
0
 10
136.61116877767381
 20
26.350000000000051
 30
0.0
 11
138.8562335698509
 21
24.88949997816237
 31
0.0
  0
LINE
  5
6D0D
  8
0
 10
138.8562335698509
 20
24.88949997816237
 30
0.0
 11
141.1012986271318
 21
26.350000000000051
 31
0.0
  0
LINE
  5
6D0E
  8
0
 10
141.1012986271318
 20
26.350000000000051
 30
0.0
 11
143.3463634193088
 21
24.88949997816237
 31
0.0
  0
LINE
  5
6D0F
  8
0
 10
143.3463634193088
 20
24.88949997816237
 30
0.0
 11
145.59142847658981
 21
26.350000000000051
 31
0.0
  0
LINE
  5
6D10
  8
0
 10
145.59142847658981
 20
26.350000000000051
 30
0.0
 11
147.83649326876679
 21
24.88949997816237
 31
0.0
  0
LINE
  5
6D11
  8
0
 10
147.83649326876679
 20
24.88949997816237
 30
0.0
 11
150.0815583260478
 21
26.350000000000051
 31
0.0
  0
LINE
  5
6D12
  8
0
 10
150.0815583260478
 20
26.350000000000051
 30
0.0
 11
152.3266231182248
 21
24.88949997816237
 31
0.0
  0
LINE
  5
6D13
  8
0
 10
152.3266231182248
 20
24.88949997816237
 30
0.0
 11
154.5716881755057
 21
26.350000000000051
 31
0.0
  0
LINE
  5
6D14
  8
0
 10
154.5716881755057
 20
26.350000000000051
 30
0.0
 11
156.8167529676827
 21
24.88949997816237
 31
0.0
  0
LINE
  5
6D15
  8
0
 10
156.8167529676827
 20
24.88949997816237
 30
0.0
 11
159.06181802496371
 21
26.350000000000051
 31
0.0
  0
LINE
  5
6D16
  8
0
 10
159.06181802496371
 20
26.350000000000051
 30
0.0
 11
161.30688281714069
 21
24.88949997816237
 31
0.0
  0
LINE
  5
6D17
  8
0
 10
161.30688281714069
 20
24.88949997816237
 30
0.0
 11
163.55194787442159
 21
26.350000000000051
 31
0.0
  0
LINE
  5
6D18
  8
0
 10
163.55194787442159
 20
26.350000000000051
 30
0.0
 11
165.7970126665987
 21
24.88949997816237
 31
0.0
  0
LINE
  5
6D19
  8
0
 10
165.7970126665987
 20
24.88949997816237
 30
0.0
 11
168.04207772387969
 21
26.350000000000051
 31
0.0
  0
LINE
  5
6D1A
  8
0
 10
168.04207772387969
 20
26.350000000000051
 30
0.0
 11
170.28714251605669
 21
24.88949997816237
 31
0.0
  0
LINE
  5
6D1B
  8
0
 10
170.28714251605669
 20
24.88949997816237
 30
0.0
 11
172.40000000000001
 21
26.263993956157151
 31
0.0
  0
LINE
  5
6D3D
  8
0
 10
22.112857483943628
 20
24.88949997816237
 30
0.0
 11
24.357922541224578
 21
26.350000000000051
 31
0.0
  0
LINE
  5
6D3E
  8
0
 10
24.357922541224578
 20
26.350000000000051
 30
0.0
 11
26.602987333401611
 21
24.88949997816237
 31
0.0
  0
LINE
  5
6D3F
  8
0
 10
26.6029873334016
 20
24.88949997816237
 30
0.0
 11
28.84805239068255
 21
26.350000000000051
 31
0.0
  0
LINE
  5
6D40
  8
0
 10
28.84805239068255
 20
26.350000000000051
 30
0.0
 11
31.09311718285959
 21
24.88949997816237
 31
0.0
  0
LINE
  5
6D41
  8
0
 10
31.093117182859569
 20
24.88949997816237
 30
0.0
 11
33.338182240140533
 21
26.350000000000051
 31
0.0
  0
LINE
  5
6D42
  8
0
 10
33.338182240140533
 20
26.350000000000051
 30
0.0
 11
35.583247032317558
 21
24.88949997816237
 31
0.0
  0
LINE
  5
6D43
  8
0
 10
35.583247032317537
 20
24.88949997816237
 30
0.0
 11
37.828312089598498
 21
26.350000000000051
 31
0.0
  0
LINE
  5
6D44
  8
0
 10
37.828312089598498
 20
26.350000000000051
 30
0.0
 11
40.073376881775523
 21
24.88949997816237
 31
0.0
  0
LINE
  5
6D45
  8
0
 10
40.073376881775509
 20
24.88949997816237
 30
0.0
 11
42.318441939056463
 21
26.350000000000051
 31
0.0
  0
LINE
  5
6D46
  8
0
 10
42.318441939056463
 20
26.350000000000051
 30
0.0
 11
44.563506731233502
 21
24.88949997816237
 31
0.0
  0
LINE
  5
6D47
  8
0
 10
44.563506731233481
 20
24.88949997816237
 30
0.0
 11
46.808571788514442
 21
26.350000000000051
 31
0.0
  0
LINE
  5
6D48
  8
0
 10
46.808571788514442
 20
26.350000000000051
 30
0.0
 11
49.053636580691467
 21
24.88949997816237
 31
0.0
  0
LINE
  5
6D49
  8
0
 10
49.05363658069146
 20
24.88949997816237
 30
0.0
 11
51.298701637972407
 21
26.350000000000051
 31
0.0
  0
LINE
  5
6D4A
  8
0
 10
51.298701637972407
 20
26.350000000000051
 30
0.0
 11
53.543766430149439
 21
24.88949997816237
 31
0.0
  0
LINE
  5
6D4B
  8
0
 10
53.543766430149432
 20
24.88949997816237
 30
0.0
 11
55.788831487430379
 21
26.350000000000051
 31
0.0
  0
LINE
  5
6D4C
  8
0
 10
55.788831487430379
 20
26.350000000000051
 30
0.0
 11
58.033896279607418
 21
24.88949997816237
 31
0.0
  0
LINE
  5
6D4D
  8
0
 10
58.033896279607397
 20
24.88949997816237
 30
0.0
 11
60.278961336888358
 21
26.350000000000051
 31
0.0
  0
LINE
  5
6D4E
  8
0
 10
60.278961336888358
 20
26.350000000000051
 30
0.0
 11
62.52402612906539
 21
24.88949997816237
 31
0.0
  0
LINE
  5
6D4F
  8
0
 10
62.524026129065369
 20
24.88949997816237
 30
0.0
 11
64.76909118634633
 21
26.350000000000051
 31
0.0
  0
LINE
  5
6D50
  8
0
 10
64.76909118634633
 20
26.350000000000051
 30
0.0
 11
67.014155978523362
 21
24.88949997816237
 31
0.0
  0
LINE
  5
6D51
  8
0
 10
67.014155978523348
 20
24.88949997816237
 30
0.0
 11
69.259221035804302
 21
26.350000000000051
 31
0.0
  0
LINE
  5
6D52
  8
0
 10
69.259221035804302
 20
26.350000000000051
 30
0.0
 11
71.504285827981334
 21
24.88949997816237
 31
0.0
  0
LINE
  5
6D53
  8
0
 10
71.50428582798132
 20
24.88949997816237
 30
0.0
 11
73.749350885262274
 21
26.350000000000051
 31
0.0
  0
LINE
  5
6D54
  8
0
 10
73.749350885262274
 20
26.350000000000051
 30
0.0
 11
75.994415677439306
 21
24.88949997816237
 31
0.0
  0
LINE
  5
6D55
  8
0
 10
75.994415677439292
 20
24.88949997816237
 30
0.0
 11
78.239480734720246
 21
26.350000000000051
 31
0.0
  0
LINE
  5
6D56
  8
0
 10
78.239480734720246
 20
26.350000000000051
 30
0.0
 11
80.484545526897278
 21
24.88949997816237
 31
0.0
  0
LINE
  5
6D57
  8
0
 10
80.484545526897264
 20
24.88949997816237
 30
0.0
 11
82.729610584178218
 21
26.350000000000051
 31
0.0
  0
LINE
  5
6D58
  8
0
 10
82.729610584178218
 20
26.350000000000051
 30
0.0
 11
84.97467537635525
 21
24.88949997816237
 31
0.0
  0
LINE
  5
6D59
  8
0
 10
84.974675376355236
 20
24.88949997816237
 30
0.0
 11
87.21974043363619
 21
26.350000000000051
 31
0.0
  0
LINE
  5
6D5A
  8
0
 10
87.21974043363619
 20
26.350000000000051
 30
0.0
 11
89.464805225813237
 21
24.88949997816237
 31
0.0
  0
LINE
  5
6D5B
  8
0
 10
89.464805225813208
 20
24.88949997816237
 30
0.0
 11
91.709870283094176
 21
26.350000000000051
 31
0.0
  0
LINE
  5
6D5C
  8
0
 10
91.709870283094176
 20
26.350000000000051
 30
0.0
 11
93.954935075271194
 21
24.88949997816237
 31
0.0
  0
LINE
  5
6D5D
  8
0
 10
93.954935075271194
 20
24.88949997816237
 30
0.0
 11
96.200000132552134
 21
26.350000000000051
 31
0.0
  0
LINE
  5
6D5E
  8
0
 10
96.200000132552134
 20
26.350000000000051
 30
0.0
 11
98.445064924729166
 21
24.88949997816237
 31
0.0
  0
LINE
  5
6D5F
  8
0
 10
98.445064924729166
 20
24.88949997816237
 30
0.0
 11
100.69012998201011
 21
26.350000000000051
 31
0.0
  0
LINE
  5
6D60
  8
0
 10
100.69012998201011
 20
26.350000000000051
 30
0.0
 11
102.9351947741871
 21
24.88949997816237
 31
0.0
  0
LINE
  5
6D61
  8
0
 10
102.9351947741871
 20
24.88949997816237
 30
0.0
 11
105.18025983146811
 21
26.350000000000051
 31
0.0
  0
LINE
  5
6D62
  8
0
 10
105.18025983146811
 20
26.350000000000051
 30
0.0
 11
107.4253246236451
 21
24.88949997816237
 31
0.0
  0
LINE
  5
6D63
  8
0
 10
107.4253246236451
 20
24.88949997816237
 30
0.0
 11
109.67038968092599
 21
26.350000000000051
 31
0.0
  0
LINE
  5
6D64
  8
0
 10
109.67038968092599
 20
26.350000000000051
 30
0.0
 11
111.9154544731031
 21
24.88949997816237
 31
0.0
  0
LINE
  5
6D65
  8
0
 10
111.915454473103
 20
24.88949997816237
 30
0.0
 11
114.16051953038399
 21
26.350000000000051
 31
0.0
  0
LINE
  5
6D66
  8
0
 10
114.16051953038399
 20
26.350000000000051
 30
0.0
 11
116.405584322561
 21
24.88949997816237
 31
0.0
  0
LINE
  5
6D67
  8
0
 10
116.405584322561
 20
24.88949997816237
 30
0.0
 11
118.65064937984199
 21
26.350000000000051
 31
0.0
  0
LINE
  5
6D68
  8
0
 10
118.65064937984199
 20
26.350000000000051
 30
0.0
 11
120.895714172019
 21
24.88949997816237
 31
0.0
  0
LINE
  5
6D69
  8
0
 10
120.895714172019
 20
24.88949997816237
 30
0.0
 11
123.14077922929999
 21
26.350000000000051
 31
0.0
  0
LINE
  5
6D6A
  8
0
 10
123.14077922929999
 20
26.350000000000051
 30
0.0
 11
125.385844021477
 21
24.88949997816237
 31
0.0
  0
LINE
  5
6D6B
  8
0
 10
125.385844021477
 20
24.88949997816237
 30
0.0
 11
127.6309090787579
 21
26.350000000000051
 31
0.0
  0
LINE
  5
6D6C
  8
0
 10
127.6309090787579
 20
26.350000000000051
 30
0.0
 11
129.8759738709349
 21
24.88949997816237
 31
0.0
  0
LINE
  5
6D6D
  8
0
 10
129.8759738709349
 20
24.88949997816237
 30
0.0
 11
132.12103892821591
 21
26.350000000000051
 31
0.0
  0
LINE
  5
6D6E
  8
0
 10
132.12103892821591
 20
26.350000000000051
 30
0.0
 11
134.36610372039291
 21
24.88949997816237
 31
0.0
  0
LINE
  5
6D6F
  8
0
 10
20.000000000000028
 20
26.263994118461671
 30
0.0
 11
22.112857483943682
 21
24.88949997816237
 31
0.0
  0
LINE
  5
7E88
  8
0
 10
20.0
 20
18.800000000000001
 30
0.0
 11
172.40000000000001
 21
18.800000000000001
 31
0.0
  0
ENDSEC
  0
EOF
