  0
SECTION
  2
HEADER
  9
$ACADVER
  1
AC1009
  9
$INSBASE
 10
0.0
 20
0.0
 30
0.0
  9
$EXTMIN
 10
0.0
 20
-1.4802182810368341
 30
0.0
  9
$EXTMAX
 10
54.750001013278961
 20
87.398731194622783
 30
0.0
  9
$LIMMIN
 10
0.0
 20
0.0
  9
$LIMMAX
 10
187.5
 20
135.0
  9
$ORTHOMODE
 70
     1
  9
$REGENMODE
 70
     1
  9
$FILLMODE
 70
     1
  9
$QTEXTMODE
 70
     0
  9
$MIRRTEXT
 70
     0
  9
$DRAGMODE
 70
     2
  9
$LTSCALE
 40
5.0
  9
$OSMODE
 70
    37
  9
$ATTMODE
 70
     1
  9
$TEXTSIZE
 40
0.06
  9
$TRACEWID
 40
0.05
  9
$TEXTSTYLE
  7
STANDARD
  9
$CLAYER
  8
0
  9
$CELTYPE
  6
BYLAYER
  9
$CECOLOR
 62
   256
  9
$DIMSCALE
 40
0.5
  9
$DIMASZ
 40
3.0
  9
$DIMEXO
 40
2.0
  9
$DIMDLI
 40
10.0
  9
$DIMRND
 40
0.0
  9
$DIMDLE
 40
0.0
  9
$DIMEXE
 40
2.0
  9
$DIMTP
 40
0.0
  9
$DIMTM
 40
0.0
  9
$DIMTXT
 40
3.0
  9
$DIMCEN
 40
0.0
  9
$DIMTSZ
 40
0.0
  9
$DIMTOL
 70
     0
  9
$DIMLIM
 70
     0
  9
$DIMTIH
 70
     0
  9
$DIMTOH
 70
     0
  9
$DIMSE1
 70
     0
  9
$DIMSE2
 70
     0
  9
$DIMTAD
 70
     1
  9
$DIMZIN
 70
     8
  9
$DIMBLK
  1

  9
$DIMASO
 70
     1
  9
$DIMSHO
 70
     0
  9
$DIMPOST
  1

  9
$DIMAPOST
  1

  9
$DIMALT
 70
     0
  9
$DIMALTD
 70
     2
  9
$DIMALTF
 40
25.399999999999999
  9
$DIMLFAC
 40
1.0
  9
$DIMTOFL
 70
     1
  9
$DIMTVP
 40
1.6000000000000001
  9
$DIMTIX
 70
     1
  9
$DIMSOXD
 70
     0
  9
$DIMSAH
 70
     0
  9
$DIMBLK1
  1

  9
$DIMBLK2
  1

  9
$DIMSTYLE
  2
STANDARD
  9
$DIMCLRD
 70
     0
  9
$DIMCLRE
 70
     0
  9
$DIMCLRT
 70
     0
  9
$DIMTFAC
 40
1.0
  9
$DIMGAP
 40
0.09
  9
$LUNITS
 70
     2
  9
$LUPREC
 70
     1
  9
$SKETCHINC
 40
0.1
  9
$FILLETRAD
 40
0.0
  9
$AUNITS
 70
     0
  9
$AUPREC
 70
     1
  9
$MENU
  1
E:\r13\win\SUPPORT\ACAD
  9
$ELEVATION
 40
0.0
  9
$PELEVATION
 40
0.0
  9
$THICKNESS
 40
0.0
  9
$LIMCHECK
 70
     0
  9
$BLIPMODE
 70
     0
  9
$CHAMFERA
 40
0.0
  9
$CHAMFERB
 40
0.0
  9
$SKPOLY
 70
     0
  9
$TDCREATE
 40
2449840.5918518519
  9
$TDUPDATE
 40
2457711.43149625
  9
$TDINDWG
 40
0.0593408218
  9
$TDUSRTIMER
 40
2456598.152360613
  9
$USRTIMER
 70
     1
  9
$ANGBASE
 50
0.0
  9
$ANGDIR
 70
     0
  9
$PDMODE
 70
     1
  9
$PDSIZE
 40
0.0
  9
$PLINEWID
 40
0.0
  9
$COORDS
 70
     1
  9
$SPLFRAME
 70
     0
  9
$SPLINETYPE
 70
     6
  9
$SPLINESEGS
 70
     8
  9
$ATTDIA
 70
     0
  9
$ATTREQ
 70
     1
  9
$HANDLING
 70
     1
  9
$HANDSEED
  5
380C
  9
$SURFTAB1
 70
     6
  9
$SURFTAB2
 70
     6
  9
$SURFTYPE
 70
     6
  9
$SURFU
 70
     6
  9
$SURFV
 70
     6
  9
$UCSNAME
  2

  9
$UCSORG
 10
0.0
 20
0.0
 30
0.0
  9
$UCSXDIR
 10
1.0
 20
0.0
 30
0.0
  9
$UCSYDIR
 10
0.0
 20
1.0
 30
0.0
  9
$PUCSNAME
  2

  9
$PUCSORG
 10
0.0
 20
0.0
 30
0.0
  9
$PUCSXDIR
 10
1.0
 20
0.0
 30
0.0
  9
$PUCSYDIR
 10
0.0
 20
1.0
 30
0.0
  9
$USERI1
 70
     3
  9
$USERI2
 70
     1
  9
$USERI3
 70
     1
  9
$USERI4
 70
     0
  9
$USERI5
 70
     0
  9
$USERR1
 40
0.5
  9
$USERR2
 40
3.0
  9
$USERR3
 40
3.0
  9
$USERR4
 40
3.0
  9
$USERR5
 40
10.0
  9
$WORLDVIEW
 70
     1
  9
$SHADEDGE
 70
     3
  9
$SHADEDIF
 70
    70
  9
$TILEMODE
 70
     1
  9
$MAXACTVP
 70
    16
  9
$PLIMCHECK
 70
     0
  9
$PEXTMIN
 10
1.0000000000000000E+020
 20
1.0000000000000000E+020
 30
1.0000000000000000E+020
  9
$PEXTMAX
 10
-1.0000000000000000E+020
 20
-1.0000000000000000E+020
 30
-1.0000000000000000E+020
  9
$PLIMMIN
 10
0.0
 20
0.0
  9
$PLIMMAX
 10
12.0
 20
9.0
  9
$UNITMODE
 70
     0
  9
$VISRETAIN
 70
     0
  9
$PLINEGEN
 70
     0
  9
$PSLTSCALE
 70
     0
  0
ENDSEC
  0
SECTION
  2
TABLES
  0
TABLE
  2
VPORT
 70
     1
  0
VPORT
  2
*ACTIVE
 70
     0
 10
0.0
 20
0.0
 11
1.0
 21
1.0
 12
119.37061205799451
 22
65.721649484536087
 13
0.0
 23
0.0
 14
5.0
 24
5.0
 15
10.0
 25
10.0
 16
0.0
 26
0.0
 36
1.0
 17
0.0
 27
0.0
 37
0.0
 40
131.4585555458315
 41
1.816239316239316
 42
50.0
 43
0.0
 44
0.0
 50
0.0
 51
0.0
 71
     0
 72
   100
 73
     1
 74
     0
 75
     0
 76
     0
 77
     0
 78
     2
  0
ENDTAB
  0
TABLE
  2
LTYPE
 70
     3
  0
LTYPE
  2
CONTINUOUS
 70
     0
  3
Solid Line
 72
    65
 73
     0
 40
0.0
  0
LTYPE
  2
CENTER
 70
     0
  3
____ _ ____ _ ____ _ ____ _ ____ _ ____ _ ____
 72
    65
 73
     4
 40
2.0
 49
1.25
 49
-0.25
 49
0.25
 49
-0.25
  0
LTYPE
  2
PHANTOM2
 70
     0
  3
___ _ _ ___ _ _ ___ _ _ ___ _ _
 72
    65
 73
     6
 40
1.25
 49
0.625
 49
-0.125
 49
0.125
 49
-0.125
 49
0.125
 49
-0.125
  0
ENDTAB
  0
TABLE
  2
LAYER
 70
     3
  0
LAYER
  2
0
 70
     0
 62
     7
  6
CONTINUOUS
  0
LAYER
  2
1
 70
     0
 62
     1
  6
CENTER
  0
LAYER
  2
3
 70
     0
 62
     3
  6
CONTINUOUS
  0
ENDTAB
  0
TABLE
  2
STYLE
 70
     2
  0
STYLE
  2
STANDARD
 70
     0
 40
0.0
 41
1.0
 50
0.0
 71
     0
 42
0.06
  3
TXT
  4
BIGFONT
  0
STYLE
  2
STANDARD1
 70
     0
 40
0.0
 41
1.0
 50
0.0
 71
     0
 42
3.0
  3
txt
  4

  0
ENDTAB
  0
TABLE
  2
VIEW
 70
     0
  0
ENDTAB
  0
TABLE
  2
UCS
 70
     0
  0
ENDTAB
  0
TABLE
  2
APPID
 70
     7
  0
APPID
  2
ACAD
 70
     0
  0
APPID
  2
ACAD_MLEADERVER
 70
     0
  0
APPID
  2
ACAD_NAV_VCDISPLAY
 70
     0
  0
APPID
  2
ACAD_EXEMPT_FROM_CAD_STANDARDS
 70
     0
  0
APPID
  2
ACAD_DSTYLE_DIMJAG
 70
     0
  0
APPID
  2
ACAD_DSTYLE_DIMTALN
 70
     0
  0
APPID
  2
MCAD_NO_VIS
 70
     0
  0
ENDTAB
  0
TABLE
  2
DIMSTYLE
 70
     1
  0
DIMSTYLE
  2
STANDARD
 70
     0
  3

  4

  5

  6

  7

 40
1.0
 41
0.18
 42
0.0625
 43
0.38
 44
0.18
 45
0.0
 46
0.0
 47
0.0
 48
0.0
140
0.18
141
0.09
142
0.0
143
25.399999999999999
144
1.0
145
0.0
146
1.0
147
0.09
 71
     0
 72
     0
 73
     1
 74
     1
 75
     0
 76
     0
 77
     0
 78
     0
170
     0
171
     2
172
     0
173
     0
174
     0
175
     0
176
     0
177
     0
178
     0
  0
ENDTAB
  0
ENDSEC
  0
SECTION
  2
BLOCKS
  0
BLOCK
  8
0
  2
$MODEL_SPACE
 70
     0
 10
0.0
 20
0.0
 30
0.0
  3
$MODEL_SPACE
  1

  0
ENDBLK
  5
BD
  8
0
  0
BLOCK
 67
     1
  8
0
  2
$PAPER_SPACE
 70
     0
 10
0.0
 20
0.0
 30
0.0
  3
$PAPER_SPACE
  1

  0
ENDBLK
  5
BB
 67
     1
  8
0
  0
ENDSEC
  0
SECTION
  2
ENTITIES
  0
TEXT
  5
2FF
  8
0
 62
     3
 10
0.0
 20
0.0
 30
0.0
 40
5.0
  1
GP-128F-A
  7
STANDARD1
  0
LINE
  5
A86
  8
0
 10
20.0
 20
21.587499980814751
 30
0.0
 11
51.750001013278961
 21
21.587499980814751
 31
0.0
  0
LINE
  5
A87
  8
0
 10
20.0
 20
20.0
 30
0.0
 11
51.750001013278961
 21
20.0
 31
0.0
  0
LINE
  5
AC4
  8
0
 10
50.46791692051449
 20
32.700000000000003
 30
0.0
 11
51.590449018780248
 21
32.033249870687733
 31
0.0
  0
LINE
  5
AC5
  8
0
 10
51.750001013278961
 20
32.700000000000003
 30
0.0
 11
20.0
 21
32.700000000000003
 31
0.0
  0
LINE
  5
ACC
  8
0
 10
51.750001013278961
 20
32.033249870687733
 30
0.0
 11
20.0
 21
32.033249870687733
 31
0.0
  0
LINE
  5
ADA
  8
0
 10
20.0
 20
32.70000000000001
 30
0.0
 11
20.0
 21
18.800000000000001
 31
0.0
  0
LINE
  5
AE4
  8
0
 10
49.345384725468932
 20
32.033249870687733
 30
0.0
 11
50.46791692051449
 21
32.700000000000003
 31
0.0
  0
LINE
  5
B11
  8
0
 10
20.0
 20
21.587499980814751
 30
0.0
 11
51.750001013278961
 21
21.587499980814751
 31
0.0
  0
LINE
  5
B3B
  8
0
 10
51.750001013278961
 20
18.800000000000001
 30
0.0
 11
51.750001013278968
 21
32.70000000000001
 31
0.0
  0
LINE
  5
124F
  8
0
 10
51.590449018780248
 20
32.033249870687733
 30
0.0
 11
51.750001013278961
 21
32.128018923578658
 31
0.0
  0
LINE
  5
1250
  8
0
 10
48.222852627203189
 20
32.700000000000003
 30
0.0
 11
49.345384725468932
 21
32.033249870687733
 31
0.0
  0
LINE
  5
1251
  8
0
 10
47.100320432157631
 20
32.033249870687733
 30
0.0
 11
48.222852627203189
 21
32.700000000000003
 31
0.0
  0
LINE
  5
1252
  8
0
 10
45.977788333891873
 20
32.700000000000003
 30
0.0
 11
47.100320432157631
 21
32.033249870687733
 31
0.0
  0
LINE
  5
1253
  8
0
 10
44.855256138846322
 20
32.033249870687733
 30
0.0
 11
45.977788333891873
 21
32.700000000000003
 31
0.0
  0
LINE
  5
1254
  8
0
 10
43.732724944497598
 20
32.700000536899338
 30
0.0
 11
44.855257042763348
 21
32.033250407587062
 31
0.0
  0
LINE
  5
1255
  8
0
 10
42.61019274945204
 20
32.033250407587062
 30
0.0
 11
43.732724944497598
 21
32.700000536899338
 31
0.0
  0
LINE
  5
1256
  8
0
 10
41.487660651186282
 20
32.700000536899338
 30
0.0
 11
42.61019274945204
 21
32.033250407587062
 31
0.0
  0
LINE
  5
1257
  8
0
 10
40.365128456140731
 20
32.033250407587062
 30
0.0
 11
41.487660651186282
 21
32.700000536899338
 31
0.0
  0
LINE
  5
1258
  8
0
 10
36.997532064563671
 20
32.700000536899338
 30
0.0
 11
38.120064162829422
 21
32.033250407587062
 31
0.0
  0
LINE
  5
1259
  8
0
 10
35.87499986951812
 20
32.033250407587062
 30
0.0
 11
36.997532064563671
 21
32.700000536899338
 31
0.0
  0
LINE
  5
125A
  8
0
 10
34.752467771252363
 20
32.700000536899338
 30
0.0
 11
35.87499986951812
 21
32.033250407587062
 31
0.0
  0
LINE
  5
125B
  8
0
 10
33.629935576206812
 20
32.033250407587062
 30
0.0
 11
34.752467771252363
 21
32.700000536899338
 31
0.0
  0
LINE
  5
125C
  8
0
 10
32.50740438185808
 20
32.700001073798688
 30
0.0
 11
33.629936480123831
 21
32.033250944486412
 31
0.0
  0
LINE
  5
125D
  8
0
 10
31.384872186812519
 20
32.033250944486412
 30
0.0
 11
32.50740438185808
 21
32.700001073798688
 31
0.0
  0
LINE
  5
125E
  8
0
 10
30.262340088546772
 20
32.700001073798688
 30
0.0
 11
31.384872186812519
 21
32.033250944486412
 31
0.0
  0
LINE
  5
125F
  8
0
 10
29.139807893501221
 20
32.033250944486412
 30
0.0
 11
30.262340088546772
 21
32.700001073798688
 31
0.0
  0
LINE
  5
1260
  8
0
 10
25.772211501924161
 20
32.700001073798688
 30
0.0
 11
26.894743600189909
 21
32.033250944486412
 31
0.0
  0
LINE
  5
1261
  8
0
 10
24.6496793068786
 20
32.033250944486412
 30
0.0
 11
25.772211501924161
 21
32.700001073798688
 31
0.0
  0
LINE
  5
1262
  8
0
 10
23.527147208612849
 20
32.700001073798688
 30
0.0
 11
24.6496793068786
 21
32.033250944486412
 31
0.0
  0
LINE
  5
1263
  8
0
 10
22.404615013567291
 20
32.033250944486412
 30
0.0
 11
23.527147208612849
 21
32.700001073798688
 31
0.0
  0
LINE
  5
1264
  8
0
 10
21.28208381921856
 20
32.700001610698038
 30
0.0
 11
22.40461591748431
 21
32.033251481385761
 31
0.0
  0
LINE
  5
1265
  8
0
 10
20.159551624173002
 20
32.033251481385761
 30
0.0
 11
21.28208381921856
 21
32.700001610698038
 31
0.0
  0
LINE
  5
1266
  8
0
 10
20.0
 20
32.128020322485
 30
0.0
 11
20.159551624173002
 21
32.033251481385761
 31
0.0
  0
LINE
  5
1268
  8
0
 10
28.01727579523547
 20
32.700001073798688
 30
0.0
 11
29.139807893501221
 21
32.033250944486412
 31
0.0
  0
LINE
  5
1269
  8
0
 10
26.894743600189909
 20
32.033250944486412
 30
0.0
 11
28.01727579523547
 21
32.700001073798688
 31
0.0
  0
LINE
  5
126A
  8
0
 10
39.24259635787498
 20
32.700000536899338
 30
0.0
 11
40.365128456140731
 21
32.033250407587062
 31
0.0
  0
LINE
  5
126B
  8
0
 10
38.120064162829422
 20
32.033250407587062
 30
0.0
 11
39.24259635787498
 21
32.700000536899338
 31
0.0
  0
LINE
  5
12BF
  8
1
 10
35.875000506639481
 20
35.698730181343826
 30
0.0
 11
35.875000506639481
 21
15.800000000000001
 31
0.0
  0
LINE
  5
213F
  8
3
 10
50.627468625541809
 20
84.398731194622826
 30
0.0
 11
20.0
 21
53.771262569080982
 31
0.0
  0
LINE
  5
2141
  8
3
 10
51.750001013278968
 20
83.276199192268805
 30
0.0
 11
21.122532002353982
 21
52.648730181343851
 31
0.0
  0
LINE
  5
2143
  8
3
 10
51.750001013278968
 20
81.031135507348594
 30
0.0
 11
23.367595687274189
 21
52.648730181343851
 31
0.0
  0
LINE
  5
2145
  8
3
 10
51.750001013278961
 20
78.786071310817192
 30
0.0
 11
25.612659883805691
 21
52.648730181343851
 31
0.0
  0
LINE
  5
2146
  8
3
 10
51.750001013278961
 20
74.295942656264472
 30
0.0
 11
30.10278853835835
 21
52.648730181343851
 31
0.0
  0
LINE
  5
2147
  8
3
 10
51.750001013278961
 20
72.050878266173356
 30
0.0
 11
32.347852928449463
 21
52.648730181343851
 31
0.0
  0
LINE
  5
2148
  8
3
 10
51.750001013278961
 20
69.805814581253159
 30
0.0
 11
34.592916613369667
 21
52.648730181343851
 31
0.0
  0
LINE
  5
2149
  8
3
 10
51.750001013278961
 20
67.560750384721644
 30
0.0
 11
36.837980809901168
 21
52.648730181343851
 31
0.0
  0
LINE
  5
214A
  8
3
 10
51.750001013278961
 20
76.541006549761448
 30
0.0
 11
27.85772464486136
 21
52.648730181343851
 31
0.0
  0
LINE
  5
214B
  8
3
 10
51.750001013278961
 20
65.315686120021113
 30
0.0
 11
39.083045074601714
 21
52.648730181343851
 31
0.0
  0
LINE
  5
214C
  8
3
 10
51.750001013278961
 20
63.07062243510088
 30
0.0
 11
41.328108759521918
 21
52.648730181343851
 31
0.0
  0
LINE
  5
214D
  8
3
 10
51.750001013278961
 20
60.8255582385694
 30
0.0
 11
43.573172956053419
 21
52.648730181343851
 31
0.0
  0
LINE
  5
214E
  8
3
 10
51.750001013278961
 20
58.580494439530128
 30
0.0
 11
45.818236755092677
 21
52.648730181343851
 31
0.0
  0
LINE
  5
214F
  8
3
 10
51.750001013278961
 20
56.335430754609909
 30
0.0
 11
48.063300440012888
 21
52.648730181343851
 31
0.0
  0
LINE
  5
2150
  8
3
 10
51.750001013278961
 20
54.090366558078422
 30
0.0
 11
50.308364636544397
 21
52.648730181343851
 31
0.0
  0
LINE
  5
2152
  8
3
 10
48.382404235450728
 20
84.398731194622826
 30
0.0
 11
20.0
 21
56.016326959172069
 31
0.0
  0
LINE
  5
2154
  8
3
 10
46.13734055053051
 20
84.398731194622826
 30
0.0
 11
20.0
 21
58.261390644092302
 31
0.0
  0
LINE
  5
2155
  8
3
 10
43.892276353999023
 20
84.398731194622826
 30
0.0
 11
20.0
 21
60.506454840623803
 31
0.0
  0
LINE
  5
2156
  8
3
 10
39.40214769944636
 20
84.398731194622826
 30
0.0
 11
20.0
 21
64.996583495176452
 31
0.0
  0
LINE
  5
2157
  8
3
 10
37.157083309355258
 20
84.398731194622826
 30
0.0
 11
20.0
 21
67.241647885267554
 31
0.0
  0
LINE
  5
2158
  8
3
 10
34.912019624435061
 20
84.398731194622826
 30
0.0
 11
20.0
 21
69.486711570187765
 31
0.0
  0
LINE
  5
2159
  8
3
 10
32.666955427903531
 20
84.398731194622826
 30
0.0
 11
20.0
 21
71.731775766719295
 31
0.0
  0
LINE
  5
215A
  8
3
 10
41.64721159294335
 20
84.398731194622826
 30
0.0
 11
20.0
 21
62.751519601679469
 31
0.0
  0
LINE
  5
215B
  8
3
 10
30.421891163202989
 20
84.398731194622826
 30
0.0
 11
20.0
 21
73.97684003141984
 31
0.0
  0
LINE
  5
215C
  8
3
 10
28.17682747828281
 20
84.398731194622826
 30
0.0
 11
20.0
 21
76.221903716340009
 31
0.0
  0
LINE
  5
215D
  8
3
 10
25.93176328175128
 20
84.398731194622826
 30
0.0
 11
20.0
 21
78.466967912871539
 31
0.0
  0
LINE
  5
215E
  8
3
 10
23.686699482712029
 20
84.398731194622826
 30
0.0
 11
20.0
 21
80.712031711910768
 31
0.0
  0
LINE
  5
215F
  8
3
 10
21.441635797791822
 20
84.398731194622826
 30
0.0
 11
20.0
 21
82.957095396830994
 31
0.0
  0
LINE
  5
2160
  8
0
 10
51.750001013278961
 20
84.398731194622826
 30
0.0
 11
20.0
 21
84.398731194622826
 31
0.0
  0
LINE
  5
2161
  8
0
 10
51.750001013278961
 20
52.648730181343851
 30
0.0
 11
20.0
 21
52.648730181343851
 31
0.0
  0
LINE
  5
2162
  8
0
 10
20.0
 20
52.648730181343851
 30
0.0
 11
20.0
 21
84.398731194622826
 31
0.0
  0
LINE
  5
2163
  8
0
 10
51.750001013278961
 20
52.648730181343851
 30
0.0
 11
51.750001013278961
 21
84.398731194622826
 31
0.0
  0
LINE
  5
2165
  8
3
 10
21.12253238773712
 20
84.398731194622826
 30
0.0
 11
51.750001013278968
 21
53.771262569080918
 31
0.0
  0
LINE
  5
2167
  8
3
 10
20.0
 20
83.276199192268834
 30
0.0
 11
50.627469010925019
 21
52.648730181343858
 31
0.0
  0
LINE
  5
2169
  8
3
 10
20.0
 20
81.031135507348623
 30
0.0
 11
48.382405326004744
 21
52.648730181343858
 31
0.0
  0
LINE
  5
216B
  8
3
 10
20.0
 20
78.786071310817135
 30
0.0
 11
46.137341129473278
 21
52.648730181343851
 31
0.0
  0
LINE
  5
216D
  8
3
 10
20.0
 20
74.295942656264472
 30
0.0
 11
41.6472124749206
 21
52.648730181343851
 31
0.0
  0
LINE
  5
216E
  8
3
 10
20.0
 20
72.050878266173356
 30
0.0
 11
39.402148084829513
 21
52.648730181343851
 31
0.0
  0
LINE
  5
216F
  8
3
 10
20.0
 20
69.805814581253159
 30
0.0
 11
37.157084399909301
 21
52.648730181343851
 31
0.0
  0
LINE
  5
2170
  8
3
 10
20.0
 20
67.560750384721644
 30
0.0
 11
34.912020203377793
 21
52.648730181343851
 31
0.0
  0
LINE
  5
2171
  8
3
 10
20.0
 20
76.541006549761448
 30
0.0
 11
43.892276368417591
 21
52.648730181343851
 31
0.0
  0
LINE
  5
2172
  8
3
 10
20.0
 20
65.315686120021113
 30
0.0
 11
32.666955938677248
 21
52.648730181343851
 31
0.0
  0
LINE
  5
2173
  8
3
 10
20.0
 20
63.07062243510088
 30
0.0
 11
30.42189225375704
 21
52.648730181343851
 31
0.0
  0
LINE
  5
2174
  8
3
 10
20.0
 20
60.8255582385694
 30
0.0
 11
28.176828057225539
 21
52.648730181343851
 31
0.0
  0
LINE
  5
2175
  8
3
 10
20.0
 20
58.580494439530128
 30
0.0
 11
25.931764258186281
 21
52.648730181343851
 31
0.0
  0
LINE
  5
2176
  8
3
 10
20.0
 20
56.335430754609909
 30
0.0
 11
23.686700573266069
 21
52.648730181343851
 31
0.0
  0
LINE
  5
2177
  8
3
 10
20.0
 20
54.090366558078422
 30
0.0
 11
21.441636376734561
 21
52.648730181343851
 31
0.0
  0
LINE
  5
2178
  8
3
 10
23.367596777828229
 20
84.398731194622826
 30
0.0
 11
51.750001013278961
 21
56.01632695917214
 31
0.0
  0
LINE
  5
217A
  8
3
 10
25.61266046274844
 20
84.398731194622826
 30
0.0
 11
51.750001013278961
 21
58.261390644092359
 31
0.0
  0
LINE
  5
217C
  8
3
 10
27.857724659279938
 20
84.398731194622826
 30
0.0
 11
51.750001013278961
 21
60.506454840623803
 31
0.0
  0
LINE
  5
217D
  8
3
 10
32.347853313832601
 20
84.398731194622826
 30
0.0
 11
51.750001013278961
 21
64.996583495176452
 31
0.0
  0
LINE
  5
217E
  8
3
 10
34.59291770392371
 20
84.398731194622826
 30
0.0
 11
51.750001013278961
 21
67.241647885267554
 31
0.0
  0
LINE
  5
217F
  8
3
 10
36.8379813888439
 20
84.398731194622826
 30
0.0
 11
51.750001013278961
 21
69.486711570187765
 31
0.0
  0
LINE
  5
2180
  8
3
 10
39.08304558537543
 20
84.398731194622826
 30
0.0
 11
51.750001013278961
 21
71.731775766719295
 31
0.0
  0
LINE
  5
2181
  8
3
 10
30.102789420335611
 20
84.398731194622826
 30
0.0
 11
51.750001013278961
 21
62.751519601679469
 31
0.0
  0
LINE
  5
2182
  8
3
 10
41.328109850075968
 20
84.398731194622826
 30
0.0
 11
51.750001013278961
 21
73.97684003141984
 31
0.0
  0
LINE
  5
2183
  8
3
 10
43.573173534996158
 20
84.398731194622826
 30
0.0
 11
51.750001013278961
 21
76.221903716340009
 31
0.0
  0
LINE
  5
2184
  8
3
 10
45.818237731527688
 20
84.398731194622826
 30
0.0
 11
51.750001013278961
 21
78.466967912871539
 31
0.0
  0
LINE
  5
2185
  8
3
 10
48.063301530566932
 20
84.398731194622826
 30
0.0
 11
51.750001013278961
 21
80.712031711910768
 31
0.0
  0
LINE
  5
2186
  8
3
 10
50.308365215487143
 20
84.398731194622826
 30
0.0
 11
51.750001013278961
 21
82.957095396830994
 31
0.0
  0
LINE
  5
2188
  8
1
 10
35.875000506639481
 20
87.398731194622783
 30
0.0
 11
35.875000506639481
 21
49.648730181343851
 31
0.0
  0
LINE
  5
218A
  8
1
 10
54.750001013278961
 20
68.523730687983345
 30
0.0
 11
17.0
 21
68.523730687983331
 31
0.0
  0
LINE
  5
372C
  8
0
 10
20.0
 20
18.800000000000001
 30
0.0
 11
51.750001013278961
 21
18.800000000000001
 31
0.0
  0
ENDSEC
  0
EOF
