  0
SECTION
  2
HEADER
  9
$ACADVER
  1
AC1009
  9
$INSBASE
 10
0.0
 20
0.0
 30
0.0
  9
$EXTMIN
 10
0.0
 20
-2.960436562073669
 30
0.0
  9
$EXTMAX
 10
353.0923815781577
 20
248.04338980886331
 30
0.0
  9
$LIMMIN
 10
0.0
 20
0.0
  9
$LIMMAX
 10
375.0
 20
270.0
  9
$ORTHOMODE
 70
     1
  9
$REGENMODE
 70
     1
  9
$FILLMODE
 70
     1
  9
$QTEXTMODE
 70
     0
  9
$MIRRTEXT
 70
     0
  9
$DRAGMODE
 70
     2
  9
$LTSCALE
 40
10.0
  9
$OSMODE
 70
    55
  9
$ATTMODE
 70
     1
  9
$TEXTSIZE
 40
0.2
  9
$TRACEWID
 40
0.05
  9
$TEXTSTYLE
  7
06500
  9
$CLAYER
  8
0
  9
$CELTYPE
  6
BYLAYER
  9
$CECOLOR
 62
   256
  9
$DIMSCALE
 40
1.0
  9
$DIMASZ
 40
3.0
  9
$DIMEXO
 40
2.0
  9
$DIMDLI
 40
0.38
  9
$DIMRND
 40
0.0
  9
$DIMDLE
 40
0.0
  9
$DIMEXE
 40
2.0
  9
$DIMTP
 40
0.0
  9
$DIMTM
 40
0.0
  9
$DIMTXT
 40
3.2000000000000002
  9
$DIMCEN
 40
0.0
  9
$DIMTSZ
 40
0.0
  9
$DIMTOL
 70
     0
  9
$DIMLIM
 70
     0
  9
$DIMTIH
 70
     0
  9
$DIMTOH
 70
     0
  9
$DIMSE1
 70
     0
  9
$DIMSE2
 70
     0
  9
$DIMTAD
 70
     1
  9
$DIMZIN
 70
     0
  9
$DIMBLK
  1

  9
$DIMASO
 70
     0
  9
$DIMSHO
 70
     0
  9
$DIMPOST
  1

  9
$DIMAPOST
  1

  9
$DIMALT
 70
     0
  9
$DIMALTD
 70
     2
  9
$DIMALTF
 40
25.399999999999999
  9
$DIMLFAC
 40
1.0
  9
$DIMTOFL
 70
     1
  9
$DIMTVP
 40
1.6000000000000001
  9
$DIMTIX
 70
     1
  9
$DIMSOXD
 70
     0
  9
$DIMSAH
 70
     0
  9
$DIMBLK1
  1

  9
$DIMBLK2
  1

  9
$DIMSTYLE
  2
STANDARD
  9
$DIMCLRD
 70
     0
  9
$DIMCLRE
 70
     0
  9
$DIMCLRT
 70
     0
  9
$DIMTFAC
 40
1.0
  9
$DIMGAP
 40
0.09
  9
$LUNITS
 70
     2
  9
$LUPREC
 70
     4
  9
$SKETCHINC
 40
0.1
  9
$FILLETRAD
 40
0.0
  9
$AUNITS
 70
     0
  9
$AUPREC
 70
     4
  9
$MENU
  1
E:\r13\win\SUPPORT\ACAD
  9
$ELEVATION
 40
0.0
  9
$PELEVATION
 40
0.0
  9
$THICKNESS
 40
0.0
  9
$LIMCHECK
 70
     0
  9
$BLIPMODE
 70
     0
  9
$CHAMFERA
 40
0.0
  9
$CHAMFERB
 40
0.0
  9
$SKPOLY
 70
     0
  9
$TDCREATE
 40
2449839.7756365738
  9
$TDUPDATE
 40
2456598.6670910539
  9
$TDINDWG
 40
0.0000899537
  9
$TDUSRTIMER
 40
0.0000899537
  9
$USRTIMER
 70
     1
  9
$ANGBASE
 50
0.0
  9
$ANGDIR
 70
     0
  9
$PDMODE
 70
     0
  9
$PDSIZE
 40
0.0
  9
$PLINEWID
 40
0.0
  9
$COORDS
 70
     1
  9
$SPLFRAME
 70
     0
  9
$SPLINETYPE
 70
     6
  9
$SPLINESEGS
 70
     8
  9
$ATTDIA
 70
     0
  9
$ATTREQ
 70
     1
  9
$HANDLING
 70
     1
  9
$HANDSEED
  5
2B3
  9
$SURFTAB1
 70
     6
  9
$SURFTAB2
 70
     6
  9
$SURFTYPE
 70
     6
  9
$SURFU
 70
     6
  9
$SURFV
 70
     6
  9
$UCSNAME
  2

  9
$UCSORG
 10
0.0
 20
0.0
 30
0.0
  9
$UCSXDIR
 10
1.0
 20
0.0
 30
0.0
  9
$UCSYDIR
 10
0.0
 20
1.0
 30
0.0
  9
$PUCSNAME
  2

  9
$PUCSORG
 10
0.0
 20
0.0
 30
0.0
  9
$PUCSXDIR
 10
1.0
 20
0.0
 30
0.0
  9
$PUCSYDIR
 10
0.0
 20
1.0
 30
0.0
  9
$USERI1
 70
     0
  9
$USERI2
 70
     1
  9
$USERI3
 70
     0
  9
$USERI4
 70
     0
  9
$USERI5
 70
     0
  9
$USERR1
 40
0.0
  9
$USERR2
 40
0.0
  9
$USERR3
 40
0.0
  9
$USERR4
 40
0.0
  9
$USERR5
 40
0.0
  9
$WORLDVIEW
 70
     1
  9
$SHADEDGE
 70
     3
  9
$SHADEDIF
 70
    70
  9
$TILEMODE
 70
     1
  9
$MAXACTVP
 70
    16
  9
$PLIMCHECK
 70
     0
  9
$PEXTMIN
 10
1.0000000000000000E+020
 20
1.0000000000000000E+020
 30
1.0000000000000000E+020
  9
$PEXTMAX
 10
-1.0000000000000000E+020
 20
-1.0000000000000000E+020
 30
-1.0000000000000000E+020
  9
$PLIMMIN
 10
0.0
 20
0.0
  9
$PLIMMAX
 10
12.0
 20
9.0
  9
$UNITMODE
 70
     0
  9
$VISRETAIN
 70
     0
  9
$PLINEGEN
 70
     0
  9
$PSLTSCALE
 70
     0
  0
ENDSEC
  0
SECTION
  2
TABLES
  0
TABLE
  2
VPORT
 70
     1
  0
VPORT
  2
*ACTIVE
 70
     0
 10
0.0
 20
0.0
 11
1.0
 21
1.0
 12
187.49427839065231
 22
174.91677254346851
 13
0.0
 23
0.0
 14
10.0
 24
10.0
 15
10.0
 25
10.0
 16
0.0
 26
0.0
 36
1.0
 17
0.0
 27
0.0
 37
0.0
 40
358.92027899574339
 41
1.7807262569832401
 42
50.0
 43
0.0
 44
0.0
 50
0.0
 51
0.0
 71
     0
 72
   500
 73
     1
 74
     0
 75
     0
 76
     0
 77
     0
 78
     2
  0
ENDTAB
  0
TABLE
  2
LTYPE
 70
     4
  0
LTYPE
  2
CONTINUOUS
 70
     0
  3
Solid Line
 72
    65
 73
     0
 40
0.0
  0
LTYPE
  2
CENTER
 70
     0
  3
____ _ ____ _ ____ _ ____ _ ____ _ ____ _ ____
 72
    65
 73
     4
 40
2.0
 49
1.25
 49
-0.25
 49
0.25
 49
-0.25
  0
LTYPE
  2
HIDDEN
 70
     0
  3
_ _ _ _ _ _ _ _ _ _ _ _ _ _ _ _ _ _ _ _ _ _ _
 72
    65
 73
     2
 40
0.375
 49
0.25
 49
-0.125
  0
LTYPE
  2
PHANTOM2
 70
     0
  3
___ _ _ ___ _ _ ___ _ _ ___ _ _
 72
    65
 73
     6
 40
1.25
 49
0.625
 49
-0.125
 49
0.125
 49
-0.125
 49
0.125
 49
-0.125
  0
ENDTAB
  0
TABLE
  2
LAYER
 70
     4
  0
LAYER
  2
0
 70
     0
 62
     7
  6
CONTINUOUS
  0
LAYER
  2
1
 70
     0
 62
     1
  6
CENTER
  0
LAYER
  2
2
 70
     0
 62
     2
  6
HIDDEN
  0
LAYER
  2
3
 70
     0
 62
     3
  6
CONTINUOUS
  0
ENDTAB
  0
TABLE
  2
STYLE
 70
     3
  0
STYLE
  2
STANDARD
 70
     0
 40
0.0
 41
1.0
 50
0.0
 71
     0
 42
0.2
  3
TXT
  4
BIGFONT
  0
STYLE
  2
06500
 70
     0
 40
0.0
 41
0.65
 50
0.0
 71
     0
 42
0.2
  3
txt
  4
bigfont
  0
STYLE
  2
STANDARD1
 70
     0
 40
0.0
 41
1.0
 50
0.0
 71
     0
 42
3.0
  3
txt
  4

  0
ENDTAB
  0
TABLE
  2
VIEW
 70
     1
  0
VIEW
  2
ALL
 70
     0
 40
270.0
 10
220.99159663865549
 20
135.0
 41
0.0
 11
0.0
 21
0.0
 31
1.0
 12
0.0
 22
0.0
 32
0.0
 42
0.0
 43
0.0
 44
0.0
 50
0.0
 71
     0
  0
ENDTAB
  0
TABLE
  2
UCS
 70
     0
  0
ENDTAB
  0
TABLE
  2
APPID
 70
     3
  0
APPID
  2
ACAD
 70
     0
  0
APPID
  2
ACAD_MLEADERVER
 70
     0
  0
APPID
  2
ACAD_NAV_VCDISPLAY
 70
     0
  0
ENDTAB
  0
TABLE
  2
DIMSTYLE
 70
     1
  0
DIMSTYLE
  2
STANDARD
 70
     0
  3

  4

  5

  6

  7

 40
1.0
 41
0.18
 42
0.0625
 43
0.38
 44
0.18
 45
0.0
 46
0.0
 47
0.0
 48
0.0
140
0.18
141
0.09
142
0.0
143
25.399999999999999
144
1.0
145
0.0
146
1.0
147
0.09
 71
     0
 72
     0
 73
     1
 74
     1
 75
     0
 76
     0
 77
     0
 78
     0
170
     0
171
     2
172
     0
173
     0
174
     0
175
     0
176
     0
177
     0
178
     0
  0
ENDTAB
  0
ENDSEC
  0
SECTION
  2
BLOCKS
  0
BLOCK
  8
0
  2
$MODEL_SPACE
 70
     0
 10
0.0
 20
0.0
 30
0.0
  3
$MODEL_SPACE
  1

  0
ENDBLK
  5
165
  8
0
  0
BLOCK
 67
     1
  8
0
  2
$PAPER_SPACE
 70
     0
 10
0.0
 20
0.0
 30
0.0
  3
$PAPER_SPACE
  1

  0
ENDBLK
  5
163
 67
     1
  8
0
  0
ENDSEC
  0
SECTION
  2
ENTITIES
  0
LINE
  5
3F
  8
1
 10
100.7557462464934
 20
142.18974820143879
 30
0.0
 11
29.255746246493459
 21
142.18974820143879
 31
0.0
  0
LINE
  5
40
  8
1
 10
53.255746246493459
 20
182.18974820143879
 30
0.0
 11
53.255746246493459
 21
102.1897482014388
 31
0.0
  0
LINE
  5
41
  8
0
 10
60.435965989339472
 20
166.8564148681055
 30
0.0
 11
63.839019494294931
 21
155.57887396245511
 31
0.0
  0
LINE
  5
42
  8
0
 10
46.07552650364746
 20
166.8564148681055
 30
0.0
 11
39.852669393180932
 21
146.23419264588321
 31
0.0
  0
ARC
  5
43
  8
0
 10
53.255746246493459
 20
164.68974820143879
 30
0.0
 40
7.5
 50
16.791447114588831
 51
163.20855288541111
  0
CIRCLE
  5
44
  8
0
 10
53.255746246493459
 20
164.68974820143879
 30
0.0
 40
3.5
  0
LINE
  5
45
  8
1
 10
61.755746246493459
 20
164.68974820143879
 30
0.0
 11
44.755746246493459
 21
164.68974820143879
 31
0.0
  0
LINE
  5
46
  8
1
 10
61.755746246493459
 20
119.6897482014388
 30
0.0
 11
44.755746246493459
 21
119.6897482014388
 31
0.0
  0
CIRCLE
  5
47
  8
0
 10
53.255746246493459
 20
119.6897482014388
 30
0.0
 40
3.5
  0
ARC
  5
48
  8
0
 10
53.255746246493459
 20
119.6897482014388
 30
0.0
 40
7.5
 50
196.79144711458881
 51
343.20855288541122
  0
LINE
  5
49
  8
0
 10
46.07552650364746
 20
117.5230815347721
 30
0.0
 11
39.852669393180932
 21
138.14530375699439
 31
0.0
  0
LINE
  5
4A
  8
0
 10
60.435965989339472
 20
117.5230815347721
 30
0.0
 11
63.839019494294952
 21
128.80062244042259
 31
0.0
  0
LINE
  5
4B
  8
0
 10
54.095746246493469
 20
156.16452548052271
 30
0.0
 11
79.005746246493459
 21
154.66722791490659
 31
0.0
  0
LINE
  5
4C
  8
0
 10
54.095746246493469
 20
128.21497092235489
 30
0.0
 11
79.005746246493459
 21
129.7122684879711
 31
0.0
  0
ARC
  5
4D
  8
0
 10
53.255746246493459
 20
142.18974820143879
 30
0.0
 40
14.0
 50
86.560187232484793
 51
273.43981276751521
  0
CIRCLE
  5
4E
  8
0
 10
78.255746246493459
 20
142.18974820143879
 30
0.0
 40
12.5
  0
CIRCLE
  5
4F
  8
3
 10
78.255746246493459
 20
142.18974820143879
 30
0.0
 40
5.0
  0
CIRCLE
  5
50
  8
0
 10
78.255746246493459
 20
142.18974820143879
 30
0.0
 40
4.1879999999999988
  0
LINE
  5
51
  8
1
 10
78.255746246493459
 20
124.6897482014388
 30
0.0
 11
78.255746246493459
 21
159.68974820143879
 31
0.0
  0
LINE
  5
52
  8
0
 10
51.812370573571918
 20
139.68974820143879
 30
0.0
 11
54.699121919449588
 21
139.68974820143879
 31
0.0
  0
LINE
  5
53
  8
0
 10
54.69912191949377
 20
139.68974820148429
 30
0.0
 11
56.142497592432612
 21
142.1897482014233
 31
0.0
  0
LINE
  5
54
  8
0
 10
56.142497592415332
 20
142.18974820148429
 30
0.0
 11
54.699121919476489
 21
144.6897482014233
 31
0.0
  0
LINE
  5
55
  8
0
 10
54.699121919415013
 20
144.68974820143879
 30
0.0
 11
51.812370573537343
 21
144.68974820143879
 31
0.0
  0
LINE
  5
56
  8
0
 10
51.812370573493162
 20
144.68974820139329
 30
0.0
 11
50.368994900554327
 21
142.18974820145431
 31
0.0
  0
LINE
  5
57
  8
0
 10
50.368994900571607
 20
142.18974820139329
 30
0.0
 11
51.812370573510442
 21
139.68974820145439
 31
0.0
  0
LINE
  5
58
  8
0
 10
165.18601804391409
 20
154.68974820143879
 30
0.0
 11
165.18601804391409
 21
129.68974820143879
 31
0.0
  0
LINE
  5
59
  8
0
 10
169.43601804391409
 20
209.76507764535009
 30
0.0
 11
170.68601804391409
 21
210.48676548183721
 31
0.0
  0
LINE
  5
5A
  8
0
 10
170.68601804391409
 20
210.48676548183721
 30
0.0
 11
171.93601804391409
 21
209.7650776453502
 31
0.0
  0
LINE
  5
5B
  8
0
 10
171.93601804391409
 20
209.7650776453502
 30
0.0
 11
171.93601804391409
 21
208.32170197237579
 31
0.0
  0
LINE
  5
5C
  8
0
 10
171.93601804391409
 20
208.32170197237579
 30
0.0
 11
170.68601804391389
 21
207.6000141358889
 31
0.0
  0
LINE
  5
5D
  8
0
 10
170.68601804391389
 20
207.6000141358889
 30
0.0
 11
169.43601804391409
 21
208.32170197237619
 31
0.0
  0
LINE
  5
5E
  8
0
 10
169.43601804391409
 20
208.32170197237619
 30
0.0
 11
169.43601804391409
 21
209.76507764535009
 31
0.0
  0
LINE
  5
5F
  8
0
 10
165.18601804391409
 20
221.5433898088632
 30
0.0
 11
165.186018043914
 21
196.5433898088632
 31
0.0
  0
LINE
  5
60
  8
0
 10
166.18601804391409
 20
239.9433898088632
 30
0.0
 11
166.18601804391409
 21
228.1433898088633
 31
0.0
  0
LINE
  5
61
  8
0
 10
166.18601804391409
 20
239.9433898088632
 30
0.0
 11
165.68601804391409
 21
239.44338980886329
 31
0.0
  0
LINE
  5
62
  8
0
 10
165.68601804391409
 20
228.6433898088633
 30
0.0
 11
166.18601804391409
 21
228.1433898088633
 31
0.0
  0
LINE
  5
63
  8
0
 10
170.68601804391409
 20
239.9433898088632
 30
0.0
 11
166.18601804391409
 21
239.9433898088632
 31
0.0
  0
LINE
  5
64
  8
0
 10
166.18601804391409
 20
228.1433898088633
 30
0.0
 11
170.68601804391409
 21
228.1433898088633
 31
0.0
  0
LINE
  5
65
  8
0
 10
165.68601804391409
 20
239.44338980886329
 30
0.0
 11
165.68601804391409
 21
228.6433898088633
 31
0.0
  0
LINE
  5
66
  8
0
 10
179.68601804391409
 20
197.0433898088632
 30
0.0
 11
179.18601804391409
 21
196.5433898088632
 31
0.0
  0
LINE
  5
67
  8
0
 10
179.18601804391409
 20
196.5433898088632
 30
0.0
 11
165.18601804391409
 21
196.5433898088632
 31
0.0
  0
LINE
  5
68
  8
0
 10
165.18601804391409
 20
196.5433898088632
 30
0.0
 11
164.68601804391409
 21
197.04338980886141
 31
0.0
  0
LINE
  5
69
  8
0
 10
164.68601804391409
 20
197.04338980886141
 30
0.0
 11
164.68601804391409
 21
221.04338980886499
 31
0.0
  0
LINE
  5
6A
  8
0
 10
164.68601804391409
 20
221.04338980886499
 30
0.0
 11
165.18601804391409
 21
221.5433898088632
 31
0.0
  0
LINE
  5
6B
  8
0
 10
165.18601804391409
 20
221.5433898088632
 30
0.0
 11
167.68601804391409
 21
221.5433898088632
 31
0.0
  0
LINE
  5
6C
  8
0
 10
173.68601804391409
 20
248.0433898088632
 30
0.0
 11
189.18601804391409
 21
248.0433898088632
 31
0.0
  0
LINE
  5
6D
  8
0
 10
189.68601804391409
 20
247.54338980886681
 30
0.0
 11
189.686018043914
 21
220.5433898088632
 31
0.0
  0
LINE
  5
6E
  8
0
 10
189.18601804391409
 20
220.0433898088632
 30
0.0
 11
182.68601804391409
 21
220.0433898088632
 31
0.0
  0
ARC
  5
6F
  8
0
 10
167.68601804391409
 20
224.5433898088632
 30
0.0
 40
3.0
 50
270.0
 51
360.0
  0
ARC
  5
70
  8
0
 10
182.68601804391409
 20
217.0433898088632
 30
0.0
 40
3.0
 50
90.0
 51
179.99999999999989
  0
ARC
  5
71
  8
0
 10
173.68601804391409
 20
245.0433898088632
 30
0.0
 40
3.0
 50
90.0
 51
179.99999999999989
  0
LINE
  5
72
  8
0
 10
189.18601804391409
 20
220.0433898088632
 30
0.0
 11
189.68601804391409
 21
220.5433898088632
 31
0.0
  0
LINE
  5
73
  8
0
 10
189.18601804391409
 20
248.0433898088632
 30
0.0
 11
189.68601804391409
 21
247.5433898088632
 31
0.0
  0
LINE
  5
74
  8
1
 10
189.68601804391409
 20
209.0433898088632
 30
0.0
 11
154.68601804391409
 21
209.0433898088632
 31
0.0
  0
CIRCLE
  5
75
  8
0
 10
170.68601804391409
 20
209.0433898088632
 30
0.0
 40
2.5
  0
CIRCLE
  5
76
  8
3
 10
170.68601804391409
 20
209.0433898088632
 30
0.0
 40
2.0669999999999988
  0
LINE
  5
77
  8
1
 10
170.68601804391409
 20
216.5433898088632
 30
0.0
 11
170.68601804391409
 21
201.5433898088632
 31
0.0
  0
LINE
  5
78
  8
0
 10
179.68601804391409
 20
217.0433898088632
 30
0.0
 11
179.68601804391409
 21
197.0433898088632
 31
0.0
  0
LINE
  5
79
  8
0
 10
170.68601804391409
 20
224.5433898088632
 30
0.0
 11
170.68601804391409
 21
245.04338711146499
 31
0.0
  0
LINE
  5
7A
  8
0
 10
210.68601804391409
 20
171.68974820143879
 30
0.0
 11
210.18601804391409
 21
172.18974820143879
 31
0.0
  0
LINE
  5
7B
  8
0
 10
210.18601804391409
 20
112.1897482014388
 30
0.0
 11
210.68601804391409
 21
112.6897482014388
 31
0.0
  0
LINE
  5
7C
  8
0
 10
210.1860180439142
 20
220.04338980886331
 30
0.0
 11
210.6860180439142
 21
220.54338980886331
 31
0.0
  0
LINE
  5
7D
  8
0
 10
210.1860180439142
 20
248.04338980886331
 30
0.0
 11
210.6860180439142
 21
247.54338980886331
 31
0.0
  0
LINE
  5
7E
  8
1
 10
218.68601804391409
 20
234.04338980886331
 30
0.0
 11
158.05659381496591
 21
234.04338980886331
 31
0.0
  0
LINE
  5
7F
  8
0
 10
210.1860180439142
 20
248.04338980886331
 30
0.0
 11
190.6860180439021
 21
248.0433898088632
 31
0.0
  0
LINE
  5
80
  8
0
 10
190.68601804390221
 20
248.0433898088632
 30
0.0
 11
189.68601804391409
 21
247.04338980887519
 31
0.0
  0
LINE
  5
81
  8
0
 10
210.1860180439142
 20
220.04338980886331
 30
0.0
 11
190.6860180439021
 21
220.04338980886331
 31
0.0
  0
LINE
  5
82
  8
0
 10
190.68601804390221
 20
220.04338980886331
 30
0.0
 11
189.68601804391409
 21
221.0433898088512
 31
0.0
  0
LINE
  5
83
  8
0
 10
210.6860180439142
 20
247.54338980886331
 30
0.0
 11
210.6860180439142
 21
220.54338980886331
 31
0.0
  0
LINE
  5
84
  8
1
 10
192.6860180439021
 20
147.18974820143879
 30
0.0
 11
192.6860180439021
 21
137.18974820143879
 31
0.0
  0
CIRCLE
  5
85
  8
0
 10
192.6860180439021
 20
142.18974820143879
 30
0.0
 40
2.0
  0
LINE
  5
86
  8
1
 10
220.68601804391409
 20
142.18974820143879
 30
0.0
 11
154.68601804391409
 21
142.18974820143879
 31
0.0
  0
LINE
  5
87
  8
0
 10
210.18601804391409
 20
172.18974820143879
 30
0.0
 11
202.68601804391409
 21
172.18974820143879
 31
0.0
  0
LINE
  5
88
  8
0
 10
198.68601804391409
 20
156.18974820143879
 30
0.0
 11
190.68601804390221
 21
156.18974820143879
 31
0.0
  0
LINE
  5
89
  8
0
 10
190.68601804390221
 20
156.18974820143879
 30
0.0
 11
189.68601804391409
 21
155.18974820145081
 31
0.0
  0
ARC
  5
8A
  8
0
 10
202.68601804391409
 20
170.18974820143879
 30
0.0
 40
2.0
 50
90.0
 51
179.99999999999989
  0
ARC
  5
8B
  8
0
 10
198.68601804391409
 20
158.18974820143879
 30
0.0
 40
2.0
 50
270.0
 51
0.0
  0
ARC
  5
8C
  8
0
 10
198.68601804391409
 20
126.1897482014388
 30
0.0
 40
2.0
 50
0.0
 51
90.000000000000014
  0
LINE
  5
8D
  8
0
 10
198.68601804391409
 20
128.18974820143879
 30
0.0
 11
190.68601804390221
 21
128.18974820143879
 31
0.0
  0
ARC
  5
8E
  8
0
 10
202.68601804391409
 20
114.1897482014388
 30
0.0
 40
2.0
 50
180.00000000000011
 51
270.0
  0
LINE
  5
8F
  8
0
 10
210.18601804391409
 20
112.1897482014388
 30
0.0
 11
202.68601804391409
 21
112.1897482014388
 31
0.0
  0
LINE
  5
90
  8
0
 10
190.68601804390221
 20
128.18974820143879
 30
0.0
 11
189.68601804391409
 21
129.1897482014268
 31
0.0
  0
LINE
  5
91
  8
0
 10
210.68601804391409
 20
171.68974820143879
 30
0.0
 11
210.68601804391409
 21
112.6897482014388
 31
0.0
  0
ARC
  5
92
  8
0
 10
198.68601804391409
 20
148.23419264588259
 30
0.0
 40
2.0
 50
270.0
 51
0.0
  0
ARC
  5
93
  8
0
 10
198.68601804391409
 20
136.14530375699499
 30
0.0
 40
2.0
 50
0.0
 51
90.000000000000014
  0
LINE
  5
94
  8
0
 10
200.68601804391409
 20
170.18974820143879
 30
0.0
 11
200.68601804391409
 21
148.23419455323119
 31
0.0
  0
LINE
  5
95
  8
0
 10
200.68601804391409
 20
136.14530375699499
 30
0.0
 11
200.68601804391409
 21
114.1897482014388
 31
0.0
  0
LINE
  5
96
  8
0
 10
190.68601804390221
 20
156.18974820143879
 30
0.0
 11
190.6860180439021
 21
128.18974820143879
 31
0.0
  0
LINE
  5
97
  8
1
 10
215.68601804391409
 20
164.68974820143879
 30
0.0
 11
196.68601804391409
 21
164.68974820143879
 31
0.0
  0
LINE
  5
98
  8
1
 10
215.68601804391409
 20
119.6897482014388
 30
0.0
 11
196.68601804391409
 21
119.6897482014388
 31
0.0
  0
LINE
  5
99
  8
0
 10
164.68601804391409
 20
154.18974820143879
 30
0.0
 11
164.68601804391409
 21
130.18974820143879
 31
0.0
  0
LINE
  5
9A
  8
0
 10
164.68601804391409
 20
130.18974820143879
 30
0.0
 11
165.18601804391409
 21
129.68974820143879
 31
0.0
  0
LINE
  5
9B
  8
0
 10
165.18601804391409
 20
129.68974820143879
 30
0.0
 11
178.68601804391409
 21
129.68974820143879
 31
0.0
  0
LINE
  5
9C
  8
0
 10
179.68601804391409
 20
130.68974820143879
 30
0.0
 11
179.68601804391409
 21
153.68974820143879
 31
0.0
  0
LINE
  5
9D
  8
0
 10
178.68601804391409
 20
154.68974820143879
 30
0.0
 11
165.18601804391409
 21
154.68974820143879
 31
0.0
  0
LINE
  5
9E
  8
0
 10
165.18601804391409
 20
154.68974820143879
 30
0.0
 11
164.68601804391409
 21
154.18974820143879
 31
0.0
  0
ARC
  5
9F
  8
0
 10
178.68601804391409
 20
153.68974820143879
 30
0.0
 40
1.0
 50
0.0
 51
90.0
  0
ARC
  5
A0
  8
0
 10
178.68601804391409
 20
130.68974820143879
 30
0.0
 40
1.0
 50
270.0
 51
0.0
  0
LINE
  5
A1
  8
0
 10
189.18601804391409
 20
128.18974820143879
 30
0.0
 11
189.68601804391409
 21
128.68974820143791
 31
0.0
  0
LINE
  5
A2
  8
0
 10
189.68601804391409
 20
128.68974820143791
 30
0.0
 11
189.68601804391409
 21
155.68974820143521
 31
0.0
  0
LINE
  5
A3
  8
0
 10
189.68601804391409
 20
155.68974820143521
 30
0.0
 11
189.18601804391051
 21
156.18974820143879
 31
0.0
  0
LINE
  5
A4
  8
0
 10
189.18601804391051
 20
156.18974820143879
 30
0.0
 11
173.68601804391409
 21
156.18974820143879
 31
0.0
  0
LINE
  5
A5
  8
0
 10
173.68601804391301
 20
128.18974820143771
 30
0.0
 11
189.1860180439069
 21
128.1897482014316
 31
0.0
  0
ARC
  5
A6
  8
0
 10
173.68601804391409
 20
153.18974820143879
 30
0.0
 40
3.0
 50
90.0
 51
150.0
  0
ARC
  5
A7
  8
0
 10
173.68601804391409
 20
131.1897482014376
 30
0.0
 40
3.0
 50
209.99999999997419
 51
269.9999999999776
  0
LINE
  5
A8
  8
0
 10
179.68601804401951
 20
154.68974820143879
 30
0.0
 11
181.11869759591411
 21
155.5169061263876
 31
0.0
  0
LINE
  5
A9
  8
0
 10
179.68601804401951
 20
129.68974820143879
 30
0.0
 11
181.11869759591411
 21
128.86259027649001
 31
0.0
  0
LINE
  5
AA
  8
1
 10
170.68601804391409
 20
142.18974820143879
 30
0.0
 11
170.68601804391409
 21
159.68974820143879
 31
0.0
  0
LINE
  5
AB
  8
0
 10
200.6860180439142
 20
247.4464661346577
 30
0.0
 11
200.6860180439142
 21
220.64031348306881
 31
0.0
  0
LINE
  5
AC
  8
1
 10
304.0923815781577
 20
124.6897482014388
 30
0.0
 11
304.0923815781577
 21
159.68974820143879
 31
0.0
  0
ARC
  5
AD
  8
0
 10
329.0923815781577
 20
142.18974820143879
 30
0.0
 40
14.0
 50
0.0
 51
16.79146541988538
  0
LINE
  5
AE
  8
0
 10
318.50910833035618
 20
128.80062244042259
 30
0.0
 11
303.3423815781577
 21
129.7122684879711
 31
0.0
  0
LINE
  5
AF
  8
0
 10
318.5091083303563
 20
155.57887396245511
 30
0.0
 11
303.3423815781577
 21
154.66722791490659
 31
0.0
  0
LINE
  5
B0
  8
0
 10
336.27260132100372
 20
117.5230815347721
 30
0.0
 11
342.49545843147018
 21
138.14530375699439
 31
0.0
  0
ARC
  5
B1
  8
0
 10
329.0923815781577
 20
119.6897482014388
 30
0.0
 40
7.5
 50
196.79144711458889
 51
343.20855288541122
  0
LINE
  5
B2
  8
1
 10
320.5923815781577
 20
119.6897482014388
 30
0.0
 11
337.5923815781577
 21
119.6897482014388
 31
0.0
  0
LINE
  5
B3
  8
1
 10
320.5923815781577
 20
164.68974820143879
 30
0.0
 11
337.5923815781577
 21
164.68974820143879
 31
0.0
  0
ARC
  5
B4
  8
0
 10
329.0923815781577
 20
164.68974820143879
 30
0.0
 40
7.5
 50
16.791447114588859
 51
163.20855288541119
  0
LINE
  5
B5
  8
0
 10
336.27260132100372
 20
166.8564148681055
 30
0.0
 11
342.49545843147018
 21
146.23419264588321
 31
0.0
  0
LINE
  5
B6
  8
1
 10
329.0923815781577
 20
182.18974820143879
 30
0.0
 11
329.0923815781577
 21
102.1897482014388
 31
0.0
  0
LINE
  5
B7
  8
1
 10
281.5923815781577
 20
142.18974820143879
 30
0.0
 11
353.0923815781577
 21
142.18974820143879
 31
0.0
  0
ARC
  5
B8
  8
0
 10
329.0923815781577
 20
142.18974820143879
 30
0.0
 40
14.0
 50
343.2085345801147
 51
360.0
  0
LINE
  5
B9
  8
0
 10
321.91216183531168
 20
166.8564148681055
 30
0.0
 11
315.6893047248451
 21
146.23419264588321
 31
0.0
  0
ARC
  5
BA
  8
0
 10
329.0923815781577
 20
142.18974820143879
 30
0.0
 40
14.0
 50
163.20853458011459
 51
180.0
  0
ARC
  5
BB
  8
0
 10
329.0923815781577
 20
142.18974820143879
 30
0.0
 40
14.0
 50
180.0
 51
196.79146541988541
  0
LINE
  5
BC
  8
0
 10
321.91216183531168
 20
117.5230815347721
 30
0.0
 11
315.6893047248451
 21
138.14530375699439
 31
0.0
  0
ARC
  5
BD
  8
0
 10
304.0923815781577
 20
142.18974820143879
 30
0.0
 40
12.5
 50
90.0
 51
270.0
  0
CIRCLE
  5
BE
  8
0
 10
304.0923815781577
 20
142.18974820143879
 30
0.0
 40
4.1879999999999988
  0
CIRCLE
  5
BF
  8
3
 10
304.0923815781577
 20
142.18974820143879
 30
0.0
 40
5.0
  0
CIRCLE
  5
C0
  8
0
 10
329.0923815781577
 20
164.68974820143879
 30
0.0
 40
3.5
  0
CIRCLE
  5
C1
  8
0
 10
329.0923815781577
 20
119.6897482014388
 30
0.0
 40
3.5
  0
CIRCLE
  5
C2
  8
0
 10
53.255746246493459
 20
142.18974820143879
 30
0.0
 40
5.9000000000000004
  0
CIRCLE
  5
C3
  8
0
 10
53.255746246493459
 20
142.18974820143879
 30
0.0
 40
5.4000000000000004
  0
LINE
  5
C4
  8
2
 10
210.6860180439142
 20
116.1897482014388
 30
0.0
 11
200.68601804391409
 21
116.1897482014388
 31
0.0
  0
LINE
  5
C5
  8
2
 10
210.6860180439142
 20
168.18974820143879
 30
0.0
 11
200.68601804391409
 21
168.18974820143879
 31
0.0
  0
LINE
  5
C6
  8
2
 10
210.6860180439142
 20
161.18974820143879
 30
0.0
 11
200.68601804391409
 21
161.18974820143879
 31
0.0
  0
LINE
  5
C7
  8
2
 10
210.6860180439142
 20
237.5433898088632
 30
0.0
 11
200.6860180439142
 21
237.54338980886331
 31
0.0
  0
LINE
  5
C8
  8
2
 10
210.6860180439142
 20
230.54338980886331
 30
0.0
 11
200.6860180439142
 21
230.54338980886331
 31
0.0
  0
LINE
  5
C9
  8
2
 10
210.6860180439142
 20
123.1897482014388
 30
0.0
 11
200.68601804391409
 21
123.1897482014388
 31
0.0
  0
LINE
  5
CA
  8
2
 10
210.6860180439142
 20
53.836106594014382
 30
0.0
 11
200.6860180439142
 21
53.836106594014382
 31
0.0
  0
LINE
  5
CB
  8
2
 10
210.6860180439142
 20
46.836106594014382
 30
0.0
 11
200.6860180439142
 21
46.836106594014353
 31
0.0
  0
LINE
  5
CC
  8
0
 10
200.68601804391409
 20
36.933030268219973
 30
0.0
 11
200.6860180439142
 21
63.739182919808798
 31
0.0
  0
LINE
  5
CD
  8
0
 10
210.6860180439142
 20
36.836106594014353
 30
0.0
 11
210.6860180439142
 21
63.836106594014353
 31
0.0
  0
LINE
  5
CE
  8
0
 10
190.68601804390221
 20
64.336106594014382
 30
0.0
 11
189.68601804391409
 21
63.336106594026369
 31
0.0
  0
LINE
  5
CF
  8
0
 10
210.1860180439142
 20
64.336106594014353
 30
0.0
 11
190.6860180439021
 21
64.336106594014382
 31
0.0
  0
LINE
  5
D0
  8
0
 10
190.68601804390221
 20
36.336106594014382
 30
0.0
 11
189.68601804391409
 21
37.336106594002423
 31
0.0
  0
LINE
  5
D1
  8
0
 10
210.1860180439142
 20
36.33610659401436
 30
0.0
 11
190.6860180439021
 21
36.336106594014382
 31
0.0
  0
LINE
  5
D2
  8
1
 10
218.68601804391409
 20
50.336106594014382
 30
0.0
 11
158.05659381496591
 21
50.336106594014382
 31
0.0
  0
LINE
  5
D3
  8
0
 10
210.1860180439142
 20
36.33610659401436
 30
0.0
 11
210.6860180439142
 21
36.836106594014353
 31
0.0
  0
LINE
  5
D4
  8
0
 10
210.1860180439142
 20
64.336106594014353
 30
0.0
 11
210.6860180439142
 21
63.836106594014353
 31
0.0
  0
LINE
  5
D5
  8
0
 10
170.68601804391409
 20
59.836106594014439
 30
0.0
 11
170.68601804391409
 21
39.336109291412697
 31
0.0
  0
LINE
  5
D6
  8
0
 10
179.68601804391409
 20
67.336106594014439
 30
0.0
 11
179.68601804391409
 21
87.336106594014439
 31
0.0
  0
LINE
  5
D7
  8
1
 10
170.68601804391409
 20
67.836106594014439
 30
0.0
 11
170.68601804391409
 21
82.836106594014439
 31
0.0
  0
CIRCLE
  5
D8
  8
3
 10
170.68601804391409
 20
75.336106594014439
 30
0.0
 40
2.0669999999999988
  0
CIRCLE
  5
D9
  8
0
 10
170.68601804391409
 20
75.336106594014439
 30
0.0
 40
2.5
  0
LINE
  5
DA
  8
1
 10
189.68601804391409
 20
75.336106594014439
 30
0.0
 11
154.68601804391409
 21
75.336106594014439
 31
0.0
  0
LINE
  5
DB
  8
0
 10
189.18601804391409
 20
36.33610659401441
 30
0.0
 11
189.68601804391409
 21
36.83610659401441
 31
0.0
  0
LINE
  5
DC
  8
0
 10
189.18601804391409
 20
64.336106594014439
 30
0.0
 11
189.68601804391409
 21
63.836106594014488
 31
0.0
  0
ARC
  5
DD
  8
0
 10
173.68601804391409
 20
39.33610659401441
 30
0.0
 40
3.0
 50
180.00000000000011
 51
270.0
  0
ARC
  5
DE
  8
0
 10
182.68601804391409
 20
67.336106594014439
 30
0.0
 40
3.0
 50
180.00000000000011
 51
270.0
  0
ARC
  5
DF
  8
0
 10
167.68601804391409
 20
59.836106594014439
 30
0.0
 40
3.0
 50
0.0
 51
90.0
  0
LINE
  5
E0
  8
0
 10
189.18601804391409
 20
64.336106594014439
 30
0.0
 11
182.68601804391409
 21
64.336106594014439
 31
0.0
  0
LINE
  5
E1
  8
0
 10
189.68601804391409
 20
36.836106594010779
 30
0.0
 11
189.686018043914
 21
63.836106594014467
 31
0.0
  0
LINE
  5
E2
  8
0
 10
173.68601804391409
 20
36.33610659401441
 30
0.0
 11
189.18601804391409
 21
36.33610659401441
 31
0.0
  0
LINE
  5
E3
  8
0
 10
165.18601804391409
 20
62.836106594014439
 30
0.0
 11
167.68601804391409
 21
62.836106594014439
 31
0.0
  0
LINE
  5
E4
  8
0
 10
164.68601804391409
 20
63.33610659401262
 30
0.0
 11
165.18601804391409
 21
62.836106594014439
 31
0.0
  0
LINE
  5
E5
  8
0
 10
164.68601804391409
 20
87.336106594016243
 30
0.0
 11
164.68601804391409
 21
63.33610659401262
 31
0.0
  0
LINE
  5
E6
  8
0
 10
165.18601804391409
 20
87.836106594014439
 30
0.0
 11
164.68601804391409
 21
87.336106594016243
 31
0.0
  0
LINE
  5
E7
  8
0
 10
179.18601804391409
 20
87.836106594014439
 30
0.0
 11
165.18601804391409
 21
87.836106594014439
 31
0.0
  0
LINE
  5
E8
  8
0
 10
179.68601804391409
 20
87.336106594014439
 30
0.0
 11
179.18601804391409
 21
87.836106594014439
 31
0.0
  0
LINE
  5
E9
  8
0
 10
165.68601804391409
 20
44.936106594014348
 30
0.0
 11
165.68601804391409
 21
55.736106594014331
 31
0.0
  0
LINE
  5
EA
  8
0
 10
166.18601804391409
 20
56.236106594014352
 30
0.0
 11
170.68601804391409
 21
56.236106594014352
 31
0.0
  0
LINE
  5
EB
  8
0
 10
170.68601804391409
 20
44.436106594014369
 30
0.0
 11
166.18601804391409
 21
44.436106594014369
 31
0.0
  0
LINE
  5
EC
  8
0
 10
165.68601804391409
 20
55.736106594014331
 30
0.0
 11
166.18601804391409
 21
56.236106594014352
 31
0.0
  0
LINE
  5
ED
  8
0
 10
166.18601804391409
 20
44.436106594014369
 30
0.0
 11
165.68601804391409
 21
44.936106594014348
 31
0.0
  0
LINE
  5
EE
  8
0
 10
166.18601804391409
 20
44.436106594014369
 30
0.0
 11
166.18601804391409
 21
56.236106594014352
 31
0.0
  0
LINE
  5
EF
  8
0
 10
165.18601804391409
 20
62.836106594014439
 30
0.0
 11
165.186018043914
 21
87.836106594014439
 31
0.0
  0
LINE
  5
F0
  8
0
 10
169.43601804391409
 20
76.057794430501374
 30
0.0
 11
169.43601804391409
 21
74.614418757527545
 31
0.0
  0
LINE
  5
F1
  8
0
 10
170.68601804391389
 20
76.779482266988737
 30
0.0
 11
169.43601804391409
 21
76.057794430501374
 31
0.0
  0
LINE
  5
F2
  8
0
 10
171.93601804391409
 20
76.057794430501815
 30
0.0
 11
170.68601804391389
 21
76.779482266988737
 31
0.0
  0
LINE
  5
F3
  8
0
 10
171.93601804391409
 20
74.614418757527403
 30
0.0
 11
171.93601804391409
 21
76.057794430501815
 31
0.0
  0
LINE
  5
F4
  8
0
 10
170.68601804391409
 20
73.892730921040481
 30
0.0
 11
171.93601804391409
 21
74.614418757527403
 31
0.0
  0
LINE
  5
F5
  8
0
 10
169.43601804391409
 20
74.614418757527545
 30
0.0
 11
170.68601804391409
 21
73.892730921040481
 31
0.0
  0
LINE
  5
F6
  8
1
 10
192.6860180439021
 20
69.336106594014367
 30
0.0
 11
192.6860180439021
 21
59.33610659401436
 31
0.0
  0
LINE
  5
F7
  8
1
 10
192.6860180439019
 20
225.04338980886331
 30
0.0
 11
192.68601804390181
 21
215.04338980886331
 31
0.0
  0
TEXT
  5
222
  8
0
 62
     3
 10
0.0
 20
0.0
 30
0.0
 40
10.0
  1
FLT45A
  7
STANDARD1
  0
ENDSEC
  0
EOF
