  0
SECTION
  2
HEADER
  9
$ACADVER
  1
AC1009
  9
$INSBASE
 10
0.0
 20
0.0
 30
0.0
  9
$EXTMIN
 10
0.0
 20
-2.960436562073669
 30
0.0
  9
$EXTMAX
 10
301.08609146906178
 20
236.9219775458285
 30
0.0
  9
$LIMMIN
 10
0.0
 20
0.0
  9
$LIMMAX
 10
187.5
 20
135.0
  9
$ORTHOMODE
 70
     0
  9
$REGENMODE
 70
     1
  9
$FILLMODE
 70
     1
  9
$QTEXTMODE
 70
     0
  9
$MIRRTEXT
 70
     0
  9
$DRAGMODE
 70
     2
  9
$LTSCALE
 40
10.0
  9
$OSMODE
 70
    55
  9
$ATTMODE
 70
     1
  9
$TEXTSIZE
 40
4.0
  9
$TRACEWID
 40
0.05
  9
$TEXTSTYLE
  7
STANDARD
  9
$CLAYER
  8
0
  9
$CELTYPE
  6
BYLAYER
  9
$CECOLOR
 62
   256
  9
$DIMSCALE
 40
0.5
  9
$DIMASZ
 40
3.0
  9
$DIMEXO
 40
2.0
  9
$DIMDLI
 40
0.38
  9
$DIMRND
 40
0.0
  9
$DIMDLE
 40
0.0
  9
$DIMEXE
 40
2.0
  9
$DIMTP
 40
0.0
  9
$DIMTM
 40
0.0
  9
$DIMTXT
 40
3.0
  9
$DIMCEN
 40
0.0
  9
$DIMTSZ
 40
0.0
  9
$DIMTOL
 70
     0
  9
$DIMLIM
 70
     0
  9
$DIMTIH
 70
     0
  9
$DIMTOH
 70
     0
  9
$DIMSE1
 70
     0
  9
$DIMSE2
 70
     0
  9
$DIMTAD
 70
     1
  9
$DIMZIN
 70
     0
  9
$DIMBLK
  1

  9
$DIMASO
 70
     0
  9
$DIMSHO
 70
     0
  9
$DIMPOST
  1

  9
$DIMAPOST
  1

  9
$DIMALT
 70
     0
  9
$DIMALTD
 70
     2
  9
$DIMALTF
 40
25.399999999999999
  9
$DIMLFAC
 40
1.0
  9
$DIMTOFL
 70
     0
  9
$DIMTVP
 40
1.6000000000000001
  9
$DIMTIX
 70
     1
  9
$DIMSOXD
 70
     0
  9
$DIMSAH
 70
     0
  9
$DIMBLK1
  1

  9
$DIMBLK2
  1

  9
$DIMSTYLE
  2
STANDARD
  9
$DIMCLRD
 70
     0
  9
$DIMCLRE
 70
     0
  9
$DIMCLRT
 70
     0
  9
$DIMTFAC
 40
1.0
  9
$DIMGAP
 40
0.09
  9
$LUNITS
 70
     2
  9
$LUPREC
 70
     4
  9
$SKETCHINC
 40
0.1
  9
$FILLETRAD
 40
1.25
  9
$AUNITS
 70
     0
  9
$AUPREC
 70
     0
  9
$MENU
  1
E:\r13\win\SUPPORT\ACAD
  9
$ELEVATION
 40
0.0
  9
$PELEVATION
 40
0.0
  9
$THICKNESS
 40
0.0
  9
$LIMCHECK
 70
     0
  9
$BLIPMODE
 70
     0
  9
$CHAMFERA
 40
0.0
  9
$CHAMFERB
 40
0.0
  9
$SKPOLY
 70
     0
  9
$TDCREATE
 40
2449840.6143865739
  9
$TDUPDATE
 40
2456598.656457176
  9
$TDINDWG
 40
0.2318215856
  9
$TDUSRTIMER
 40
0.2318215856
  9
$USRTIMER
 70
     1
  9
$ANGBASE
 50
0.0
  9
$ANGDIR
 70
     0
  9
$PDMODE
 70
     0
  9
$PDSIZE
 40
0.0
  9
$PLINEWID
 40
0.0
  9
$COORDS
 70
     1
  9
$SPLFRAME
 70
     0
  9
$SPLINETYPE
 70
     6
  9
$SPLINESEGS
 70
     8
  9
$ATTDIA
 70
     0
  9
$ATTREQ
 70
     1
  9
$HANDLING
 70
     1
  9
$HANDSEED
  5
136D
  9
$SURFTAB1
 70
     6
  9
$SURFTAB2
 70
     6
  9
$SURFTYPE
 70
     6
  9
$SURFU
 70
     6
  9
$SURFV
 70
     6
  9
$UCSNAME
  2

  9
$UCSORG
 10
0.0
 20
0.0
 30
0.0
  9
$UCSXDIR
 10
1.0
 20
0.0
 30
0.0
  9
$UCSYDIR
 10
0.0
 20
1.0
 30
0.0
  9
$PUCSNAME
  2

  9
$PUCSORG
 10
0.0
 20
0.0
 30
0.0
  9
$PUCSXDIR
 10
1.0
 20
0.0
 30
0.0
  9
$PUCSYDIR
 10
0.0
 20
1.0
 30
0.0
  9
$USERI1
 70
     0
  9
$USERI2
 70
     1
  9
$USERI3
 70
     1
  9
$USERI4
 70
     0
  9
$USERI5
 70
     0
  9
$USERR1
 40
0.0
  9
$USERR2
 40
0.0
  9
$USERR3
 40
0.0
  9
$USERR4
 40
0.0
  9
$USERR5
 40
0.0
  9
$WORLDVIEW
 70
     1
  9
$SHADEDGE
 70
     3
  9
$SHADEDIF
 70
    70
  9
$TILEMODE
 70
     1
  9
$MAXACTVP
 70
    16
  9
$PLIMCHECK
 70
     0
  9
$PEXTMIN
 10
1.0000000000000000E+020
 20
1.0000000000000000E+020
 30
1.0000000000000000E+020
  9
$PEXTMAX
 10
-1.0000000000000000E+020
 20
-1.0000000000000000E+020
 30
-1.0000000000000000E+020
  9
$PLIMMIN
 10
0.0
 20
0.0
  9
$PLIMMAX
 10
12.0
 20
9.0
  9
$UNITMODE
 70
     0
  9
$VISRETAIN
 70
     0
  9
$PLINEGEN
 70
     0
  9
$PSLTSCALE
 70
     0
  0
ENDSEC
  0
SECTION
  2
TABLES
  0
TABLE
  2
VPORT
 70
     1
  0
VPORT
  2
*ACTIVE
 70
     0
 10
0.0
 20
0.0
 11
1.0
 21
1.0
 12
150.54304643555159
 22
153.36629839892339
 13
0.0
 23
0.0
 14
5.0
 24
5.0
 15
5.0
 25
5.0
 16
0.0
 26
0.0
 36
1.0
 17
0.0
 27
0.0
 37
0.0
 40
315.43337102945191
 41
1.7807262569832401
 42
50.0
 43
0.0
 44
0.0
 50
0.0
 51
0.0
 71
     0
 72
   100
 73
     1
 74
     0
 75
     0
 76
     0
 77
     0
 78
     0
  0
ENDTAB
  0
TABLE
  2
LTYPE
 70
     3
  0
LTYPE
  2
CONTINUOUS
 70
     0
  3
Solid Line
 72
    65
 73
     0
 40
0.0
  0
LTYPE
  2
CENTER
 70
     0
  3
____ _ ____ _ ____ _ ____ _ ____ _ ____ _ ____
 72
    65
 73
     4
 40
2.0
 49
1.25
 49
-0.25
 49
0.25
 49
-0.25
  0
LTYPE
  2
PHANTOM2
 70
     0
  3
___ _ _ ___ _ _ ___ _ _ ___ _ _
 72
    65
 73
     6
 40
1.25
 49
0.625
 49
-0.125
 49
0.125
 49
-0.125
 49
0.125
 49
-0.125
  0
ENDTAB
  0
TABLE
  2
LAYER
 70
     3
  0
LAYER
  2
0
 70
     0
 62
     7
  6
CONTINUOUS
  0
LAYER
  2
1
 70
     0
 62
     1
  6
CENTER
  0
LAYER
  2
3
 70
     0
 62
     3
  6
CONTINUOUS
  0
ENDTAB
  0
TABLE
  2
STYLE
 70
     2
  0
STYLE
  2
STANDARD
 70
     0
 40
0.0
 41
1.0
 50
0.0
 71
     0
 42
4.0
  3
TXT
  4
BIGFONT
  0
STYLE
  2
STANDARD1
 70
     0
 40
0.0
 41
1.0
 50
0.0
 71
     0
 42
3.0
  3
txt
  4

  0
ENDTAB
  0
TABLE
  2
VIEW
 70
     1
  0
VIEW
  2
ALL
 70
     0
 40
179.66152299999999
 10
141.903918
 20
89.830760999999995
 41
0.0
 11
0.0
 21
0.0
 31
1.0
 12
0.0
 22
0.0
 32
0.0
 42
0.0
 43
0.0
 44
0.0
 50
0.0
 71
     0
  0
ENDTAB
  0
TABLE
  2
UCS
 70
     0
  0
ENDTAB
  0
TABLE
  2
APPID
 70
     4
  0
APPID
  2
ACAD
 70
     0
  0
APPID
  2
DCO15
 70
     0
  0
APPID
  2
ACAD_MLEADERVER
 70
     0
  0
APPID
  2
ACAD_NAV_VCDISPLAY
 70
     0
  0
ENDTAB
  0
TABLE
  2
DIMSTYLE
 70
     1
  0
DIMSTYLE
  2
STANDARD
 70
     0
  3

  4

  5

  6

  7

 40
1.0
 41
0.18
 42
0.0625
 43
0.38
 44
0.18
 45
0.0
 46
0.0
 47
0.0
 48
0.0
140
0.18
141
0.09
142
0.0
143
25.399999999999999
144
1.0
145
0.0
146
1.0
147
0.09
 71
     0
 72
     0
 73
     1
 74
     1
 75
     0
 76
     0
 77
     0
 78
     0
170
     0
171
     2
172
     0
173
     0
174
     0
175
     0
176
     0
177
     0
178
     0
  0
ENDTAB
  0
ENDSEC
  0
SECTION
  2
BLOCKS
  0
BLOCK
  8
0
  2
$MODEL_SPACE
 70
     0
 10
0.0
 20
0.0
 30
0.0
  3
$MODEL_SPACE
  1

  0
ENDBLK
  5
1BD
  8
0
  0
BLOCK
 67
     1
  8
0
  2
$PAPER_SPACE
 70
     0
 10
0.0
 20
0.0
 30
0.0
  3
$PAPER_SPACE
  1

  0
ENDBLK
  5
1BB
 67
     1
  8
0
  0
ENDSEC
  0
SECTION
  2
ENTITIES
  0
LINE
  5
E7E
  8
1
 10
242.35822889419569
 20
222.4219775458285
 30
0.0
 11
157.85822889419569
 21
222.4219775458285
 31
0.0
  0
ARC
  5
E7F
  8
0
 10
172.35822889419569
 20
222.4219775458285
 30
0.0
 40
9.5
 50
43.960390333331041
 51
167.0937516733598
  0
ARC
  5
E80
  8
0
 10
191.71851641283601
 20
177.8379826577372
 30
0.0
 40
40.0
 50
76.417232813746722
 51
108.2431324165678
  0
ARC
  5
E81
  8
0
 10
191.71851641283601
 20
267.00597243391979
 30
0.0
 40
40.0
 50
251.7568675834319
 51
283.58276718625319
  0
ARC
  5
E82
  8
0
 10
172.35822889419569
 20
222.4219775458285
 30
0.0
 40
9.5
 50
192.90624832664011
 51
316.03960966666949
  0
LINE
  5
E83
  8
1
 10
172.35822889419569
 20
236.9219775458285
 30
0.0
 11
172.35822889419569
 21
207.9219775458285
 31
0.0
  0
CIRCLE
  5
E84
  8
0
 10
173.1309436413504
 20
222.4219775458285
 30
0.0
 40
5.3807200853997337
  0
LINE
  5
E86
  8
0
 10
163.0982288941957
 20
220.30009159224861
 30
0.0
 11
163.0982288941957
 21
224.54386349940839
 31
0.0
  0
LINE
  5
E93
  8
0
 10
202.4673405651219
 20
216.58267041085659
 30
0.0
 11
232.60822889419569
 21
217.6719775458285
 31
0.0
  0
LINE
  5
E94
  8
0
 10
202.4673405651219
 20
228.26128468080049
 30
0.0
 11
232.60822889419569
 21
227.1719775458285
 31
0.0
  0
ARC
  5
E95
  8
0
 10
202.28675590098581
 20
221.57940826460461
 30
0.0
 40
5.0
 50
256.41723281374669
 51
272.0697979717865
  0
ARC
  5
E96
  8
0
 10
202.28675590098581
 20
223.26454682705241
 30
0.0
 40
5.0
 50
87.930202028213543
 51
103.58276718625319
  0
ARC
  5
E97
  8
0
 10
232.60822889419569
 20
222.4219775458285
 30
0.0
 40
4.75
 50
270.0
 51
90.0
  0
LINE
  5
E98
  8
0
 10
163.09822889419561
 20
153.3660100055462
 30
0.0
 11
163.0982288941957
 21
138.78555449559039
 31
0.0
  0
LINE
  5
E99
  8
0
 10
181.5982288941957
 20
138.78555449559039
 30
0.0
 11
181.59822889419561
 21
149.78555449559039
 31
0.0
  0
LINE
  5
E9A
  8
0
 10
233.5728406092654
 20
165.09424470299891
 30
0.0
 11
226.31085456755409
 21
162.8073359079109
 31
0.0
  0
LINE
  5
E9B
  8
0
 10
223.3071258558287
 20
162.34555449559039
 30
0.0
 11
214.5033693504156
 21
162.34555449559039
 31
0.0
  0
LINE
  5
E9C
  8
0
 10
181.5982288941957
 20
138.78555449559039
 30
0.0
 11
163.0982288941957
 21
138.78555449559039
 31
0.0
  0
LINE
  5
E9E
  8
0
 10
179.10822889419569
 20
132.28555449559039
 30
0.0
 11
179.10822889419569
 21
138.78555449559039
 31
0.0
  0
LINE
  5
E9F
  8
0
 10
165.60822889419569
 20
138.78555449559039
 30
0.0
 11
165.60822889419569
 21
132.28555449559039
 31
0.0
  0
LINE
  5
EA1
  8
0
 10
165.60822889419569
 20
132.28555449559039
 30
0.0
 11
179.10822889419569
 21
132.28555449559039
 31
0.0
  0
LINE
  5
EA2
  8
1
 10
172.35822889419569
 20
165.78555449559039
 30
0.0
 11
172.35822889419569
 21
112.28555449558981
 31
0.0
  0
ARC
  5
EB0
  8
0
 10
172.35822889419569
 20
66.035502119709349
 30
0.0
 40
9.5
 50
43.960390333331041
 51
167.0937516733598
  0
ARC
  5
EB1
  8
0
 10
172.35822889419569
 20
66.035502119709349
 30
0.0
 40
9.5
 50
192.90624832664011
 51
316.03960966666949
  0
LINE
  5
EB2
  8
1
 10
242.35822889419569
 20
66.035502119709363
 30
0.0
 11
157.85822889419569
 21
66.035502119709349
 31
0.0
  0
LINE
  5
EB3
  8
1
 10
172.35822889419569
 20
80.535502119709335
 30
0.0
 11
172.35822889419569
 21
51.535502119709349
 31
0.0
  0
LINE
  5
EB4
  8
0
 10
163.09822889419561
 20
63.91361616612943
 30
0.0
 11
163.09822889419561
 21
68.157388073289297
 31
0.0
  0
LINE
  5
EB5
  8
0
 10
202.4673405651219
 20
60.19619498473741
 30
0.0
 11
232.60822889419569
 21
61.285502119709349
 31
0.0
  0
LINE
  5
EB6
  8
0
 10
202.4673405651219
 20
71.874809254681324
 30
0.0
 11
232.60822889419569
 21
70.785502119709378
 31
0.0
  0
ARC
  5
EB7
  8
0
 10
191.71851641283601
 20
21.451507231618109
 30
0.0
 40
40.0
 50
76.417232813746722
 51
108.2431324165678
  0
ARC
  5
EB8
  8
0
 10
202.2867559009857
 20
65.19293283848549
 30
0.0
 40
5.0
 50
256.41723281374669
 51
272.0697979717865
  0
ARC
  5
EB9
  8
0
 10
191.71851641283601
 20
110.6194970078006
 30
0.0
 40
40.0
 50
251.7568675834319
 51
283.58276718625319
  0
ARC
  5
EBA
  8
0
 10
202.2867559009857
 20
66.878071400933266
 30
0.0
 40
5.0
 50
87.930202028213543
 51
103.58276718625319
  0
ARC
  5
EBB
  8
0
 10
232.60822889419569
 20
66.035502119709363
 30
0.0
 40
4.75
 50
270.0
 51
90.0
  0
CIRCLE
  5
EBC
  8
0
 10
172.35822889419569
 20
66.035502119709349
 30
0.0
 40
9.2500000000000213
  0
CIRCLE
  5
EBD
  8
3
 10
172.35822889419561
 20
66.035502119709349
 30
0.0
 40
3.375
  0
CIRCLE
  5
EBE
  8
0
 10
172.35822889419561
 20
66.035502119709349
 30
0.0
 40
4.0
  0
LINE
  5
EC1
  8
0
 10
107.30088848732289
 20
132.28555449559039
 30
0.0
 11
107.30088848732289
 21
138.78555449559039
 31
0.0
  0
LINE
  5
EC2
  8
0
 10
93.800888487322936
 20
138.78555449559039
 30
0.0
 11
93.800888487322936
 21
132.28555449559039
 31
0.0
  0
LINE
  5
EC4
  8
0
 10
93.800888487322936
 20
132.28555449559039
 30
0.0
 11
107.30088848732289
 21
132.28555449559039
 31
0.0
  0
LINE
  5
EC5
  8
0
 10
94.34744994411875
 20
157.01336026625569
 30
0.0
 11
106.75432703052709
 21
157.01336026625569
 31
0.0
  0
LINE
  5
EC6
  8
0
 10
109.80088848732289
 20
138.78555449559039
 30
0.0
 11
91.300888487322936
 21
138.78555449559039
 31
0.0
  0
LINE
  5
EC7
  8
1
 10
100.55088848732289
 20
179.57058872112731
 30
0.0
 11
100.55088848732289
 21
112.2855544955905
 31
0.0
  0
ARC
  5
EC8
  8
0
 10
233.86981531642721
 20
171.28563795816009
 30
0.0
 40
3.5
 50
355.33664836780463
 51
90.395685692583854
  0
ARC
  5
EC9
  8
0
 10
256.81085593686942
 20
-54.065049744680493
 30
0.0
 40
230.0
 50
95.730460647055494
 51
113.38817846563499
  0
ARC
  5
ECA
  8
0
 10
167.0982288941957
 20
153.3660100055462
 30
0.0
 40
4.0
 50
113.3881784656329
 51
180.0
  0
ARC
  5
ECB
  8
0
 10
278.84273482747568
 20
-47.555536171792539
 30
0.0
 40
220.0
 50
107.8410827436654
 51
116.23286702971259
  0
ARC
  5
ECC
  8
0
 10
214.5033693504156
 20
152.34555449559051
 30
0.0
 40
10.0
 50
90.0
 51
107.8410827436654
  0
ARC
  5
ECD
  8
0
 10
223.3071258558287
 20
172.34555449559039
 30
0.0
 40
10.0
 50
270.0
 51
287.47999999999939
  0
ARC
  5
ECE
  8
0
 10
229.47617838737821
 20
171.9657335256459
 30
0.0
 40
8.0
 50
300.80266237156633
 51
350.14910440292891
  0
LINE
  5
ECF
  8
0
 10
237.35822889419569
 20
171.57019148641211
 30
0.0
 11
237.35822889419569
 21
170.597055401331
 31
0.0
  0
LINE
  5
ED0
  8
0
 10
102.388154247937
 20
158.16114130127761
 30
0.0
 11
98.713622726708863
 21
158.16114130127761
 31
0.0
  0
POLYLINE
  5
ED1
  8
0
 10
102.38815424793698
 20
158.16114130127764
 30
0.0
 66
     1
 70
     8
  0
VERTEX
  8
0
  5
1165
 10
102.388
 20
158.161
 30
0.000000
  70
    32
  0
VERTEX
  8
0
  5
1166
 10
102.605
 20
158.195
 30
0.000000
  70
    32
  0
VERTEX
  8
0
  5
1167
 10
102.819
 20
158.232
 30
0.000000
  70
    32
  0
VERTEX
  8
0
  5
1168
 10
103.028
 20
158.273
 30
0.000000
  70
    32
  0
VERTEX
  8
0
  5
1169
 10
103.232
 20
158.318
 30
0.000000
  70
    32
  0
VERTEX
  8
0
  5
116A
 10
103.431
 20
158.366
 30
0.000000
  70
    32
  0
VERTEX
  8
0
  5
116B
 10
103.625
 20
158.418
 30
0.000000
  70
    32
  0
VERTEX
  8
0
  5
116C
 10
103.813
 20
158.473
 30
0.000000
  70
    32
  0
VERTEX
  8
0
  5
116D
 10
103.994
 20
158.531
 30
0.000000
  70
    32
  0
VERTEX
  8
0
  5
116E
 10
104.169
 20
158.592
 30
0.000000
  70
    32
  0
VERTEX
  8
0
  5
116F
 10
104.337
 20
158.656
 30
0.000000
  70
    32
  0
VERTEX
  8
0
  5
1170
 10
104.498
 20
158.723
 30
0.000000
  70
    32
  0
VERTEX
  8
0
  5
1171
 10
104.652
 20
158.792
 30
0.000000
  70
    32
  0
VERTEX
  8
0
  5
1172
 10
104.798
 20
158.865
 30
0.000000
  70
    32
  0
VERTEX
  8
0
  5
1173
 10
104.935
 20
158.939
 30
0.000000
  70
    32
  0
VERTEX
  8
0
  5
1174
 10
105.065
 20
159.016
 30
0.000000
  70
    32
  0
VERTEX
  8
0
  5
1175
 10
105.185
 20
159.096
 30
0.000000
  70
    32
  0
VERTEX
  8
0
  5
1176
 10
105.297
 20
159.177
 30
0.000000
  70
    32
  0
VERTEX
  8
0
  5
1177
 10
105.400
 20
159.260
 30
0.000000
  70
    32
  0
VERTEX
  8
0
  5
1178
 10
105.494
 20
159.345
 30
0.000000
  70
    32
  0
VERTEX
  8
0
  5
1179
 10
105.578
 20
159.431
 30
0.000000
  70
    32
  0
VERTEX
  8
0
  5
117A
 10
105.653
 20
159.519
 30
0.000000
  70
    32
  0
VERTEX
  8
0
  5
117B
 10
105.718
 20
159.608
 30
0.000000
  70
    32
  0
VERTEX
  8
0
  5
117C
 10
105.773
 20
159.698
 30
0.000000
  70
    32
  0
VERTEX
  8
0
  5
117D
 10
105.818
 20
159.788
 30
0.000000
  70
    32
  0
VERTEX
  8
0
  5
117E
 10
105.853
 20
159.880
 30
0.000000
  70
    32
  0
VERTEX
  8
0
  5
117F
 10
105.879
 20
159.972
 30
0.000000
  70
    32
  0
VERTEX
  8
0
  5
1180
 10
105.894
 20
160.064
 30
0.000000
  70
    32
  0
VERTEX
  8
0
  5
1181
 10
105.898
 20
160.157
 30
0.000000
  70
    32
  0
VERTEX
  8
0
  5
1182
 10
105.893
 20
160.249
 30
0.000000
  70
    32
  0
VERTEX
  8
0
  5
1183
 10
105.878
 20
160.342
 30
0.000000
  70
    32
  0
VERTEX
  8
0
  5
1184
 10
105.852
 20
160.434
 30
0.000000
  70
    32
  0
VERTEX
  8
0
  5
1185
 10
105.816
 20
160.525
 30
0.000000
  70
    32
  0
VERTEX
  8
0
  5
1186
 10
105.771
 20
160.616
 30
0.000000
  70
    32
  0
VERTEX
  8
0
  5
1187
 10
105.715
 20
160.706
 30
0.000000
  70
    32
  0
VERTEX
  8
0
  5
1188
 10
105.650
 20
160.795
 30
0.000000
  70
    32
  0
VERTEX
  8
0
  5
1189
 10
105.575
 20
160.882
 30
0.000000
  70
    32
  0
VERTEX
  8
0
  5
118A
 10
105.490
 20
160.969
 30
0.000000
  70
    32
  0
VERTEX
  8
0
  5
118B
 10
105.396
 20
161.053
 30
0.000000
  70
    32
  0
VERTEX
  8
0
  5
118C
 10
105.293
 20
161.136
 30
0.000000
  70
    32
  0
VERTEX
  8
0
  5
118D
 10
105.180
 20
161.217
 30
0.000000
  70
    32
  0
VERTEX
  8
0
  5
118E
 10
105.059
 20
161.297
 30
0.000000
  70
    32
  0
VERTEX
  8
0
  5
118F
 10
104.930
 20
161.374
 30
0.000000
  70
    32
  0
VERTEX
  8
0
  5
1190
 10
104.792
 20
161.448
 30
0.000000
  70
    32
  0
VERTEX
  8
0
  5
1191
 10
104.646
 20
161.520
 30
0.000000
  70
    32
  0
VERTEX
  8
0
  5
1192
 10
104.492
 20
161.590
 30
0.000000
  70
    32
  0
VERTEX
  8
0
  5
1193
 10
104.330
 20
161.657
 30
0.000000
  70
    32
  0
VERTEX
  8
0
  5
1194
 10
104.162
 20
161.721
 30
0.000000
  70
    32
  0
VERTEX
  8
0
  5
1195
 10
103.987
 20
161.782
 30
0.000000
  70
    32
  0
VERTEX
  8
0
  5
1196
 10
103.805
 20
161.840
 30
0.000000
  70
    32
  0
VERTEX
  8
0
  5
1197
 10
103.617
 20
161.894
 30
0.000000
  70
    32
  0
VERTEX
  8
0
  5
1198
 10
103.423
 20
161.946
 30
0.000000
  70
    32
  0
VERTEX
  8
0
  5
1199
 10
103.223
 20
161.994
 30
0.000000
  70
    32
  0
VERTEX
  8
0
  5
119A
 10
103.019
 20
162.038
 30
0.000000
  70
    32
  0
VERTEX
  8
0
  5
119B
 10
102.810
 20
162.079
 30
0.000000
  70
    32
  0
VERTEX
  8
0
  5
119C
 10
102.596
 20
162.116
 30
0.000000
  70
    32
  0
VERTEX
  8
0
  5
119D
 10
102.379
 20
162.150
 30
0.000000
  70
    32
  0
VERTEX
  8
0
  5
119E
 10
102.158
 20
162.180
 30
0.000000
  70
    32
  0
VERTEX
  8
0
  5
119F
 10
101.934
 20
162.206
 30
0.000000
  70
    32
  0
VERTEX
  8
0
  5
11A0
 10
101.708
 20
162.228
 30
0.000000
  70
    32
  0
VERTEX
  8
0
  5
11A1
 10
101.479
 20
162.246
 30
0.000000
  70
    32
  0
VERTEX
  8
0
  5
11A2
 10
101.248
 20
162.260
 30
0.000000
  70
    32
  0
VERTEX
  8
0
  5
11A3
 10
101.017
 20
162.270
 30
0.000000
  70
    32
  0
VERTEX
  8
0
  5
11A4
 10
100.784
 20
162.276
 30
0.000000
  70
    32
  0
VERTEX
  8
0
  5
11A5
 10
100.551
 20
162.278
 30
0.000000
  70
    32
  0
VERTEX
  8
0
  5
11A6
 10
100.318
 20
162.276
 30
0.000000
  70
    32
  0
VERTEX
  8
0
  5
11A7
 10
100.085
 20
162.270
 30
0.000000
  70
    32
  0
VERTEX
  8
0
  5
11A8
 10
99.8533
 20
162.260
 30
0.000000
  70
    32
  0
VERTEX
  8
0
  5
11A9
 10
99.6228
 20
162.246
 30
0.000000
  70
    32
  0
VERTEX
  8
0
  5
11AA
 10
99.3941
 20
162.228
 30
0.000000
  70
    32
  0
VERTEX
  8
0
  5
11AB
 10
99.1676
 20
162.206
 30
0.000000
  70
    32
  0
VERTEX
  8
0
  5
11AC
 10
98.9438
 20
162.180
 30
0.000000
  70
    32
  0
VERTEX
  8
0
  5
11AD
 10
98.7229
 20
162.150
 30
0.000000
  70
    32
  0
VERTEX
  8
0
  5
11AE
 10
98.5056
 20
162.116
 30
0.000000
  70
    32
  0
VERTEX
  8
0
  5
11AF
 10
98.2922
 20
162.079
 30
0.000000
  70
    32
  0
VERTEX
  8
0
  5
11B0
 10
98.0830
 20
162.038
 30
0.000000
  70
    32
  0
VERTEX
  8
0
  5
11B1
 10
97.8785
 20
161.994
 30
0.000000
  70
    32
  0
VERTEX
  8
0
  5
11B2
 10
97.6792
 20
161.946
 30
0.000000
  70
    32
  0
VERTEX
  8
0
  5
11B3
 10
97.4852
 20
161.894
 30
0.000000
  70
    32
  0
VERTEX
  8
0
  5
11B4
 10
97.2971
 20
161.840
 30
0.000000
  70
    32
  0
VERTEX
  8
0
  5
11B5
 10
97.1152
 20
161.782
 30
0.000000
  70
    32
  0
VERTEX
  8
0
  5
11B6
 10
96.9399
 20
161.721
 30
0.000000
  70
    32
  0
VERTEX
  8
0
  5
11B7
 10
96.7713
 20
161.657
 30
0.000000
  70
    32
  0
VERTEX
  8
0
  5
11B8
 10
96.6100
 20
161.590
 30
0.000000
  70
    32
  0
VERTEX
  8
0
  5
11B9
 10
96.4562
 20
161.520
 30
0.000000
  70
    32
  0
VERTEX
  8
0
  5
11BA
 10
96.3101
 20
161.448
 30
0.000000
  70
    32
  0
VERTEX
  8
0
  5
11BB
 10
96.1722
 20
161.374
 30
0.000000
  70
    32
  0
VERTEX
  8
0
  5
11BC
 10
96.0425
 20
161.297
 30
0.000000
  70
    32
  0
VERTEX
  8
0
  5
11BD
 10
95.9214
 20
161.217
 30
0.000000
  70
    32
  0
VERTEX
  8
0
  5
11BE
 10
95.8091
 20
161.136
 30
0.000000
  70
    32
  0
VERTEX
  8
0
  5
11BF
 10
95.7059
 20
161.053
 30
0.000000
  70
    32
  0
VERTEX
  8
0
  5
11C0
 10
95.6118
 20
160.969
 30
0.000000
  70
    32
  0
VERTEX
  8
0
  5
11C1
 10
95.5271
 20
160.882
 30
0.000000
  70
    32
  0
VERTEX
  8
0
  5
11C2
 10
95.4520
 20
160.795
 30
0.000000
  70
    32
  0
VERTEX
  8
0
  5
11C3
 10
95.3866
 20
160.706
 30
0.000000
  70
    32
  0
VERTEX
  8
0
  5
11C4
 10
95.3310
 20
160.616
 30
0.000000
  70
    32
  0
VERTEX
  8
0
  5
11C5
 10
95.2853
 20
160.525
 30
0.000000
  70
    32
  0
VERTEX
  8
0
  5
11C6
 10
95.2497
 20
160.434
 30
0.000000
  70
    32
  0
VERTEX
  8
0
  5
11C7
 10
95.2241
 20
160.342
 30
0.000000
  70
    32
  0
VERTEX
  8
0
  5
11C8
 10
95.2086
 20
160.249
 30
0.000000
  70
    32
  0
VERTEX
  8
0
  5
11C9
 10
95.2033
 20
160.157
 30
0.000000
  70
    32
  0
VERTEX
  8
0
  5
11CA
 10
95.2082
 20
160.064
 30
0.000000
  70
    32
  0
VERTEX
  8
0
  5
11CB
 10
95.2232
 20
159.972
 30
0.000000
  70
    32
  0
VERTEX
  8
0
  5
11CC
 10
95.2484
 20
159.880
 30
0.000000
  70
    32
  0
VERTEX
  8
0
  5
11CD
 10
95.2836
 20
159.788
 30
0.000000
  70
    32
  0
VERTEX
  8
0
  5
11CE
 10
95.3289
 20
159.698
 30
0.000000
  70
    32
  0
VERTEX
  8
0
  5
11CF
 10
95.3840
 20
159.608
 30
0.000000
  70
    32
  0
VERTEX
  8
0
  5
11D0
 10
95.4490
 20
159.519
 30
0.000000
  70
    32
  0
VERTEX
  8
0
  5
11D1
 10
95.5237
 20
159.431
 30
0.000000
  70
    32
  0
VERTEX
  8
0
  5
11D2
 10
95.6080
 20
159.345
 30
0.000000
  70
    32
  0
VERTEX
  8
0
  5
11D3
 10
95.7017
 20
159.260
 30
0.000000
  70
    32
  0
VERTEX
  8
0
  5
11D4
 10
95.8046
 20
159.177
 30
0.000000
  70
    32
  0
VERTEX
  8
0
  5
11D5
 10
95.9165
 20
159.096
 30
0.000000
  70
    32
  0
VERTEX
  8
0
  5
11D6
 10
96.0372
 20
159.016
 30
0.000000
  70
    32
  0
VERTEX
  8
0
  5
11D7
 10
96.1665
 20
158.939
 30
0.000000
  70
    32
  0
VERTEX
  8
0
  5
11D8
 10
96.3041
 20
158.865
 30
0.000000
  70
    32
  0
VERTEX
  8
0
  5
11D9
 10
96.4498
 20
158.792
 30
0.000000
  70
    32
  0
VERTEX
  8
0
  5
11DA
 10
96.6033
 20
158.723
 30
0.000000
  70
    32
  0
VERTEX
  8
0
  5
11DB
 10
96.7643
 20
158.656
 30
0.000000
  70
    32
  0
VERTEX
  8
0
  5
11DC
 10
96.9325
 20
158.592
 30
0.000000
  70
    32
  0
VERTEX
  8
0
  5
11DD
 10
97.1076
 20
158.531
 30
0.000000
  70
    32
  0
VERTEX
  8
0
  5
11DE
 10
97.2893
 20
158.473
 30
0.000000
  70
    32
  0
VERTEX
  8
0
  5
11DF
 10
97.4771
 20
158.418
 30
0.000000
  70
    32
  0
VERTEX
  8
0
  5
11E0
 10
97.6708
 20
158.366
 30
0.000000
  70
    32
  0
VERTEX
  8
0
  5
11E1
 10
97.8699
 20
158.318
 30
0.000000
  70
    32
  0
VERTEX
  8
0
  5
11E2
 10
98.0742
 20
158.273
 30
0.000000
  70
    32
  0
VERTEX
  8
0
  5
11E3
 10
98.2832
 20
158.232
 30
0.000000
  70
    32
  0
VERTEX
  8
0
  5
11E4
 10
98.4964
 20
158.195
 30
0.000000
  70
    32
  0
VERTEX
  8
0
  5
11E5
 10
98.7136
 20
158.161
 30
0.000000
  70
    32
  0
SEQEND
  8
0
  5
11E6
  0
POLYLINE
  5
ED2
  8
0
 10
106.75432703052707
 20
157.01336026625572
 30
0.0
 66
     1
 70
     8
  0
VERTEX
  8
0
  5
11E7
 10
106.754
 20
157.013
 30
0.000000
  70
    32
  0
VERTEX
  8
0
  5
11E8
 10
107.023
 20
157.108
 30
0.000000
  70
    32
  0
VERTEX
  8
0
  5
11E9
 10
107.282
 20
157.207
 30
0.000000
  70
    32
  0
VERTEX
  8
0
  5
11EA
 10
107.531
 20
157.309
 30
0.000000
  70
    32
  0
VERTEX
  8
0
  5
11EB
 10
107.771
 20
157.416
 30
0.000000
  70
    32
  0
VERTEX
  8
0
  5
11EC
 10
108.000
 20
157.525
 30
0.000000
  70
    32
  0
VERTEX
  8
0
  5
11ED
 10
108.218
 20
157.638
 30
0.000000
  70
    32
  0
VERTEX
  8
0
  5
11EE
 10
108.425
 20
157.755
 30
0.000000
  70
    32
  0
VERTEX
  8
0
  5
11EF
 10
108.621
 20
157.874
 30
0.000000
  70
    32
  0
VERTEX
  8
0
  5
11F0
 10
108.806
 20
157.996
 30
0.000000
  70
    32
  0
VERTEX
  8
0
  5
11F1
 10
108.978
 20
158.121
 30
0.000000
  70
    32
  0
VERTEX
  8
0
  5
11F2
 10
109.138
 20
158.248
 30
0.000000
  70
    32
  0
VERTEX
  8
0
  5
11F3
 10
109.286
 20
158.377
 30
0.000000
  70
    32
  0
VERTEX
  8
0
  5
11F4
 10
109.421
 20
158.509
 30
0.000000
  70
    32
  0
VERTEX
  8
0
  5
11F5
 10
109.544
 20
158.643
 30
0.000000
  70
    32
  0
VERTEX
  8
0
  5
11F6
 10
109.653
 20
158.778
 30
0.000000
  70
    32
  0
VERTEX
  8
0
  5
11F7
 10
109.749
 20
158.915
 30
0.000000
  70
    32
  0
VERTEX
  8
0
  5
11F8
 10
109.833
 20
159.053
 30
0.000000
  70
    32
  0
VERTEX
  8
0
  5
11F9
 10
109.902
 20
159.192
 30
0.000000
  70
    32
  0
VERTEX
  8
0
  5
11FA
 10
109.959
 20
159.333
 30
0.000000
  70
    32
  0
VERTEX
  8
0
  5
11FB
 10
110.001
 20
159.474
 30
0.000000
  70
    32
  0
VERTEX
  8
0
  5
11FC
 10
110.030
 20
159.615
 30
0.000000
  70
    32
  0
VERTEX
  8
0
  5
11FD
 10
110.046
 20
159.757
 30
0.000000
  70
    32
  0
VERTEX
  8
0
  5
11FE
 10
110.048
 20
159.899
 30
0.000000
  70
    32
  0
VERTEX
  8
0
  5
11FF
 10
110.036
 20
160.041
 30
0.000000
  70
    32
  0
VERTEX
  8
0
  5
1200
 10
110.010
 20
160.183
 30
0.000000
  70
    32
  0
VERTEX
  8
0
  5
1201
 10
109.971
 20
160.324
 30
0.000000
  70
    32
  0
VERTEX
  8
0
  5
1202
 10
109.918
 20
160.464
 30
0.000000
  70
    32
  0
VERTEX
  8
0
  5
1203
 10
109.852
 20
160.604
 30
0.000000
  70
    32
  0
VERTEX
  8
0
  5
1204
 10
109.772
 20
160.742
 30
0.000000
  70
    32
  0
VERTEX
  8
0
  5
1205
 10
109.679
 20
160.880
 30
0.000000
  70
    32
  0
VERTEX
  8
0
  5
1206
 10
109.573
 20
161.015
 30
0.000000
  70
    32
  0
VERTEX
  8
0
  5
1207
 10
109.453
 20
161.149
 30
0.000000
  70
    32
  0
VERTEX
  8
0
  5
1208
 10
109.321
 20
161.282
 30
0.000000
  70
    32
  0
VERTEX
  8
0
  5
1209
 10
109.177
 20
161.412
 30
0.000000
  70
    32
  0
VERTEX
  8
0
  5
120A
 10
109.020
 20
161.539
 30
0.000000
  70
    32
  0
VERTEX
  8
0
  5
120B
 10
108.850
 20
161.665
 30
0.000000
  70
    32
  0
VERTEX
  8
0
  5
120C
 10
108.669
 20
161.788
 30
0.000000
  70
    32
  0
VERTEX
  8
0
  5
120D
 10
108.476
 20
161.908
 30
0.000000
  70
    32
  0
VERTEX
  8
0
  5
120E
 10
108.272
 20
162.025
 30
0.000000
  70
    32
  0
VERTEX
  8
0
  5
120F
 10
108.056
 20
162.138
 30
0.000000
  70
    32
  0
VERTEX
  8
0
  5
1210
 10
107.830
 20
162.249
 30
0.000000
  70
    32
  0
VERTEX
  8
0
  5
1211
 10
107.593
 20
162.356
 30
0.000000
  70
    32
  0
VERTEX
  8
0
  5
1212
 10
107.346
 20
162.460
 30
0.000000
  70
    32
  0
VERTEX
  8
0
  5
1213
 10
107.089
 20
162.559
 30
0.000000
  70
    32
  0
VERTEX
  8
0
  5
1214
 10
106.823
 20
162.655
 30
0.000000
  70
    32
  0
VERTEX
  8
0
  5
1215
 10
106.548
 20
162.747
 30
0.000000
  70
    32
  0
VERTEX
  8
0
  5
1216
 10
106.264
 20
162.834
 30
0.000000
  70
    32
  0
VERTEX
  8
0
  5
1217
 10
105.972
 20
162.918
 30
0.000000
  70
    32
  0
VERTEX
  8
0
  5
1218
 10
105.672
 20
162.996
 30
0.000000
  70
    32
  0
VERTEX
  8
0
  5
1219
 10
105.365
 20
163.071
 30
0.000000
  70
    32
  0
VERTEX
  8
0
  5
121A
 10
105.051
 20
163.140
 30
0.000000
  70
    32
  0
VERTEX
  8
0
  5
121B
 10
104.730
 20
163.205
 30
0.000000
  70
    32
  0
VERTEX
  8
0
  5
121C
 10
104.403
 20
163.265
 30
0.000000
  70
    32
  0
VERTEX
  8
0
  5
121D
 10
104.071
 20
163.320
 30
0.000000
  70
    32
  0
VERTEX
  8
0
  5
121E
 10
103.733
 20
163.371
 30
0.000000
  70
    32
  0
VERTEX
  8
0
  5
121F
 10
103.391
 20
163.416
 30
0.000000
  70
    32
  0
VERTEX
  8
0
  5
1220
 10
103.045
 20
163.456
 30
0.000000
  70
    32
  0
VERTEX
  8
0
  5
1221
 10
102.696
 20
163.490
 30
0.000000
  70
    32
  0
VERTEX
  8
0
  5
1222
 10
102.343
 20
163.520
 30
0.000000
  70
    32
  0
VERTEX
  8
0
  5
1223
 10
101.988
 20
163.544
 30
0.000000
  70
    32
  0
VERTEX
  8
0
  5
1224
 10
101.630
 20
163.563
 30
0.000000
  70
    32
  0
VERTEX
  8
0
  5
1225
 10
101.271
 20
163.576
 30
0.000000
  70
    32
  0
VERTEX
  8
0
  5
1226
 10
100.911
 20
163.584
 30
0.000000
  70
    32
  0
VERTEX
  8
0
  5
1227
 10
100.551
 20
163.587
 30
0.000000
  70
    32
  0
VERTEX
  8
0
  5
1228
 10
100.190
 20
163.584
 30
0.000000
  70
    32
  0
VERTEX
  8
0
  5
1229
 10
99.8304
 20
163.576
 30
0.000000
  70
    32
  0
VERTEX
  8
0
  5
122A
 10
99.4715
 20
163.563
 30
0.000000
  70
    32
  0
VERTEX
  8
0
  5
122B
 10
99.1141
 20
163.544
 30
0.000000
  70
    32
  0
VERTEX
  8
0
  5
122C
 10
98.7588
 20
163.520
 30
0.000000
  70
    32
  0
VERTEX
  8
0
  5
122D
 10
98.4060
 20
163.490
 30
0.000000
  70
    32
  0
VERTEX
  8
0
  5
122E
 10
98.0564
 20
163.456
 30
0.000000
  70
    32
  0
VERTEX
  8
0
  5
122F
 10
97.7103
 20
163.416
 30
0.000000
  70
    32
  0
VERTEX
  8
0
  5
1230
 10
97.3684
 20
163.371
 30
0.000000
  70
    32
  0
VERTEX
  8
0
  5
1231
 10
97.0310
 20
163.320
 30
0.000000
  70
    32
  0
VERTEX
  8
0
  5
1232
 10
96.6987
 20
163.265
 30
0.000000
  70
    32
  0
VERTEX
  8
0
  5
1233
 10
96.3720
 20
163.205
 30
0.000000
  70
    32
  0
VERTEX
  8
0
  5
1234
 10
96.0513
 20
163.140
 30
0.000000
  70
    32
  0
VERTEX
  8
0
  5
1235
 10
95.7370
 20
163.071
 30
0.000000
  70
    32
  0
VERTEX
  8
0
  5
1236
 10
95.4297
 20
162.996
 30
0.000000
  70
    32
  0
VERTEX
  8
0
  5
1237
 10
95.1298
 20
162.918
 30
0.000000
  70
    32
  0
VERTEX
  8
0
  5
1238
 10
94.8377
 20
162.834
 30
0.000000
  70
    32
  0
VERTEX
  8
0
  5
1239
 10
94.5539
 20
162.747
 30
0.000000
  70
    32
  0
VERTEX
  8
0
  5
123A
 10
94.2786
 20
162.655
 30
0.000000
  70
    32
  0
VERTEX
  8
0
  5
123B
 10
94.0124
 20
162.559
 30
0.000000
  70
    32
  0
VERTEX
  8
0
  5
123C
 10
93.7557
 20
162.460
 30
0.000000
  70
    32
  0
VERTEX
  8
0
  5
123D
 10
93.5087
 20
162.356
 30
0.000000
  70
    32
  0
VERTEX
  8
0
  5
123E
 10
93.2719
 20
162.249
 30
0.000000
  70
    32
  0
VERTEX
  8
0
  5
123F
 10
93.0456
 20
162.138
 30
0.000000
  70
    32
  0
VERTEX
  8
0
  5
1240
 10
92.8301
 20
162.025
 30
0.000000
  70
    32
  0
VERTEX
  8
0
  5
1241
 10
92.6257
 20
161.908
 30
0.000000
  70
    32
  0
VERTEX
  8
0
  5
1242
 10
92.4327
 20
161.788
 30
0.000000
  70
    32
  0
VERTEX
  8
0
  5
1243
 10
92.2515
 20
161.665
 30
0.000000
  70
    32
  0
VERTEX
  8
0
  5
1244
 10
92.0822
 20
161.539
 30
0.000000
  70
    32
  0
VERTEX
  8
0
  5
1245
 10
91.9251
 20
161.412
 30
0.000000
  70
    32
  0
VERTEX
  8
0
  5
1246
 10
91.7804
 20
161.282
 30
0.000000
  70
    32
  0
VERTEX
  8
0
  5
1247
 10
91.6484
 20
161.149
 30
0.000000
  70
    32
  0
VERTEX
  8
0
  5
1248
 10
91.5292
 20
161.015
 30
0.000000
  70
    32
  0
VERTEX
  8
0
  5
1249
 10
91.4230
 20
160.880
 30
0.000000
  70
    32
  0
VERTEX
  8
0
  5
124A
 10
91.3300
 20
160.742
 30
0.000000
  70
    32
  0
VERTEX
  8
0
  5
124B
 10
91.2503
 20
160.604
 30
0.000000
  70
    32
  0
VERTEX
  8
0
  5
124C
 10
91.1839
 20
160.464
 30
0.000000
  70
    32
  0
VERTEX
  8
0
  5
124D
 10
91.1311
 20
160.324
 30
0.000000
  70
    32
  0
VERTEX
  8
0
  5
124E
 10
91.0918
 20
160.183
 30
0.000000
  70
    32
  0
VERTEX
  8
0
  5
124F
 10
91.0662
 20
160.041
 30
0.000000
  70
    32
  0
VERTEX
  8
0
  5
1250
 10
91.0543
 20
159.899
 30
0.000000
  70
    32
  0
VERTEX
  8
0
  5
1251
 10
91.0560
 20
159.757
 30
0.000000
  70
    32
  0
VERTEX
  8
0
  5
1252
 10
91.0714
 20
159.615
 30
0.000000
  70
    32
  0
VERTEX
  8
0
  5
1253
 10
91.1005
 20
159.474
 30
0.000000
  70
    32
  0
VERTEX
  8
0
  5
1254
 10
91.1432
 20
159.333
 30
0.000000
  70
    32
  0
VERTEX
  8
0
  5
1255
 10
91.1995
 20
159.192
 30
0.000000
  70
    32
  0
VERTEX
  8
0
  5
1256
 10
91.2692
 20
159.053
 30
0.000000
  70
    32
  0
VERTEX
  8
0
  5
1257
 10
91.3523
 20
158.915
 30
0.000000
  70
    32
  0
VERTEX
  8
0
  5
1258
 10
91.4487
 20
158.778
 30
0.000000
  70
    32
  0
VERTEX
  8
0
  5
1259
 10
91.5582
 20
158.643
 30
0.000000
  70
    32
  0
VERTEX
  8
0
  5
125A
 10
91.6806
 20
158.509
 30
0.000000
  70
    32
  0
VERTEX
  8
0
  5
125B
 10
91.8159
 20
158.377
 30
0.000000
  70
    32
  0
VERTEX
  8
0
  5
125C
 10
91.9637
 20
158.248
 30
0.000000
  70
    32
  0
VERTEX
  8
0
  5
125D
 10
92.1239
 20
158.121
 30
0.000000
  70
    32
  0
VERTEX
  8
0
  5
125E
 10
92.2962
 20
157.996
 30
0.000000
  70
    32
  0
VERTEX
  8
0
  5
125F
 10
92.4805
 20
157.874
 30
0.000000
  70
    32
  0
VERTEX
  8
0
  5
1260
 10
92.6763
 20
157.755
 30
0.000000
  70
    32
  0
VERTEX
  8
0
  5
1261
 10
92.8836
 20
157.638
 30
0.000000
  70
    32
  0
VERTEX
  8
0
  5
1262
 10
93.1019
 20
157.525
 30
0.000000
  70
    32
  0
VERTEX
  8
0
  5
1263
 10
93.3309
 20
157.416
 30
0.000000
  70
    32
  0
VERTEX
  8
0
  5
1264
 10
93.5703
 20
157.309
 30
0.000000
  70
    32
  0
VERTEX
  8
0
  5
1265
 10
93.8198
 20
157.207
 30
0.000000
  70
    32
  0
VERTEX
  8
0
  5
1266
 10
94.0789
 20
157.108
 30
0.000000
  70
    32
  0
VERTEX
  8
0
  5
1267
 10
94.3474
 20
157.013
 30
0.000000
  70
    32
  0
SEQEND
  8
0
  5
1268
  0
POLYLINE
  5
ED3
  8
0
 10
106.11048762527312
 20
168.86815995994957
 30
0.0
 66
     1
 70
     8
  0
VERTEX
  8
0
  5
1269
 10
106.110
 20
168.868
 30
0.000000
  70
    32
  0
VERTEX
  8
0
  5
126A
 10
106.087
 20
168.846
 30
0.000000
  70
    32
  0
VERTEX
  8
0
  5
126B
 10
106.064
 20
168.824
 30
0.000000
  70
    32
  0
VERTEX
  8
0
  5
126C
 10
106.041
 20
168.801
 30
0.000000
  70
    32
  0
VERTEX
  8
0
  5
126D
 10
106.018
 20
168.778
 30
0.000000
  70
    32
  0
VERTEX
  8
0
  5
126E
 10
105.996
 20
168.754
 30
0.000000
  70
    32
  0
VERTEX
  8
0
  5
126F
 10
105.973
 20
168.730
 30
0.000000
  70
    32
  0
VERTEX
  8
0
  5
1270
 10
105.951
 20
168.706
 30
0.000000
  70
    32
  0
VERTEX
  8
0
  5
1271
 10
105.930
 20
168.681
 30
0.000000
  70
    32
  0
VERTEX
  8
0
  5
1272
 10
105.908
 20
168.656
 30
0.000000
  70
    32
  0
VERTEX
  8
0
  5
1273
 10
105.887
 20
168.631
 30
0.000000
  70
    32
  0
VERTEX
  8
0
  5
1274
 10
105.866
 20
168.606
 30
0.000000
  70
    32
  0
VERTEX
  8
0
  5
1275
 10
105.845
 20
168.580
 30
0.000000
  70
    32
  0
VERTEX
  8
0
  5
1276
 10
105.824
 20
168.553
 30
0.000000
  70
    32
  0
VERTEX
  8
0
  5
1277
 10
105.804
 20
168.527
 30
0.000000
  70
    32
  0
VERTEX
  8
0
  5
1278
 10
105.784
 20
168.500
 30
0.000000
  70
    32
  0
VERTEX
  8
0
  5
1279
 10
105.764
 20
168.473
 30
0.000000
  70
    32
  0
VERTEX
  8
0
  5
127A
 10
105.744
 20
168.445
 30
0.000000
  70
    32
  0
VERTEX
  8
0
  5
127B
 10
105.725
 20
168.417
 30
0.000000
  70
    32
  0
VERTEX
  8
0
  5
127C
 10
105.706
 20
168.389
 30
0.000000
  70
    32
  0
VERTEX
  8
0
  5
127D
 10
105.687
 20
168.360
 30
0.000000
  70
    32
  0
VERTEX
  8
0
  5
127E
 10
105.669
 20
168.332
 30
0.000000
  70
    32
  0
VERTEX
  8
0
  5
127F
 10
105.651
 20
168.303
 30
0.000000
  70
    32
  0
VERTEX
  8
0
  5
1280
 10
105.633
 20
168.273
 30
0.000000
  70
    32
  0
VERTEX
  8
0
  5
1281
 10
105.615
 20
168.244
 30
0.000000
  70
    32
  0
VERTEX
  8
0
  5
1282
 10
105.598
 20
168.214
 30
0.000000
  70
    32
  0
VERTEX
  8
0
  5
1283
 10
105.581
 20
168.184
 30
0.000000
  70
    32
  0
VERTEX
  8
0
  5
1284
 10
105.564
 20
168.153
 30
0.000000
  70
    32
  0
VERTEX
  8
0
  5
1285
 10
105.548
 20
168.122
 30
0.000000
  70
    32
  0
VERTEX
  8
0
  5
1286
 10
105.531
 20
168.091
 30
0.000000
  70
    32
  0
VERTEX
  8
0
  5
1287
 10
105.516
 20
168.060
 30
0.000000
  70
    32
  0
VERTEX
  8
0
  5
1288
 10
105.500
 20
168.029
 30
0.000000
  70
    32
  0
VERTEX
  8
0
  5
1289
 10
105.485
 20
167.997
 30
0.000000
  70
    32
  0
VERTEX
  8
0
  5
128A
 10
105.470
 20
167.965
 30
0.000000
  70
    32
  0
VERTEX
  8
0
  5
128B
 10
105.455
 20
167.933
 30
0.000000
  70
    32
  0
VERTEX
  8
0
  5
128C
 10
105.441
 20
167.900
 30
0.000000
  70
    32
  0
VERTEX
  8
0
  5
128D
 10
105.427
 20
167.868
 30
0.000000
  70
    32
  0
VERTEX
  8
0
  5
128E
 10
105.413
 20
167.835
 30
0.000000
  70
    32
  0
VERTEX
  8
0
  5
128F
 10
105.400
 20
167.802
 30
0.000000
  70
    32
  0
VERTEX
  8
0
  5
1290
 10
105.387
 20
167.768
 30
0.000000
  70
    32
  0
VERTEX
  8
0
  5
1291
 10
105.374
 20
167.735
 30
0.000000
  70
    32
  0
VERTEX
  8
0
  5
1292
 10
105.362
 20
167.701
 30
0.000000
  70
    32
  0
VERTEX
  8
0
  5
1293
 10
105.350
 20
167.667
 30
0.000000
  70
    32
  0
VERTEX
  8
0
  5
1294
 10
105.338
 20
167.633
 30
0.000000
  70
    32
  0
VERTEX
  8
0
  5
1295
 10
105.327
 20
167.599
 30
0.000000
  70
    32
  0
VERTEX
  8
0
  5
1296
 10
105.316
 20
167.564
 30
0.000000
  70
    32
  0
VERTEX
  8
0
  5
1297
 10
105.305
 20
167.530
 30
0.000000
  70
    32
  0
VERTEX
  8
0
  5
1298
 10
105.294
 20
167.495
 30
0.000000
  70
    32
  0
VERTEX
  8
0
  5
1299
 10
105.284
 20
167.460
 30
0.000000
  70
    32
  0
VERTEX
  8
0
  5
129A
 10
105.275
 20
167.425
 30
0.000000
  70
    32
  0
VERTEX
  8
0
  5
129B
 10
105.265
 20
167.389
 30
0.000000
  70
    32
  0
VERTEX
  8
0
  5
129C
 10
105.256
 20
167.354
 30
0.000000
  70
    32
  0
VERTEX
  8
0
  5
129D
 10
105.248
 20
167.318
 30
0.000000
  70
    32
  0
VERTEX
  8
0
  5
129E
 10
105.239
 20
167.283
 30
0.000000
  70
    32
  0
VERTEX
  8
0
  5
129F
 10
105.231
 20
167.247
 30
0.000000
  70
    32
  0
VERTEX
  8
0
  5
12A0
 10
105.224
 20
167.211
 30
0.000000
  70
    32
  0
VERTEX
  8
0
  5
12A1
 10
105.216
 20
167.175
 30
0.000000
  70
    32
  0
VERTEX
  8
0
  5
12A2
 10
105.209
 20
167.139
 30
0.000000
  70
    32
  0
VERTEX
  8
0
  5
12A3
 10
105.203
 20
167.102
 30
0.000000
  70
    32
  0
VERTEX
  8
0
  5
12A4
 10
105.196
 20
167.066
 30
0.000000
  70
    32
  0
VERTEX
  8
0
  5
12A5
 10
105.191
 20
167.029
 30
0.000000
  70
    32
  0
VERTEX
  8
0
  5
12A6
 10
105.185
 20
166.993
 30
0.000000
  70
    32
  0
VERTEX
  8
0
  5
12A7
 10
105.180
 20
166.956
 30
0.000000
  70
    32
  0
VERTEX
  8
0
  5
12A8
 10
105.175
 20
166.919
 30
0.000000
  70
    32
  0
VERTEX
  8
0
  5
12A9
 10
105.170
 20
166.883
 30
0.000000
  70
    32
  0
VERTEX
  8
0
  5
12AA
 10
105.166
 20
166.846
 30
0.000000
  70
    32
  0
VERTEX
  8
0
  5
12AB
 10
105.163
 20
166.809
 30
0.000000
  70
    32
  0
VERTEX
  8
0
  5
12AC
 10
105.159
 20
166.772
 30
0.000000
  70
    32
  0
VERTEX
  8
0
  5
12AD
 10
105.156
 20
166.735
 30
0.000000
  70
    32
  0
VERTEX
  8
0
  5
12AE
 10
105.153
 20
166.698
 30
0.000000
  70
    32
  0
VERTEX
  8
0
  5
12AF
 10
105.151
 20
166.660
 30
0.000000
  70
    32
  0
VERTEX
  8
0
  5
12B0
 10
105.149
 20
166.623
 30
0.000000
  70
    32
  0
VERTEX
  8
0
  5
12B1
 10
105.147
 20
166.586
 30
0.000000
  70
    32
  0
VERTEX
  8
0
  5
12B2
 10
105.146
 20
166.549
 30
0.000000
  70
    32
  0
VERTEX
  8
0
  5
12B3
 10
105.145
 20
166.511
 30
0.000000
  70
    32
  0
VERTEX
  8
0
  5
12B4
 10
105.145
 20
166.474
 30
0.000000
  70
    32
  0
VERTEX
  8
0
  5
12B5
 10
105.145
 20
166.437
 30
0.000000
  70
    32
  0
VERTEX
  8
0
  5
12B6
 10
105.145
 20
166.400
 30
0.000000
  70
    32
  0
VERTEX
  8
0
  5
12B7
 10
105.145
 20
166.362
 30
0.000000
  70
    32
  0
VERTEX
  8
0
  5
12B8
 10
105.146
 20
166.325
 30
0.000000
  70
    32
  0
VERTEX
  8
0
  5
12B9
 10
105.147
 20
166.288
 30
0.000000
  70
    32
  0
VERTEX
  8
0
  5
12BA
 10
105.149
 20
166.251
 30
0.000000
  70
    32
  0
VERTEX
  8
0
  5
12BB
 10
105.151
 20
166.213
 30
0.000000
  70
    32
  0
VERTEX
  8
0
  5
12BC
 10
105.153
 20
166.176
 30
0.000000
  70
    32
  0
VERTEX
  8
0
  5
12BD
 10
105.156
 20
166.139
 30
0.000000
  70
    32
  0
VERTEX
  8
0
  5
12BE
 10
105.159
 20
166.102
 30
0.000000
  70
    32
  0
VERTEX
  8
0
  5
12BF
 10
105.163
 20
166.065
 30
0.000000
  70
    32
  0
VERTEX
  8
0
  5
12C0
 10
105.166
 20
166.028
 30
0.000000
  70
    32
  0
VERTEX
  8
0
  5
12C1
 10
105.170
 20
165.991
 30
0.000000
  70
    32
  0
VERTEX
  8
0
  5
12C2
 10
105.175
 20
165.954
 30
0.000000
  70
    32
  0
VERTEX
  8
0
  5
12C3
 10
105.180
 20
165.918
 30
0.000000
  70
    32
  0
VERTEX
  8
0
  5
12C4
 10
105.185
 20
165.881
 30
0.000000
  70
    32
  0
VERTEX
  8
0
  5
12C5
 10
105.191
 20
165.844
 30
0.000000
  70
    32
  0
VERTEX
  8
0
  5
12C6
 10
105.196
 20
165.808
 30
0.000000
  70
    32
  0
VERTEX
  8
0
  5
12C7
 10
105.203
 20
165.771
 30
0.000000
  70
    32
  0
VERTEX
  8
0
  5
12C8
 10
105.209
 20
165.735
 30
0.000000
  70
    32
  0
VERTEX
  8
0
  5
12C9
 10
105.216
 20
165.699
 30
0.000000
  70
    32
  0
VERTEX
  8
0
  5
12CA
 10
105.224
 20
165.663
 30
0.000000
  70
    32
  0
VERTEX
  8
0
  5
12CB
 10
105.231
 20
165.627
 30
0.000000
  70
    32
  0
VERTEX
  8
0
  5
12CC
 10
105.239
 20
165.591
 30
0.000000
  70
    32
  0
VERTEX
  8
0
  5
12CD
 10
105.248
 20
165.555
 30
0.000000
  70
    32
  0
VERTEX
  8
0
  5
12CE
 10
105.256
 20
165.520
 30
0.000000
  70
    32
  0
VERTEX
  8
0
  5
12CF
 10
105.265
 20
165.484
 30
0.000000
  70
    32
  0
VERTEX
  8
0
  5
12D0
 10
105.275
 20
165.449
 30
0.000000
  70
    32
  0
VERTEX
  8
0
  5
12D1
 10
105.284
 20
165.414
 30
0.000000
  70
    32
  0
VERTEX
  8
0
  5
12D2
 10
105.295
 20
165.379
 30
0.000000
  70
    32
  0
VERTEX
  8
0
  5
12D3
 10
105.305
 20
165.344
 30
0.000000
  70
    32
  0
VERTEX
  8
0
  5
12D4
 10
105.316
 20
165.309
 30
0.000000
  70
    32
  0
VERTEX
  8
0
  5
12D5
 10
105.327
 20
165.275
 30
0.000000
  70
    32
  0
VERTEX
  8
0
  5
12D6
 10
105.338
 20
165.241
 30
0.000000
  70
    32
  0
VERTEX
  8
0
  5
12D7
 10
105.350
 20
165.207
 30
0.000000
  70
    32
  0
VERTEX
  8
0
  5
12D8
 10
105.362
 20
165.173
 30
0.000000
  70
    32
  0
VERTEX
  8
0
  5
12D9
 10
105.374
 20
165.139
 30
0.000000
  70
    32
  0
VERTEX
  8
0
  5
12DA
 10
105.387
 20
165.105
 30
0.000000
  70
    32
  0
VERTEX
  8
0
  5
12DB
 10
105.400
 20
165.072
 30
0.000000
  70
    32
  0
VERTEX
  8
0
  5
12DC
 10
105.413
 20
165.039
 30
0.000000
  70
    32
  0
VERTEX
  8
0
  5
12DD
 10
105.427
 20
165.006
 30
0.000000
  70
    32
  0
VERTEX
  8
0
  5
12DE
 10
105.441
 20
164.974
 30
0.000000
  70
    32
  0
VERTEX
  8
0
  5
12DF
 10
105.455
 20
164.941
 30
0.000000
  70
    32
  0
VERTEX
  8
0
  5
12E0
 10
105.470
 20
164.909
 30
0.000000
  70
    32
  0
VERTEX
  8
0
  5
12E1
 10
105.485
 20
164.877
 30
0.000000
  70
    32
  0
VERTEX
  8
0
  5
12E2
 10
105.500
 20
164.845
 30
0.000000
  70
    32
  0
VERTEX
  8
0
  5
12E3
 10
105.516
 20
164.814
 30
0.000000
  70
    32
  0
VERTEX
  8
0
  5
12E4
 10
105.532
 20
164.782
 30
0.000000
  70
    32
  0
VERTEX
  8
0
  5
12E5
 10
105.548
 20
164.751
 30
0.000000
  70
    32
  0
VERTEX
  8
0
  5
12E6
 10
105.564
 20
164.721
 30
0.000000
  70
    32
  0
VERTEX
  8
0
  5
12E7
 10
105.581
 20
164.690
 30
0.000000
  70
    32
  0
VERTEX
  8
0
  5
12E8
 10
105.598
 20
164.660
 30
0.000000
  70
    32
  0
VERTEX
  8
0
  5
12E9
 10
105.615
 20
164.630
 30
0.000000
  70
    32
  0
SEQEND
  8
0
  5
12EA
  0
ARC
  5
ED4
  8
0
 10
105.5861827237112
 20
169.47239862984591
 30
0.0
 40
0.8
 50
310.9485553384975
 51
0.7091766292514306
  0
LINE
  5
ED5
  8
0
 10
106.3861827252429
 20
169.68736440573491
 30
0.0
 11
106.3861827252429
 21
163.4329992914891
 31
0.0
  0
ARC
  5
ED6
  8
0
 10
112.69993111524511
 20
168.34589876814701
 30
0.0
 40
8.0
 50
207.6756501154475
 51
226.9090172032935
  0
LINE
  5
ED7
  8
0
 10
96.202338341038015
 20
174.78555449559039
 30
0.0
 11
104.8994386336078
 21
174.78555449559039
 31
0.0
  0
ARC
  5
ED8
  8
0
 10
104.8994386336078
 20
174.2855544955905
 30
0.0
 40
0.5
 50
12.65659409713297
 51
90.0
  0
LINE
  5
ED9
  8
0
 10
105.38728904069799
 20
174.3951080455189
 30
0.0
 11
106.3861827252429
 21
169.68736440573491
 31
0.0
  0
ARC
  5
EDA
  8
0
 10
88.401845859400737
 20
168.34589876814701
 30
0.0
 40
8.0
 50
313.0909827967065
 51
332.32434988455248
  0
LINE
  5
EDB
  8
0
 10
95.714487933947808
 20
174.3951080455189
 30
0.0
 11
94.715594249402926
 21
169.68736440573491
 31
0.0
  0
ARC
  5
EDC
  8
0
 10
96.202338341038015
 20
174.2855544955905
 30
0.0
 40
0.5
 50
90.0
 51
167.343405902867
  0
LINE
  5
EDD
  8
0
 10
94.715594249402926
 20
169.68736440573491
 30
0.0
 11
94.715594249402926
 21
163.4329992914891
 31
0.0
  0
POLYLINE
  5
EDE
  8
0
 10
94.991289349372735
 20
168.86815995994957
 30
0.0
 66
     1
 70
     8
  0
VERTEX
  8
0
  5
12EB
 10
94.9913
 20
168.868
 30
0.000000
  70
    32
  0
VERTEX
  8
0
  5
12EC
 10
95.0147
 20
168.846
 30
0.000000
  70
    32
  0
VERTEX
  8
0
  5
12ED
 10
95.0379
 20
168.824
 30
0.000000
  70
    32
  0
VERTEX
  8
0
  5
12EE
 10
95.0608
 20
168.801
 30
0.000000
  70
    32
  0
VERTEX
  8
0
  5
12EF
 10
95.0836
 20
168.778
 30
0.000000
  70
    32
  0
VERTEX
  8
0
  5
12F0
 10
95.1061
 20
168.754
 30
0.000000
  70
    32
  0
VERTEX
  8
0
  5
12F1
 10
95.1284
 20
168.730
 30
0.000000
  70
    32
  0
VERTEX
  8
0
  5
12F2
 10
95.1504
 20
168.706
 30
0.000000
  70
    32
  0
VERTEX
  8
0
  5
12F3
 10
95.1723
 20
168.681
 30
0.000000
  70
    32
  0
VERTEX
  8
0
  5
12F4
 10
95.1938
 20
168.656
 30
0.000000
  70
    32
  0
VERTEX
  8
0
  5
12F5
 10
95.2152
 20
168.631
 30
0.000000
  70
    32
  0
VERTEX
  8
0
  5
12F6
 10
95.2363
 20
168.606
 30
0.000000
  70
    32
  0
VERTEX
  8
0
  5
12F7
 10
95.2571
 20
168.580
 30
0.000000
  70
    32
  0
VERTEX
  8
0
  5
12F8
 10
95.2777
 20
168.553
 30
0.000000
  70
    32
  0
VERTEX
  8
0
  5
12F9
 10
95.2980
 20
168.527
 30
0.000000
  70
    32
  0
VERTEX
  8
0
  5
12FA
 10
95.3181
 20
168.500
 30
0.000000
  70
    32
  0
VERTEX
  8
0
  5
12FB
 10
95.3379
 20
168.473
 30
0.000000
  70
    32
  0
VERTEX
  8
0
  5
12FC
 10
95.3575
 20
168.445
 30
0.000000
  70
    32
  0
VERTEX
  8
0
  5
12FD
 10
95.3767
 20
168.417
 30
0.000000
  70
    32
  0
VERTEX
  8
0
  5
12FE
 10
95.3957
 20
168.389
 30
0.000000
  70
    32
  0
VERTEX
  8
0
  5
12FF
 10
95.4145
 20
168.360
 30
0.000000
  70
    32
  0
VERTEX
  8
0
  5
1300
 10
95.4329
 20
168.332
 30
0.000000
  70
    32
  0
VERTEX
  8
0
  5
1301
 10
95.4511
 20
168.303
 30
0.000000
  70
    32
  0
VERTEX
  8
0
  5
1302
 10
95.4690
 20
168.273
 30
0.000000
  70
    32
  0
VERTEX
  8
0
  5
1303
 10
95.4866
 20
168.244
 30
0.000000
  70
    32
  0
VERTEX
  8
0
  5
1304
 10
95.5039
 20
168.214
 30
0.000000
  70
    32
  0
VERTEX
  8
0
  5
1305
 10
95.5210
 20
168.184
 30
0.000000
  70
    32
  0
VERTEX
  8
0
  5
1306
 10
95.5377
 20
168.153
 30
0.000000
  70
    32
  0
VERTEX
  8
0
  5
1307
 10
95.5542
 20
168.122
 30
0.000000
  70
    32
  0
VERTEX
  8
0
  5
1308
 10
95.5703
 20
168.091
 30
0.000000
  70
    32
  0
VERTEX
  8
0
  5
1309
 10
95.5861
 20
168.060
 30
0.000000
  70
    32
  0
VERTEX
  8
0
  5
130A
 10
95.6017
 20
168.029
 30
0.000000
  70
    32
  0
VERTEX
  8
0
  5
130B
 10
95.6169
 20
167.997
 30
0.000000
  70
    32
  0
VERTEX
  8
0
  5
130C
 10
95.6318
 20
167.965
 30
0.000000
  70
    32
  0
VERTEX
  8
0
  5
130D
 10
95.6465
 20
167.933
 30
0.000000
  70
    32
  0
VERTEX
  8
0
  5
130E
 10
95.6608
 20
167.900
 30
0.000000
  70
    32
  0
VERTEX
  8
0
  5
130F
 10
95.6748
 20
167.868
 30
0.000000
  70
    32
  0
VERTEX
  8
0
  5
1310
 10
95.6884
 20
167.835
 30
0.000000
  70
    32
  0
VERTEX
  8
0
  5
1311
 10
95.7018
 20
167.802
 30
0.000000
  70
    32
  0
VERTEX
  8
0
  5
1312
 10
95.7148
 20
167.768
 30
0.000000
  70
    32
  0
VERTEX
  8
0
  5
1313
 10
95.7275
 20
167.735
 30
0.000000
  70
    32
  0
VERTEX
  8
0
  5
1314
 10
95.7399
 20
167.701
 30
0.000000
  70
    32
  0
VERTEX
  8
0
  5
1315
 10
95.7520
 20
167.667
 30
0.000000
  70
    32
  0
VERTEX
  8
0
  5
1316
 10
95.7637
 20
167.633
 30
0.000000
  70
    32
  0
VERTEX
  8
0
  5
1317
 10
95.7751
 20
167.599
 30
0.000000
  70
    32
  0
VERTEX
  8
0
  5
1318
 10
95.7862
 20
167.564
 30
0.000000
  70
    32
  0
VERTEX
  8
0
  5
1319
 10
95.7969
 20
167.530
 30
0.000000
  70
    32
  0
VERTEX
  8
0
  5
131A
 10
95.8073
 20
167.495
 30
0.000000
  70
    32
  0
VERTEX
  8
0
  5
131B
 10
95.8173
 20
167.460
 30
0.000000
  70
    32
  0
VERTEX
  8
0
  5
131C
 10
95.8271
 20
167.425
 30
0.000000
  70
    32
  0
VERTEX
  8
0
  5
131D
 10
95.8364
 20
167.389
 30
0.000000
  70
    32
  0
VERTEX
  8
0
  5
131E
 10
95.8455
 20
167.354
 30
0.000000
  70
    32
  0
VERTEX
  8
0
  5
131F
 10
95.8542
 20
167.318
 30
0.000000
  70
    32
  0
VERTEX
  8
0
  5
1320
 10
95.8625
 20
167.283
 30
0.000000
  70
    32
  0
VERTEX
  8
0
  5
1321
 10
95.8705
 20
167.247
 30
0.000000
  70
    32
  0
VERTEX
  8
0
  5
1322
 10
95.8782
 20
167.211
 30
0.000000
  70
    32
  0
VERTEX
  8
0
  5
1323
 10
95.8855
 20
167.175
 30
0.000000
  70
    32
  0
VERTEX
  8
0
  5
1324
 10
95.8925
 20
167.139
 30
0.000000
  70
    32
  0
VERTEX
  8
0
  5
1325
 10
95.8991
 20
167.102
 30
0.000000
  70
    32
  0
VERTEX
  8
0
  5
1326
 10
95.9053
 20
167.066
 30
0.000000
  70
    32
  0
VERTEX
  8
0
  5
1327
 10
95.9112
 20
167.029
 30
0.000000
  70
    32
  0
VERTEX
  8
0
  5
1328
 10
95.9168
 20
166.993
 30
0.000000
  70
    32
  0
VERTEX
  8
0
  5
1329
 10
95.9220
 20
166.956
 30
0.000000
  70
    32
  0
VERTEX
  8
0
  5
132A
 10
95.9268
 20
166.919
 30
0.000000
  70
    32
  0
VERTEX
  8
0
  5
132B
 10
95.9313
 20
166.883
 30
0.000000
  70
    32
  0
VERTEX
  8
0
  5
132C
 10
95.9354
 20
166.846
 30
0.000000
  70
    32
  0
VERTEX
  8
0
  5
132D
 10
95.9392
 20
166.809
 30
0.000000
  70
    32
  0
VERTEX
  8
0
  5
132E
 10
95.9426
 20
166.772
 30
0.000000
  70
    32
  0
VERTEX
  8
0
  5
132F
 10
95.9457
 20
166.735
 30
0.000000
  70
    32
  0
VERTEX
  8
0
  5
1330
 10
95.9484
 20
166.698
 30
0.000000
  70
    32
  0
VERTEX
  8
0
  5
1331
 10
95.9507
 20
166.660
 30
0.000000
  70
    32
  0
VERTEX
  8
0
  5
1332
 10
95.9527
 20
166.623
 30
0.000000
  70
    32
  0
VERTEX
  8
0
  5
1333
 10
95.9543
 20
166.586
 30
0.000000
  70
    32
  0
VERTEX
  8
0
  5
1334
 10
95.9556
 20
166.549
 30
0.000000
  70
    32
  0
VERTEX
  8
0
  5
1335
 10
95.9565
 20
166.511
 30
0.000000
  70
    32
  0
VERTEX
  8
0
  5
1336
 10
95.9570
 20
166.474
 30
0.000000
  70
    32
  0
VERTEX
  8
0
  5
1337
 10
95.9572
 20
166.437
 30
0.000000
  70
    32
  0
VERTEX
  8
0
  5
1338
 10
95.9570
 20
166.400
 30
0.000000
  70
    32
  0
VERTEX
  8
0
  5
1339
 10
95.9565
 20
166.362
 30
0.000000
  70
    32
  0
VERTEX
  8
0
  5
133A
 10
95.9556
 20
166.325
 30
0.000000
  70
    32
  0
VERTEX
  8
0
  5
133B
 10
95.9543
 20
166.288
 30
0.000000
  70
    32
  0
VERTEX
  8
0
  5
133C
 10
95.9527
 20
166.251
 30
0.000000
  70
    32
  0
VERTEX
  8
0
  5
133D
 10
95.9507
 20
166.213
 30
0.000000
  70
    32
  0
VERTEX
  8
0
  5
133E
 10
95.9484
 20
166.176
 30
0.000000
  70
    32
  0
VERTEX
  8
0
  5
133F
 10
95.9457
 20
166.139
 30
0.000000
  70
    32
  0
VERTEX
  8
0
  5
1340
 10
95.9426
 20
166.102
 30
0.000000
  70
    32
  0
VERTEX
  8
0
  5
1341
 10
95.9392
 20
166.065
 30
0.000000
  70
    32
  0
VERTEX
  8
0
  5
1342
 10
95.9354
 20
166.028
 30
0.000000
  70
    32
  0
VERTEX
  8
0
  5
1343
 10
95.9313
 20
165.991
 30
0.000000
  70
    32
  0
VERTEX
  8
0
  5
1344
 10
95.9268
 20
165.954
 30
0.000000
  70
    32
  0
VERTEX
  8
0
  5
1345
 10
95.9220
 20
165.918
 30
0.000000
  70
    32
  0
VERTEX
  8
0
  5
1346
 10
95.9168
 20
165.881
 30
0.000000
  70
    32
  0
VERTEX
  8
0
  5
1347
 10
95.9112
 20
165.844
 30
0.000000
  70
    32
  0
VERTEX
  8
0
  5
1348
 10
95.9053
 20
165.808
 30
0.000000
  70
    32
  0
VERTEX
  8
0
  5
1349
 10
95.8990
 20
165.771
 30
0.000000
  70
    32
  0
VERTEX
  8
0
  5
134A
 10
95.8924
 20
165.735
 30
0.000000
  70
    32
  0
VERTEX
  8
0
  5
134B
 10
95.8855
 20
165.699
 30
0.000000
  70
    32
  0
VERTEX
  8
0
  5
134C
 10
95.8782
 20
165.663
 30
0.000000
  70
    32
  0
VERTEX
  8
0
  5
134D
 10
95.8705
 20
165.627
 30
0.000000
  70
    32
  0
VERTEX
  8
0
  5
134E
 10
95.8625
 20
165.591
 30
0.000000
  70
    32
  0
VERTEX
  8
0
  5
134F
 10
95.8542
 20
165.555
 30
0.000000
  70
    32
  0
VERTEX
  8
0
  5
1350
 10
95.8455
 20
165.520
 30
0.000000
  70
    32
  0
VERTEX
  8
0
  5
1351
 10
95.8364
 20
165.484
 30
0.000000
  70
    32
  0
VERTEX
  8
0
  5
1352
 10
95.8270
 20
165.449
 30
0.000000
  70
    32
  0
VERTEX
  8
0
  5
1353
 10
95.8173
 20
165.414
 30
0.000000
  70
    32
  0
VERTEX
  8
0
  5
1354
 10
95.8073
 20
165.379
 30
0.000000
  70
    32
  0
VERTEX
  8
0
  5
1355
 10
95.7969
 20
165.344
 30
0.000000
  70
    32
  0
VERTEX
  8
0
  5
1356
 10
95.7861
 20
165.309
 30
0.000000
  70
    32
  0
VERTEX
  8
0
  5
1357
 10
95.7751
 20
165.275
 30
0.000000
  70
    32
  0
VERTEX
  8
0
  5
1358
 10
95.7637
 20
165.241
 30
0.000000
  70
    32
  0
VERTEX
  8
0
  5
1359
 10
95.7519
 20
165.207
 30
0.000000
  70
    32
  0
VERTEX
  8
0
  5
135A
 10
95.7399
 20
165.173
 30
0.000000
  70
    32
  0
VERTEX
  8
0
  5
135B
 10
95.7275
 20
165.139
 30
0.000000
  70
    32
  0
VERTEX
  8
0
  5
135C
 10
95.7148
 20
165.105
 30
0.000000
  70
    32
  0
VERTEX
  8
0
  5
135D
 10
95.7017
 20
165.072
 30
0.000000
  70
    32
  0
VERTEX
  8
0
  5
135E
 10
95.6884
 20
165.039
 30
0.000000
  70
    32
  0
VERTEX
  8
0
  5
135F
 10
95.6747
 20
165.006
 30
0.000000
  70
    32
  0
VERTEX
  8
0
  5
1360
 10
95.6607
 20
164.974
 30
0.000000
  70
    32
  0
VERTEX
  8
0
  5
1361
 10
95.6464
 20
164.941
 30
0.000000
  70
    32
  0
VERTEX
  8
0
  5
1362
 10
95.6318
 20
164.909
 30
0.000000
  70
    32
  0
VERTEX
  8
0
  5
1363
 10
95.6169
 20
164.877
 30
0.000000
  70
    32
  0
VERTEX
  8
0
  5
1364
 10
95.6016
 20
164.845
 30
0.000000
  70
    32
  0
VERTEX
  8
0
  5
1365
 10
95.5861
 20
164.814
 30
0.000000
  70
    32
  0
VERTEX
  8
0
  5
1366
 10
95.5703
 20
164.782
 30
0.000000
  70
    32
  0
VERTEX
  8
0
  5
1367
 10
95.5541
 20
164.751
 30
0.000000
  70
    32
  0
VERTEX
  8
0
  5
1368
 10
95.5377
 20
164.721
 30
0.000000
  70
    32
  0
VERTEX
  8
0
  5
1369
 10
95.5209
 20
164.690
 30
0.000000
  70
    32
  0
VERTEX
  8
0
  5
136A
 10
95.5039
 20
164.660
 30
0.000000
  70
    32
  0
VERTEX
  8
0
  5
136B
 10
95.4866
 20
164.630
 30
0.000000
  70
    32
  0
SEQEND
  8
0
  5
136C
  0
ARC
  5
EDF
  8
0
 10
95.515594247871135
 20
169.47239862984591
 30
0.0
 40
0.8
 50
179.29082337074851
 51
229.05144466150259
  0
LINE
  5
EE0
  8
0
 10
295.93464161534672
 20
174.78555449559039
 30
0.0
 11
287.24166870356453
 21
174.78555449559039
 31
0.0
  0
LINE
  5
EE1
  8
0
 10
285.7500660524741
 20
169.66446622074491
 30
0.0
 11
285.7500660524741
 21
158.76831232910419
 31
0.0
  0
LINE
  5
EE2
  8
0
 10
290.5015999127292
 20
172.0664389218785
 30
0.0
 11
292.67058302539442
 21
172.0664389218785
 31
0.0
  0
LINE
  5
EE3
  8
0
 10
289.7419592083163
 20
170.08231532514779
 30
0.0
 11
293.45053465060943
 21
170.08231532514779
 31
0.0
  0
LINE
  5
EE4
  8
0
 10
286.11510676800827
 20
162.07139898191889
 30
0.0
 11
297.05707617011518
 21
162.07139898191889
 31
0.0
  0
LINE
  5
EE5
  8
0
 10
286.84021884984941
 20
165.0677842177019
 30
0.0
 11
296.33609146906178
 21
165.0677842177019
 31
0.0
  0
LINE
  5
EE6
  8
0
 10
286.60402686335931
 20
162.7685462692759
 30
0.0
 11
296.5681560747642
 21
162.7685462692759
 31
0.0
  0
LINE
  5
EE7
  8
0
 10
296.98706440641052
 20
162.34555449559039
 30
0.0
 11
286.1851185317131
 21
162.34555449559039
 31
0.0
  0
LINE
  5
EE8
  8
0
 10
300.83609146906178
 20
138.78555449559039
 30
0.0
 11
282.33609146906178
 21
138.78555449559039
 31
0.0
  0
LINE
  5
EE9
  8
0
 10
298.33609146906178
 20
132.28555449559039
 30
0.0
 11
298.33609146906178
 21
138.78555449559039
 31
0.0
  0
LINE
  5
EEA
  8
0
 10
284.83609146906178
 20
138.78555449559039
 30
0.0
 11
284.83609146906178
 21
132.28555449559039
 31
0.0
  0
LINE
  5
EEB
  8
0
 10
284.83609146906178
 20
132.28555449559039
 30
0.0
 11
298.33609146906178
 21
132.28555449559039
 31
0.0
  0
LINE
  5
EEC
  8
1
 10
291.58609146906178
 20
179.57058872112731
 30
0.0
 11
291.58609146906178
 21
112.2855544955887
 31
0.0
  0
ARC
  5
EED
  8
0
 10
295.93464161534672
 20
174.2855544955905
 30
0.0
 40
0.5
 50
12.65659409713297
 51
90.0
  0
LINE
  5
EEE
  8
0
 10
296.42249202243693
 20
174.3951080455189
 30
0.0
 11
297.42138570698182
 21
169.68736440573491
 31
0.0
  0
LINE
  5
EEF
  8
0
 10
297.42138570698182
 20
169.68736440573491
 30
0.0
 11
297.42138570698182
 21
158.80017459508801
 31
0.0
  0
ARC
  5
EF0
  8
0
  6
CONTINUOUS
 10
299.90851814626387
 20
165.83663436226141
 30
0.0
 40
10.0
 50
118.79561527160629
 51
136.0638165139936
  0
ARC
  5
EF1
  8
0
  6
CONTINUOUS
 10
295.81418195497668
 20
173.2855544955905
 30
0.0
 40
1.5
 50
90.0
 51
118.79561527160629
  0
LINE
  5
EF2
  8
0
  6
CONTINUOUS
 10
292.60049702280281
 20
172.24949821653561
 30
0.0
 11
293.43022372980732
 21
170.08231532514779
 31
0.0
  0
ARC
  5
EF3
  8
0
  6
CONTINUOUS
 10
293.06744397905408
 20
172.4282733267932
 30
0.0
 40
0.5
 50
136.06381651399249
 51
200.9498226902104
  0
ARC
  5
EF4
  8
0
  6
CONTINUOUS
 10
287.08154392175328
 20
161.27920272925439
 30
0.0
 40
10.0
 50
22.26297169193387
 51
41.283103248970171
  0
ARC
  5
EF5
  8
0
  6
CONTINUOUS
 10
302.78468966561792
 20
173.61699594095441
 30
0.0
 40
10.0
 50
200.69958459211799
 51
215.02957793266171
  0
ARC
  5
EF6
  8
0
  6
CONTINUOUS
 10
296.0947663971578
 20
161.27920272925439
 30
0.0
 40
10.0
 50
138.71689675102979
 51
157.7370283080661
  0
LINE
  5
EF7
  8
0
  6
CONTINUOUS
 10
290.57581329610838
 20
172.24949821653561
 30
0.0
 11
289.74608658910392
 21
170.08231532514779
 31
0.0
  0
ARC
  5
EF8
  8
0
  6
CONTINUOUS
 10
283.26779217264721
 20
165.83663436226141
 30
0.0
 40
10.0
 50
43.936183486006371
 51
61.204384728393627
  0
ARC
  5
EF9
  8
0
  6
CONTINUOUS
 10
290.10886633985712
 20
172.4282733267932
 30
0.0
 40
0.5
 50
339.0501773097896
 51
43.936183486007501
  0
LINE
  5
EFA
  8
0
 10
286.75381829647432
 20
174.3951080455189
 30
0.0
 11
285.75492461192943
 21
169.68736440573491
 31
0.0
  0
ARC
  5
EFB
  8
0
  6
CONTINUOUS
 10
280.39162065329322
 20
173.61699594095441
 30
0.0
 40
10.0
 50
324.97042206733829
 51
339.30041540788199
  0
ARC
  5
EFC
  8
0
  6
CONTINUOUS
 10
287.3621283639344
 20
173.2855544955905
 30
0.0
 40
1.5
 50
61.204384728393627
 51
90.0
  0
ARC
  5
EFD
  8
0
 10
287.24166870356453
 20
174.2855544955905
 30
0.0
 40
0.5
 50
90.0
 51
167.343405902867
  0
LINE
  5
EFE
  8
0
  6
CONTINUOUS
 10
296.33609146906178
 20
165.0677842177019
 30
0.0
 11
296.33609146906178
 21
174.58361156219371
 31
0.0
  0
LINE
  5
EFF
  8
0
  6
CONTINUOUS
 10
286.84021884984941
 20
165.0677842177019
 30
0.0
 11
286.84021884984941
 21
174.58361156219371
 31
0.0
  0
LINE
  5
F00
  8
0
  6
CONTINUOUS
 10
296.98706440641052
 20
162.34555449559039
 30
0.0
 11
297.05707617011518
 21
162.07139898191889
 31
0.0
  0
LINE
  5
F01
  8
0
  6
CONTINUOUS
 10
297.05707617011518
 20
162.07139898191889
 30
0.0
 11
297.42384159881482
 21
158.77812254197801
 31
0.0
  0
ARC
  5
F02
  8
0
  6
CONTINUOUS
 10
304.18676416114118
 20
154.1031874382808
 30
0.0
 40
8.0
 50
149.5265495885719
 51
212.6634991376466
  0
ARC
  5
F03
  8
0
  6
CONTINUOUS
 10
296.42998591198329
 20
158.66743887673039
 30
0.0
 40
1.0
 50
329.52654958857192
 51
6.3547273638236677
  0
ARC
  5
F04
  8
0
  6
CONTINUOUS
 10
297.02601489673668
 20
157.62079303759421
 30
0.0
 40
5.0
 50
46.631165890173051
 51
76.160424193720175
  0
LINE
  5
F05
  8
0
  6
CONTINUOUS
 10
297.42138570698182
 20
163.4335875176771
 30
0.0
 11
298.22203584864423
 21
162.47563947003661
 31
0.0
  0
ARC
  5
F06
  8
0
  6
CONTINUOUS
 10
299.08609146906178
 20
159.80163794637551
 30
0.0
 40
2.0
 50
0.0
 51
46.631165890173051
  0
ARC
  5
F07
  8
0
  6
CONTINUOUS
 10
286.74219702614027
 20
158.66743887673039
 30
0.0
 40
1.0
 50
173.64527263617629
 51
210.4734504114281
  0
ARC
  5
F08
  8
0
  6
CONTINUOUS
 10
284.08609146906178
 20
159.80163794637551
 30
0.0
 40
2.0
 50
133.36883410982691
 51
180.0
  0
LINE
  5
F09
  8
0
  6
CONTINUOUS
 10
285.7507972311418
 20
163.4335875176771
 30
0.0
 11
284.9501470894794
 21
162.47563947003661
 31
0.0
  0
LINE
  5
F0A
  8
0
  6
CONTINUOUS
 10
286.11510676800827
 20
162.07139898191889
 30
0.0
 11
285.74834133930881
 21
158.77812254197801
 31
0.0
  0
LINE
  5
F0B
  8
0
  6
CONTINUOUS
 10
286.1851185317131
 20
162.34555449559039
 30
0.0
 11
286.11510676800827
 21
162.07139898191889
 31
0.0
  0
ARC
  5
F0C
  8
0
  6
CONTINUOUS
 10
286.14616804138677
 20
157.62079303759421
 30
0.0
 40
5.0
 50
103.8395758062798
 51
133.36883410982691
  0
ARC
  5
F0D
  8
0
  6
CONTINUOUS
 10
278.98541877698233
 20
154.1031874382808
 30
0.0
 40
8.0
 50
327.33650086235338
 51
30.4734504114281
  0
LINE
  5
F28
  8
0
  6
CONTINUOUS
 10
110.0484668242655
 20
159.84600510666601
 30
0.0
 11
109.80088848732289
 21
138.78555449559039
 31
0.0
  0
LINE
  5
F29
  8
0
  6
CONTINUOUS
 10
91.053310150380298
 20
159.84600510666601
 30
0.0
 11
91.300888487322936
 21
138.78555449559039
 31
0.0
  0
LINE
  5
F2A
  8
0
  6
CONTINUOUS
 10
301.08609146906178
 20
159.80163794637551
 30
0.0
 11
300.83609146906178
 21
138.78555449559039
 31
0.0
  0
LINE
  5
F2B
  8
0
  6
CONTINUOUS
 10
282.08609146906178
 20
159.80163794637551
 30
0.0
 11
282.33609146906178
 21
138.78555449559039
 31
0.0
  0
CIRCLE
  5
F2C
  8
0
  6
CONTINUOUS
 10
172.35822889419569
 20
66.035502119709349
 30
0.0
 40
6.75
  0
LINE
  5
F2E
  8
0
  6
CONTINUOUS
 10
286.84021884984941
 20
165.0677842177019
 30
0.0
 11
286.5569306057775
 21
162.34555449559039
 31
0.0
  0
LINE
  5
F2F
  8
0
  6
CONTINUOUS
 10
296.33609146906178
 20
165.0677842177019
 30
0.0
 11
296.61525233234607
 21
162.34555449559039
 31
0.0
  0
LINE
  5
F3E
  8
0
 10
175.15822889419559
 20
117.2855544955904
 30
0.0
 11
169.55822889419559
 21
117.2855544955905
 31
0.0
  0
LINE
  5
F3F
  8
0
 10
168.35822889419569
 20
132.28555449559039
 30
0.0
 11
168.35822889419561
 21
118.48555449559041
 31
0.0
  0
LINE
  5
F40
  8
3
 10
169.0347288941955
 20
129.2855544955905
 30
0.0
 11
169.0347288941955
 21
117.8090544955906
 31
0.0
  0
LINE
  5
F41
  8
3
 10
175.6817288941958
 20
129.28555449559039
 30
0.0
 11
175.6817288941958
 21
117.8090544955906
 31
0.0
  0
LINE
  5
F42
  8
0
 10
176.35822889419569
 20
132.28555449559039
 30
0.0
 11
176.35822889419561
 21
118.48555449559041
 31
0.0
  0
LINE
  5
F43
  8
0
 10
176.35822889419561
 20
118.48555449559041
 30
0.0
 11
175.15822889419559
 21
117.2855544955904
 31
0.0
  0
LINE
  5
F44
  8
0
 10
169.55822889419559
 20
117.2855544955905
 30
0.0
 11
168.35822889419561
 21
118.48555449559051
 31
0.0
  0
LINE
  5
F45
  8
0
 10
176.35822889419569
 20
118.48555449559041
 30
0.0
 11
168.35822889419561
 21
118.48555449559051
 31
0.0
  0
LINE
  5
F46
  8
0
 10
176.35822889419569
 20
129.28555449559039
 30
0.0
 11
168.35822889419561
 21
129.2855544955905
 31
0.0
  0
LINE
  5
F47
  8
3
 10
175.6817288941958
 20
129.28555449559039
 30
0.0
 11
176.35822889419569
 21
130.45728686691049
 31
0.0
  0
LINE
  5
F48
  8
3
 10
169.0347288941955
 20
129.28555449559039
 30
0.0
 11
168.35822889419569
 21
130.45728686691049
 31
0.0
  0
LINE
  5
F4C
  8
3
 10
288.2625914690617
 20
129.28555449559039
 30
0.0
 11
288.2625914690617
 21
117.8090544955906
 31
0.0
  0
LINE
  5
F4D
  8
3
 10
294.90959146906192
 20
129.28555449559039
 30
0.0
 11
294.90959146906192
 21
117.8090544955906
 31
0.0
  0
LINE
  5
F4E
  8
0
 10
295.58609146906178
 20
118.48555449559041
 30
0.0
 11
287.58609146906178
 21
118.48555449559041
 31
0.0
  0
LINE
  5
F4F
  8
0
 10
295.58609146906178
 20
118.48555449559041
 30
0.0
 11
294.38609146906168
 21
117.2855544955904
 31
0.0
  0
LINE
  5
F50
  8
0
 10
294.38609146906168
 20
117.2855544955904
 30
0.0
 11
288.78609146906177
 21
117.2855544955905
 31
0.0
  0
LINE
  5
F51
  8
0
 10
288.78609146906177
 20
117.2855544955905
 30
0.0
 11
287.58609146906178
 21
118.48555449559041
 31
0.0
  0
LINE
  5
F52
  8
0
 10
295.58609146906178
 20
129.28555449559039
 30
0.0
 11
287.58609146906178
 21
129.28555449559039
 31
0.0
  0
LINE
  5
F53
  8
0
 10
295.58609146906178
 20
132.28555449559039
 30
0.0
 11
295.58609146906178
 21
118.48555449559041
 31
0.0
  0
LINE
  5
F54
  8
3
 10
294.90959146906192
 20
129.28555449559039
 30
0.0
 11
295.58609146906178
 21
130.45728686691049
 31
0.0
  0
LINE
  5
F55
  8
0
 10
287.58609146906178
 20
132.28555449559039
 30
0.0
 11
287.58609146906178
 21
118.48555449559041
 31
0.0
  0
LINE
  5
F56
  8
3
 10
288.2625914690617
 20
129.28555449559039
 30
0.0
 11
287.58609146906178
 21
130.45728686691049
 31
0.0
  0
LINE
  5
F57
  8
3
 10
103.874388487323
 20
129.28555449559039
 30
0.0
 11
103.874388487323
 21
117.8090544955906
 31
0.0
  0
LINE
  5
F58
  8
0
 10
104.55088848732289
 20
132.28555449559039
 30
0.0
 11
104.55088848732289
 21
118.48555449559041
 31
0.0
  0
LINE
  5
F59
  8
0
 10
104.55088848732289
 20
118.48555449559041
 30
0.0
 11
96.550888487322894
 21
118.48555449559041
 31
0.0
  0
LINE
  5
F5A
  8
0
 10
104.55088848732289
 20
118.48555449559041
 30
0.0
 11
103.35088848732291
 21
117.2855544955904
 31
0.0
  0
LINE
  5
F5B
  8
0
 10
104.55088848732289
 20
129.28555449559039
 30
0.0
 11
96.550888487322894
 21
129.28555449559039
 31
0.0
  0
LINE
  5
F5C
  8
3
 10
103.874388487323
 20
129.28555449559039
 30
0.0
 11
104.55088848732289
 21
130.45728686691049
 31
0.0
  0
LINE
  5
F5D
  8
0
 10
96.550888487322922
 20
132.28555449559039
 30
0.0
 11
96.550888487322894
 21
118.48555449559041
 31
0.0
  0
LINE
  5
F5E
  8
3
 10
97.227388487322827
 20
129.28555449559039
 30
0.0
 11
97.227388487322827
 21
117.8090544955906
 31
0.0
  0
LINE
  5
F5F
  8
0
 10
103.35088848732291
 20
117.2855544955904
 30
0.0
 11
97.750888487322911
 21
117.2855544955905
 31
0.0
  0
LINE
  5
F60
  8
0
 10
97.750888487322911
 20
117.2855544955905
 30
0.0
 11
96.550888487322894
 21
118.48555449559041
 31
0.0
  0
LINE
  5
F61
  8
3
 10
97.227388487322827
 20
129.28555449559039
 30
0.0
 11
96.550888487322965
 21
130.45728686691049
 31
0.0
  0
LINE
  5
FAC
  8
0
 10
104.55088848732289
 20
160.20375772586601
 30
0.0
 11
104.55088848732289
 21
158.74587415807611
 31
0.0
  0
LINE
  5
FAD
  8
0
 10
96.550888487323036
 20
160.20375772586601
 30
0.0
 11
96.550888487322965
 21
158.74587415807599
 31
0.0
  0
LINE
  5
FB0
  8
0
 10
103.3076801007751
 20
160.7855544955905
 30
0.0
 11
97.794096873870814
 21
160.7855544955905
 31
0.0
  0
CIRCLE
  5
FBC
  8
0
 10
172.35822889419569
 20
222.4219775458285
 30
0.0
 40
4.0
  0
ARC
  5
FBF
  8
0
 10
170.52756698818371
 20
223.47891069005971
 30
0.0
 40
0.6912500000000005
 50
309.68887794065949
 51
16.658241772777039
  0
ARC
  5
FC0
  8
0
 10
171.5682288941957
 20
223.79029768380789
 30
0.0
 40
0.3949999999999998
 50
43.341758227222279
 51
196.65824177277699
  0
ARC
  5
FC1
  8
0
 10
172.35822889419569
 20
224.53584383429089
 30
0.0
 40
0.6912499999999989
 50
223.3417582272223
 51
316.65824177277773
  0
ARC
  5
FC2
  8
0
 10
173.14822889419571
 20
223.79029768380789
 30
0.0
 40
0.3950000000000002
 50
343.3417582272229
 51
136.6582417727777
  0
ARC
  5
FC3
  8
0
 10
170.52756698818371
 20
221.36504440159729
 30
0.0
 40
0.691250000000001
 50
343.3417582272229
 51
50.311122059331304
  0
ARC
  5
FC4
  8
0
 10
171.5682288941957
 20
221.0536574078491
 30
0.0
 40
0.3950000000000001
 50
163.3417582272229
 51
316.65824177277773
  0
ARC
  5
FC5
  8
0
 10
172.35822889419569
 20
220.30811125736611
 30
0.0
 40
0.6912500000000003
 50
43.341758227222279
 51
136.65824177277651
  0
ARC
  5
FC6
  8
0
 10
173.14822889419571
 20
221.0536574078491
 30
0.0
 40
0.3949999999999998
 50
223.3417582272223
 51
16.658241772777039
  0
ARC
  5
FC7
  8
0
 10
174.18889080020759
 20
221.36504440159729
 30
0.0
 40
0.6912500000000003
 50
129.6888779406687
 51
196.65824177277699
  0
ARC
  5
FC8
  8
0
 10
174.18889080020759
 20
223.47891069005971
 30
0.0
 40
0.6912500000000011
 50
163.3417582272229
 51
230.31112205934281
  0
ARC
  5
FC9
  8
0
 10
100.55088848732289
 20
153.27555449559051
 30
0.0
 40
8.0
 50
60.000000000000277
 51
69.842683784424523
  0
LINE
  5
FCA
  8
0
 10
96.550888487323036
 20
160.20375772586601
 30
0.0
 11
104.55088848732289
 21
160.20375772586601
 31
0.0
  0
ARC
  5
FCB
  8
0
 10
100.55088848732289
 20
153.27555449559051
 30
0.0
 40
8.0
 50
110.15731621557541
 51
119.9999999999997
  0
LINE
  5
FCC
  8
0
 10
169.60822889419569
 20
221.89697754582849
 30
0.0
 11
170.9690119933297
 21
221.89697754582849
 31
0.0
  0
LINE
  5
FCD
  8
0
 10
169.60822889419569
 20
222.9469775458285
 30
0.0
 11
170.9690119933297
 21
222.9469775458285
 31
0.0
  0
LINE
  5
FCE
  8
0
 10
173.74744579506171
 20
222.9469775458285
 30
0.0
 11
175.10822889419569
 21
222.9469775458285
 31
0.0
  0
LINE
  5
FCF
  8
0
 10
173.74744579506159
 20
221.89697754582849
 30
0.0
 11
175.10822889419569
 21
221.89697754582849
 31
0.0
  0
ARC
  5
FD0
  8
0
 10
172.35822889419569
 20
222.4219775458285
 30
0.0
 40
2.7567916134521511
 50
355.97735839170269
 51
4.0226416083006269
  0
LINE
  5
FD1
  8
0
 10
175.10822889419561
 20
222.9469775458285
 30
0.0
 11
175.10822889419569
 21
221.89697754582849
 31
0.0
  0
LINE
  5
FD2
  8
0
 10
169.60822889419569
 20
222.9469775458285
 30
0.0
 11
169.60822889419569
 21
221.89697754582849
 31
0.0
  0
ARC
  5
FD3
  8
0
 10
172.35822889419569
 20
222.4219775458285
 30
0.0
 40
2.7567916134521511
 50
10.9783913299381
 51
169.02160867006191
  0
ARC
  5
FD4
  8
0
 10
172.35822889419569
 20
222.4219775458285
 30
0.0
 40
2.7567916134521511
 50
190.97839132993809
 51
349.02160867006188
  0
ARC
  5
FD5
  8
0
 10
172.35822889419569
 20
222.4219775458285
 30
0.0
 40
2.7567916134521511
 50
175.9773583916961
 51
184.02264160830379
  0
LINE
  5
FD7
  8
0
 10
168.3582288941958
 20
160.20375772586601
 30
0.0
 11
173.2113455008035
 21
160.20375772586601
 31
0.0
  0
LINE
  5
FD9
  8
0
 10
174.71811656492201
 20
160.78555449559039
 30
0.0
 11
169.60143728074351
 21
160.7855544955905
 31
0.0
  0
ARC
  5
FDB
  8
0
 10
172.35822889419569
 20
153.27555449559051
 30
0.0
 40
8.0
 50
110.15731621557541
 51
119.9999999999997
  0
LINE
  5
FDC
  8
0
 10
168.3582288941958
 20
160.20375772586601
 30
0.0
 11
168.35822889419569
 21
158.2463554347155
 31
0.0
  0
TEXT
  5
10D4
  8
0
 62
     3
 10
0.0
 20
0.0
 30
0.0
 40
10.0
  1
FKR8X15-SUS
  7
STANDARD1
  0
ENDSEC
  0
EOF
