  0
SECTION
  2
HEADER
  9
$ACADVER
  1
AC1009
  9
$INSBASE
 10
0.0
 20
0.0
 30
0.0
  9
$EXTMIN
 10
0.0
 20
-2.960436562073669
 30
0.0
  9
$EXTMAX
 10
309.56209660810123
 20
261.01872012849242
 30
0.0
  9
$LIMMIN
 10
0.0
 20
0.0
  9
$LIMMAX
 10
187.5
 20
135.0
  9
$ORTHOMODE
 70
     0
  9
$REGENMODE
 70
     1
  9
$FILLMODE
 70
     1
  9
$QTEXTMODE
 70
     0
  9
$MIRRTEXT
 70
     0
  9
$DRAGMODE
 70
     2
  9
$LTSCALE
 40
10.0
  9
$OSMODE
 70
    55
  9
$ATTMODE
 70
     1
  9
$TEXTSIZE
 40
4.0
  9
$TRACEWID
 40
0.05
  9
$TEXTSTYLE
  7
STANDARD
  9
$CLAYER
  8
0
  9
$CELTYPE
  6
BYLAYER
  9
$CECOLOR
 62
   256
  9
$DIMSCALE
 40
0.5
  9
$DIMASZ
 40
3.0
  9
$DIMEXO
 40
2.0
  9
$DIMDLI
 40
0.38
  9
$DIMRND
 40
0.0
  9
$DIMDLE
 40
0.0
  9
$DIMEXE
 40
2.0
  9
$DIMTP
 40
0.0
  9
$DIMTM
 40
0.0
  9
$DIMTXT
 40
3.0
  9
$DIMCEN
 40
0.0
  9
$DIMTSZ
 40
0.0
  9
$DIMTOL
 70
     0
  9
$DIMLIM
 70
     0
  9
$DIMTIH
 70
     0
  9
$DIMTOH
 70
     0
  9
$DIMSE1
 70
     0
  9
$DIMSE2
 70
     0
  9
$DIMTAD
 70
     1
  9
$DIMZIN
 70
     0
  9
$DIMBLK
  1

  9
$DIMASO
 70
     0
  9
$DIMSHO
 70
     0
  9
$DIMPOST
  1

  9
$DIMAPOST
  1

  9
$DIMALT
 70
     0
  9
$DIMALTD
 70
     2
  9
$DIMALTF
 40
25.399999999999999
  9
$DIMLFAC
 40
1.0
  9
$DIMTOFL
 70
     0
  9
$DIMTVP
 40
1.6000000000000001
  9
$DIMTIX
 70
     1
  9
$DIMSOXD
 70
     0
  9
$DIMSAH
 70
     0
  9
$DIMBLK1
  1

  9
$DIMBLK2
  1

  9
$DIMSTYLE
  2
STANDARD
  9
$DIMCLRD
 70
     0
  9
$DIMCLRE
 70
     0
  9
$DIMCLRT
 70
     0
  9
$DIMTFAC
 40
1.0
  9
$DIMGAP
 40
0.09
  9
$LUNITS
 70
     2
  9
$LUPREC
 70
     4
  9
$SKETCHINC
 40
0.1
  9
$FILLETRAD
 40
1.25
  9
$AUNITS
 70
     0
  9
$AUPREC
 70
     0
  9
$MENU
  1
E:\r13\win\SUPPORT\ACAD
  9
$ELEVATION
 40
0.0
  9
$PELEVATION
 40
0.0
  9
$THICKNESS
 40
0.0
  9
$LIMCHECK
 70
     0
  9
$BLIPMODE
 70
     0
  9
$CHAMFERA
 40
0.0
  9
$CHAMFERB
 40
0.0
  9
$SKPOLY
 70
     0
  9
$TDCREATE
 40
2449840.6143865739
  9
$TDUPDATE
 40
2456598.6495699878
  9
$TDINDWG
 40
0.2305544329
  9
$TDUSRTIMER
 40
0.2305544329
  9
$USRTIMER
 70
     1
  9
$ANGBASE
 50
0.0
  9
$ANGDIR
 70
     0
  9
$PDMODE
 70
     0
  9
$PDSIZE
 40
0.0
  9
$PLINEWID
 40
0.0
  9
$COORDS
 70
     1
  9
$SPLFRAME
 70
     0
  9
$SPLINETYPE
 70
     6
  9
$SPLINESEGS
 70
     8
  9
$ATTDIA
 70
     0
  9
$ATTREQ
 70
     1
  9
$HANDLING
 70
     1
  9
$HANDSEED
  5
14B1
  9
$SURFTAB1
 70
     6
  9
$SURFTAB2
 70
     6
  9
$SURFTYPE
 70
     6
  9
$SURFU
 70
     6
  9
$SURFV
 70
     6
  9
$UCSNAME
  2

  9
$UCSORG
 10
0.0
 20
0.0
 30
0.0
  9
$UCSXDIR
 10
1.0
 20
0.0
 30
0.0
  9
$UCSYDIR
 10
0.0
 20
1.0
 30
0.0
  9
$PUCSNAME
  2

  9
$PUCSORG
 10
0.0
 20
0.0
 30
0.0
  9
$PUCSXDIR
 10
1.0
 20
0.0
 30
0.0
  9
$PUCSYDIR
 10
0.0
 20
1.0
 30
0.0
  9
$USERI1
 70
     0
  9
$USERI2
 70
     1
  9
$USERI3
 70
     1
  9
$USERI4
 70
     0
  9
$USERI5
 70
     0
  9
$USERR1
 40
0.0
  9
$USERR2
 40
0.0
  9
$USERR3
 40
0.0
  9
$USERR4
 40
0.0
  9
$USERR5
 40
0.0
  9
$WORLDVIEW
 70
     1
  9
$SHADEDGE
 70
     3
  9
$SHADEDIF
 70
    70
  9
$TILEMODE
 70
     1
  9
$MAXACTVP
 70
    16
  9
$PLIMCHECK
 70
     0
  9
$PEXTMIN
 10
1.0000000000000000E+020
 20
1.0000000000000000E+020
 30
1.0000000000000000E+020
  9
$PEXTMAX
 10
-1.0000000000000000E+020
 20
-1.0000000000000000E+020
 30
-1.0000000000000000E+020
  9
$PLIMMIN
 10
0.0
 20
0.0
  9
$PLIMMAX
 10
12.0
 20
9.0
  9
$UNITMODE
 70
     0
  9
$VISRETAIN
 70
     0
  9
$PLINEGEN
 70
     0
  9
$PSLTSCALE
 70
     0
  0
ENDSEC
  0
SECTION
  2
TABLES
  0
TABLE
  2
VPORT
 70
     1
  0
VPORT
  2
*ACTIVE
 70
     0
 10
0.0
 20
0.0
 11
1.0
 21
1.0
 12
154.78104902480601
 22
169.06884979276819
 13
0.0
 23
0.0
 14
5.0
 24
5.0
 15
5.0
 25
5.0
 16
0.0
 26
0.0
 36
1.0
 17
0.0
 27
0.0
 37
0.0
 40
347.12254991929649
 41
1.7807262569832401
 42
50.0
 43
0.0
 44
0.0
 50
0.0
 51
0.0
 71
     0
 72
   100
 73
     1
 74
     0
 75
     0
 76
     0
 77
     0
 78
     0
  0
ENDTAB
  0
TABLE
  2
LTYPE
 70
     4
  0
LTYPE
  2
CONTINUOUS
 70
     0
  3
Solid Line
 72
    65
 73
     0
 40
0.0
  0
LTYPE
  2
CENTER
 70
     0
  3
____ _ ____ _ ____ _ ____ _ ____ _ ____ _ ____
 72
    65
 73
     4
 40
2.0
 49
1.25
 49
-0.25
 49
0.25
 49
-0.25
  0
LTYPE
  2
HIDDEN
 70
     0
  3
_ _ _ _ _ _ _ _ _ _ _ _ _ _ _ _ _ _ _ _ _ _ _
 72
    65
 73
     2
 40
0.375
 49
0.25
 49
-0.125
  0
LTYPE
  2
PHANTOM2
 70
     0
  3
___ _ _ ___ _ _ ___ _ _ ___ _ _
 72
    65
 73
     6
 40
1.25
 49
0.625
 49
-0.125
 49
0.125
 49
-0.125
 49
0.125
 49
-0.125
  0
ENDTAB
  0
TABLE
  2
LAYER
 70
     4
  0
LAYER
  2
0
 70
     0
 62
     7
  6
CONTINUOUS
  0
LAYER
  2
1
 70
     0
 62
     1
  6
CENTER
  0
LAYER
  2
2
 70
     0
 62
     2
  6
HIDDEN
  0
LAYER
  2
3
 70
     0
 62
     3
  6
CONTINUOUS
  0
ENDTAB
  0
TABLE
  2
STYLE
 70
     2
  0
STYLE
  2
STANDARD
 70
     0
 40
0.0
 41
1.0
 50
0.0
 71
     0
 42
4.0
  3
TXT
  4
BIGFONT
  0
STYLE
  2
STANDARD1
 70
     0
 40
0.0
 41
1.0
 50
0.0
 71
     0
 42
3.0
  3
txt
  4

  0
ENDTAB
  0
TABLE
  2
VIEW
 70
     1
  0
VIEW
  2
ALL
 70
     0
 40
179.66152299999999
 10
141.903918
 20
89.830760999999995
 41
0.0
 11
0.0
 21
0.0
 31
1.0
 12
0.0
 22
0.0
 32
0.0
 42
0.0
 43
0.0
 44
0.0
 50
0.0
 71
     0
  0
ENDTAB
  0
TABLE
  2
UCS
 70
     0
  0
ENDTAB
  0
TABLE
  2
APPID
 70
     4
  0
APPID
  2
ACAD
 70
     0
  0
APPID
  2
DCO15
 70
     0
  0
APPID
  2
ACAD_MLEADERVER
 70
     0
  0
APPID
  2
ACAD_NAV_VCDISPLAY
 70
     0
  0
ENDTAB
  0
TABLE
  2
DIMSTYLE
 70
     1
  0
DIMSTYLE
  2
STANDARD
 70
     0
  3

  4

  5

  6

  7

 40
1.0
 41
0.18
 42
0.0625
 43
0.38
 44
0.18
 45
0.0
 46
0.0
 47
0.0
 48
0.0
140
0.18
141
0.09
142
0.0
143
25.399999999999999
144
1.0
145
0.0
146
1.0
147
0.09
 71
     0
 72
     0
 73
     1
 74
     1
 75
     0
 76
     0
 77
     0
 78
     0
170
     0
171
     2
172
     0
173
     0
174
     0
175
     0
176
     0
177
     0
178
     0
  0
ENDTAB
  0
ENDSEC
  0
SECTION
  2
BLOCKS
  0
BLOCK
  8
0
  2
$MODEL_SPACE
 70
     0
 10
0.0
 20
0.0
 30
0.0
  3
$MODEL_SPACE
  1

  0
ENDBLK
  5
1BD
  8
0
  0
BLOCK
 67
     1
  8
0
  2
$PAPER_SPACE
 70
     0
 10
0.0
 20
0.0
 30
0.0
  3
$PAPER_SPACE
  1

  0
ENDBLK
  5
1BB
 67
     1
  8
0
  0
ENDSEC
  0
SECTION
  2
ENTITIES
  0
LINE
  5
104A
  8
0
 10
147.84427679454831
 20
167.72236750655949
 30
0.0
 11
147.84427679454831
 21
149.1034606702529
 31
0.0
  0
LINE
  5
104B
  8
0
 10
168.84427679454831
 20
149.1034606702529
 30
0.0
 11
168.84427679454831
 21
163.1034606702529
 31
0.0
  0
LINE
  5
104C
  8
0
 10
224.72720939838081
 20
181.1634606702529
 30
0.0
 11
214.688758948892
 21
181.1634606702529
 31
0.0
  0
LINE
  5
104D
  8
0
 10
233.1138231244139
 20
183.43476724553679
 30
0.0
 11
228.1154623687502
 21
181.75263300534519
 31
0.0
  0
LINE
  5
104E
  8
0
 10
168.84427679454831
 20
149.1034606702529
 30
0.0
 11
147.84427679454831
 21
149.1034606702529
 31
0.0
  0
LINE
  5
104F
  8
1
 10
158.34427679454831
 20
181.1034606702529
 30
0.0
 11
158.34427679454831
 21
134.1034606702529
 31
0.0
  0
LINE
  5
1051
  8
0
 10
166.3542767945483
 20
139.1034606702529
 30
0.0
 11
166.3542767945483
 21
149.1034606702529
 31
0.0
  0
LINE
  5
1052
  8
0
 10
150.3542767945483
 20
149.1034606702529
 30
0.0
 11
150.3542767945483
 21
139.1034606702529
 31
0.0
  0
LINE
  5
1054
  8
0
 10
150.3542767945483
 20
139.1034606702529
 30
0.0
 11
166.3542767945483
 21
139.1034606702529
 31
0.0
  0
LINE
  5
1055
  8
2
 10
163.3542767945483
 20
139.60346162392699
 30
0.0
 11
163.3542767945483
 21
153.1034606702529
 31
0.0
  0
LINE
  5
1056
  8
2
 10
162.3542767945483
 20
140.6034606702523
 30
0.0
 11
162.3542767945483
 21
155.1034606702529
 31
0.0
  0
LINE
  5
1057
  8
2
 10
162.3542767945483
 20
140.6034606702523
 30
0.0
 11
163.8542767945483
 21
139.1034606702529
 31
0.0
  0
LINE
  5
1058
  8
2
 10
163.35427679454841
 20
153.1034606702529
 30
0.0
 11
162.3542767945483
 21
154.83551147782191
 31
0.0
  0
LINE
  5
1059
  8
2
 10
158.35427679454841
 20
157.41286174701139
 30
0.0
 11
162.3542767945483
 21
155.1034606702529
 31
0.0
  0
LINE
  5
105A
  8
2
 10
158.3542767945483
 20
157.41286174701139
 30
0.0
 11
154.3542767945483
 21
155.1034606702529
 31
0.0
  0
LINE
  5
105B
  8
2
 10
153.3542767945483
 20
153.1034606702529
 30
0.0
 11
154.3542767945483
 21
154.83551147782191
 31
0.0
  0
LINE
  5
105C
  8
2
 10
163.35427679454841
 20
153.1034606702529
 30
0.0
 11
153.3542767945483
 21
153.1034606702529
 31
0.0
  0
LINE
  5
105D
  8
2
 10
162.3542767945483
 20
155.1034606702529
 30
0.0
 11
154.3542767945483
 21
155.1034606702529
 31
0.0
  0
LINE
  5
105E
  8
2
 10
154.3542767945483
 20
140.6034606702523
 30
0.0
 11
162.3542767945483
 21
140.6034606702523
 31
0.0
  0
LINE
  5
105F
  8
2
 10
154.3542767945483
 20
140.6034606702523
 30
0.0
 11
152.8542767945483
 21
139.1034606702529
 31
0.0
  0
LINE
  5
1060
  8
2
 10
154.3542767945483
 20
140.6034606702523
 30
0.0
 11
154.3542767945483
 21
155.1034606702529
 31
0.0
  0
LINE
  5
1061
  8
2
 10
153.3542767945483
 20
139.60346162392699
 30
0.0
 11
153.3542767945483
 21
153.1034606702529
 31
0.0
  0
ARC
  5
1062
  8
0
 10
259.0600304051992
 20
-75.386657277200584
 30
0.0
 40
270.0
 50
94.957086921350097
 51
113.6996745048306
  0
LINE
  5
1063
  8
0
 10
235.72944004372181
 20
193.6034606702529
 30
0.0
 11
236.3542767945483
 21
193.6034606702529
 31
0.0
  0
LINE
  5
1064
  8
0
 10
238.3542767945483
 20
191.6034606702529
 30
0.0
 11
238.3542767945483
 21
189.56857282847901
 31
0.0
  0
ARC
  5
1065
  8
0
 10
236.3542767945483
 20
191.6034606702529
 30
0.0
 40
2.0
 50
0.0
 51
90.0
  0
ARC
  5
1066
  8
0
 10
152.34427679454831
 20
167.72236750655949
 30
0.0
 40
4.5
 50
113.6996745048306
 51
180.0
  0
ARC
  5
1067
  8
0
 10
285.64193365685639
 20
-63.55647383428731
 30
0.0
 40
255.0
 50
106.4878909565075
 51
117.2600616186912
  0
ARC
  5
1068
  8
0
 10
214.688758948892
 20
176.1634606702529
 30
0.0
 40
5.0
 50
90.0
 51
106.48789095650569
  0
ARC
  5
1069
  8
0
 10
230.92676559717219
 20
190.6088023285661
 30
0.0
 40
7.5
 50
286.95422943661129
 51
352.02753029962417
  0
LINE
  5
106A
  8
0
 10
147.84427679454831
 20
241.77219891340701
 30
0.0
 11
147.84427679454831
 21
248.26524134357791
 31
0.0
  0
CIRCLE
  5
1078
  8
0
 10
159.30586555299931
 20
245.01872012849239
 30
0.0
 40
6.5992762682978654
  0
LINE
  5
1079
  8
1
 10
158.3542767945483
 20
261.01872012849242
 30
0.0
 11
158.3542767945483
 21
229.01872012849239
 31
0.0
  0
LINE
  5
107A
  8
1
 10
243.35427679454841
 20
245.01872012849239
 30
0.0
 11
142.84427679454831
 21
245.01872012849239
 31
0.0
  0
ARC
  5
107B
  8
0
 10
158.3542767945483
 20
245.01872012849239
 30
0.0
 40
11.0
 50
197.16583016485521
 51
297.66428518543768
  0
ARC
  5
107C
  8
0
 10
232.85427679454841
 20
245.01872012849239
 30
0.0
 40
5.5
 50
270.0
 51
90.0
  0
ARC
  5
107D
  8
0
 10
181.4233400864151
 20
301.42354493687282
 30
0.0
 40
50.0
 50
248.9466271382876
 51
278.79596523459998
  0
LINE
  5
107E
  8
0
 10
232.85427679454841
 20
250.51872012849239
 30
0.0
 11
190.01433583997269
 21
252.06712878010001
 31
0.0
  0
ARC
  5
107F
  8
0
 10
189.8337335570526
 20
247.07039156313499
 30
0.0
 40
5.0
 50
87.929999999999524
 51
98.795965234600004
  0
LINE
  5
1080
  8
0
 10
232.85427679454841
 20
239.51872012849239
 30
0.0
 11
190.01433583997269
 21
237.9703114768848
 31
0.0
  0
ARC
  5
1081
  8
0
 10
181.4233400864151
 20
188.61389532011211
 30
0.0
 40
50.0
 50
81.204034765399996
 51
111.0533728617124
  0
ARC
  5
1082
  8
0
 10
189.8337335570526
 20
242.9670486938499
 30
0.0
 40
5.0
 50
261.20403476540002
 51
272.0700000000005
  0
ARC
  5
1083
  8
0
 10
158.3542767945483
 20
245.01872012849239
 30
0.0
 40
11.0
 50
62.335714814562287
 51
162.83416983514471
  0
LINE
  5
1084
  8
0
 10
232.85427679454841
 20
87.368722997617965
 30
0.0
 11
190.01433583997269
 21
88.917131649225624
 31
0.0
  0
LINE
  5
1085
  8
0
 10
232.85427679454841
 20
76.368722997617965
 30
0.0
 11
190.01433583997269
 21
74.820314346010321
 31
0.0
  0
LINE
  5
1086
  8
1
 10
243.35427679454841
 20
81.868722997617965
 30
0.0
 11
142.84427679454831
 21
81.868722997617965
 31
0.0
  0
ARC
  5
1087
  8
0
 10
181.4233400864151
 20
138.27354780599819
 30
0.0
 40
50.0
 50
248.9466271382876
 51
278.79596523459998
  0
ARC
  5
1088
  8
0
 10
181.4233400864151
 20
25.463898189237661
 30
0.0
 40
50.0
 50
81.204034765399996
 51
111.0533728617124
  0
LINE
  5
1089
  8
1
 10
158.3542767945483
 20
97.868722997617965
 30
0.0
 11
158.3542767945483
 21
65.868722997617965
 31
0.0
  0
ARC
  5
108A
  8
0
 10
158.3542767945483
 20
81.868722997617965
 30
0.0
 40
11.0
 50
62.335714814562287
 51
162.83416983514471
  0
ARC
  5
108B
  8
0
 10
158.3542767945483
 20
81.868722997617965
 30
0.0
 40
11.0
 50
197.16583016485521
 51
297.66428518543768
  0
LINE
  5
108C
  8
0
 10
147.84427679454831
 20
78.622201782532514
 30
0.0
 11
147.84427679454831
 21
85.115244212703402
 31
0.0
  0
ARC
  5
108D
  8
0
 10
189.8337335570526
 20
79.817051562975394
 30
0.0
 40
5.0
 50
261.20403476540002
 51
272.0700000000005
  0
ARC
  5
108E
  8
0
 10
189.8337335570526
 20
83.920394432260537
 30
0.0
 40
5.0
 50
87.929999999999524
 51
98.795965234600004
  0
ARC
  5
108F
  8
0
 10
232.85427679454841
 20
81.868722997617965
 30
0.0
 40
5.5
 50
270.0
 51
90.0
  0
CIRCLE
  5
1090
  8
0
 10
158.3542767945483
 20
81.868722997617965
 30
0.0
 40
8.0
  0
CIRCLE
  5
1091
  8
0
 10
158.3542767945483
 20
81.868722997617965
 30
0.0
 40
10.5
  0
CIRCLE
  5
1092
  8
0
 10
158.3542767945483
 20
81.868722997617965
 30
0.0
 40
4.0
  0
CIRCLE
  5
1093
  8
3
 10
158.3542767945483
 20
81.868722997617965
 30
0.0
 40
5.0
  0
LINE
  5
1096
  8
0
 10
91.387451794660265
 20
139.1034606702529
 30
0.0
 11
91.387451794660265
 21
149.1034606702529
 31
0.0
  0
LINE
  5
1097
  8
0
 10
75.387451794660251
 20
149.1034606702529
 30
0.0
 11
75.387451794660251
 21
139.1034606702529
 31
0.0
  0
LINE
  5
1099
  8
0
 10
78.08745179466024
 20
171.8534606702529
 30
0.0
 11
88.687451794660262
 21
171.8534606702529
 31
0.0
  0
LINE
  5
109A
  8
0
 10
75.387451794660251
 20
139.1034606702529
 30
0.0
 11
91.387451794660265
 21
139.1034606702529
 31
0.0
  0
LINE
  5
109B
  8
1
 10
83.387451794660251
 20
198.6034606702529
 30
0.0
 11
83.387451794660251
 21
134.1034606702529
 31
0.0
  0
LINE
  5
109C
  8
0
 10
87.975038397404376
 20
193.6034606702529
 30
0.0
 11
78.799865191916126
 21
193.6034606702529
 31
0.0
  0
LINE
  5
109D
  8
0
 10
93.887451794660265
 20
149.1034606702529
 30
0.0
 11
72.887451794660251
 21
149.1034606702529
 31
0.0
  0
LINE
  5
109E
  8
0
 10
78.08745179466024
 20
171.8534606702529
 30
0.0
 11
88.687451794660262
 21
171.8534606702529
 31
0.0
  0
POLYLINE
  5
109F
  8
0
 10
76.825502553943124
 20
175.40277016195867
 30
0.0
 66
     1
 70
     8
  0
VERTEX
  8
0
  5
13AD
 10
76.8255
 20
175.403
 30
0.000000
  70
    32
  0
VERTEX
  8
0
  5
13AE
 10
76.8360
 20
175.280
 30
0.000000
  70
    32
  0
VERTEX
  8
0
  5
13AF
 10
76.8622
 20
175.159
 30
0.000000
  70
    32
  0
VERTEX
  8
0
  5
13B0
 10
76.9042
 20
175.038
 30
0.000000
  70
    32
  0
VERTEX
  8
0
  5
13B1
 10
76.9618
 20
174.918
 30
0.000000
  70
    32
  0
VERTEX
  8
0
  5
13B2
 10
77.0349
 20
174.800
 30
0.000000
  70
    32
  0
VERTEX
  8
0
  5
13B3
 10
77.1233
 20
174.684
 30
0.000000
  70
    32
  0
VERTEX
  8
0
  5
13B4
 10
77.2268
 20
174.570
 30
0.000000
  70
    32
  0
VERTEX
  8
0
  5
13B5
 10
77.3451
 20
174.458
 30
0.000000
  70
    32
  0
VERTEX
  8
0
  5
13B6
 10
77.4780
 20
174.348
 30
0.000000
  70
    32
  0
VERTEX
  8
0
  5
13B7
 10
77.6251
 20
174.242
 30
0.000000
  70
    32
  0
VERTEX
  8
0
  5
13B8
 10
77.7861
 20
174.139
 30
0.000000
  70
    32
  0
VERTEX
  8
0
  5
13B9
 10
77.9605
 20
174.039
 30
0.000000
  70
    32
  0
VERTEX
  8
0
  5
13BA
 10
78.1481
 20
173.943
 30
0.000000
  70
    32
  0
VERTEX
  8
0
  5
13BB
 10
78.3483
 20
173.850
 30
0.000000
  70
    32
  0
VERTEX
  8
0
  5
13BC
 10
78.5606
 20
173.762
 30
0.000000
  70
    32
  0
VERTEX
  8
0
  5
13BD
 10
78.7846
 20
173.678
 30
0.000000
  70
    32
  0
VERTEX
  8
0
  5
13BE
 10
79.0196
 20
173.598
 30
0.000000
  70
    32
  0
VERTEX
  8
0
  5
13BF
 10
79.2652
 20
173.523
 30
0.000000
  70
    32
  0
VERTEX
  8
0
  5
13C0
 10
79.5206
 20
173.453
 30
0.000000
  70
    32
  0
VERTEX
  8
0
  5
13C1
 10
79.7855
 20
173.388
 30
0.000000
  70
    32
  0
VERTEX
  8
0
  5
13C2
 10
80.0589
 20
173.328
 30
0.000000
  70
    32
  0
VERTEX
  8
0
  5
13C3
 10
80.3404
 20
173.274
 30
0.000000
  70
    32
  0
VERTEX
  8
0
  5
13C4
 10
80.6293
 20
173.225
 30
0.000000
  70
    32
  0
VERTEX
  8
0
  5
13C5
 10
80.9248
 20
173.181
 30
0.000000
  70
    32
  0
VERTEX
  8
0
  5
13C6
 10
81.2262
 20
173.143
 30
0.000000
  70
    32
  0
VERTEX
  8
0
  5
13C7
 10
81.5328
 20
173.111
 30
0.000000
  70
    32
  0
VERTEX
  8
0
  5
13C8
 10
81.8439
 20
173.085
 30
0.000000
  70
    32
  0
VERTEX
  8
0
  5
13C9
 10
82.1587
 20
173.065
 30
0.000000
  70
    32
  0
VERTEX
  8
0
  5
13CA
 10
82.4765
 20
173.051
 30
0.000000
  70
    32
  0
VERTEX
  8
0
  5
13CB
 10
82.7965
 20
173.042
 30
0.000000
  70
    32
  0
VERTEX
  8
0
  5
13CC
 10
83.1179
 20
173.040
 30
0.000000
  70
    32
  0
VERTEX
  8
0
  5
13CD
 10
83.4399
 20
173.044
 30
0.000000
  70
    32
  0
VERTEX
  8
0
  5
13CE
 10
83.7618
 20
173.054
 30
0.000000
  70
    32
  0
VERTEX
  8
0
  5
13CF
 10
84.0828
 20
173.069
 30
0.000000
  70
    32
  0
VERTEX
  8
0
  5
13D0
 10
84.4022
 20
173.091
 30
0.000000
  70
    32
  0
VERTEX
  8
0
  5
13D1
 10
84.7191
 20
173.119
 30
0.000000
  70
    32
  0
VERTEX
  8
0
  5
13D2
 10
85.0328
 20
173.152
 30
0.000000
  70
    32
  0
VERTEX
  8
0
  5
13D3
 10
85.3425
 20
173.191
 30
0.000000
  70
    32
  0
VERTEX
  8
0
  5
13D4
 10
85.6475
 20
173.236
 30
0.000000
  70
    32
  0
VERTEX
  8
0
  5
13D5
 10
85.9471
 20
173.287
 30
0.000000
  70
    32
  0
VERTEX
  8
0
  5
13D6
 10
86.2405
 20
173.342
 30
0.000000
  70
    32
  0
VERTEX
  8
0
  5
13D7
 10
86.5270
 20
173.404
 30
0.000000
  70
    32
  0
VERTEX
  8
0
  5
13D8
 10
86.8060
 20
173.470
 30
0.000000
  70
    32
  0
VERTEX
  8
0
  5
13D9
 10
87.0767
 20
173.541
 30
0.000000
  70
    32
  0
VERTEX
  8
0
  5
13DA
 10
87.3385
 20
173.617
 30
0.000000
  70
    32
  0
VERTEX
  8
0
  5
13DB
 10
87.5909
 20
173.698
 30
0.000000
  70
    32
  0
VERTEX
  8
0
  5
13DC
 10
87.8331
 20
173.783
 30
0.000000
  70
    32
  0
VERTEX
  8
0
  5
13DD
 10
88.0645
 20
173.873
 30
0.000000
  70
    32
  0
VERTEX
  8
0
  5
13DE
 10
88.2848
 20
173.966
 30
0.000000
  70
    32
  0
VERTEX
  8
0
  5
13DF
 10
88.4932
 20
174.063
 30
0.000000
  70
    32
  0
VERTEX
  8
0
  5
13E0
 10
88.6893
 20
174.164
 30
0.000000
  70
    32
  0
VERTEX
  8
0
  5
13E1
 10
88.8727
 20
174.268
 30
0.000000
  70
    32
  0
VERTEX
  8
0
  5
13E2
 10
89.0428
 20
174.375
 30
0.000000
  70
    32
  0
VERTEX
  8
0
  5
13E3
 10
89.1993
 20
174.485
 30
0.000000
  70
    32
  0
VERTEX
  8
0
  5
13E4
 10
89.3418
 20
174.598
 30
0.000000
  70
    32
  0
VERTEX
  8
0
  5
13E5
 10
89.4700
 20
174.713
 30
0.000000
  70
    32
  0
VERTEX
  8
0
  5
13E6
 10
89.5835
 20
174.829
 30
0.000000
  70
    32
  0
VERTEX
  8
0
  5
13E7
 10
89.6821
 20
174.948
 30
0.000000
  70
    32
  0
VERTEX
  8
0
  5
13E8
 10
89.7655
 20
175.068
 30
0.000000
  70
    32
  0
VERTEX
  8
0
  5
13E9
 10
89.8336
 20
175.189
 30
0.000000
  70
    32
  0
VERTEX
  8
0
  5
13EA
 10
89.8861
 20
175.311
 30
0.000000
  70
    32
  0
VERTEX
  8
0
  5
13EB
 10
89.9229
 20
175.433
 30
0.000000
  70
    32
  0
VERTEX
  8
0
  5
13EC
 10
89.9441
 20
175.556
 30
0.000000
  70
    32
  0
VERTEX
  8
0
  5
13ED
 10
89.9494
 20
175.679
 30
0.000000
  70
    32
  0
VERTEX
  8
0
  5
13EE
 10
89.9389
 20
175.801
 30
0.000000
  70
    32
  0
VERTEX
  8
0
  5
13EF
 10
89.9127
 20
175.923
 30
0.000000
  70
    32
  0
VERTEX
  8
0
  5
13F0
 10
89.8707
 20
176.043
 30
0.000000
  70
    32
  0
VERTEX
  8
0
  5
13F1
 10
89.8131
 20
176.163
 30
0.000000
  70
    32
  0
VERTEX
  8
0
  5
13F2
 10
89.7400
 20
176.281
 30
0.000000
  70
    32
  0
VERTEX
  8
0
  5
13F3
 10
89.6516
 20
176.397
 30
0.000000
  70
    32
  0
VERTEX
  8
0
  5
13F4
 10
89.5481
 20
176.512
 30
0.000000
  70
    32
  0
VERTEX
  8
0
  5
13F5
 10
89.4298
 20
176.624
 30
0.000000
  70
    32
  0
VERTEX
  8
0
  5
13F6
 10
89.2970
 20
176.733
 30
0.000000
  70
    32
  0
VERTEX
  8
0
  5
13F7
 10
89.1498
 20
176.839
 30
0.000000
  70
    32
  0
VERTEX
  8
0
  5
13F8
 10
88.9889
 20
176.943
 30
0.000000
  70
    32
  0
VERTEX
  8
0
  5
13F9
 10
88.8144
 20
177.042
 30
0.000000
  70
    32
  0
VERTEX
  8
0
  5
13FA
 10
88.6268
 20
177.139
 30
0.000000
  70
    32
  0
VERTEX
  8
0
  5
13FB
 10
88.4266
 20
177.231
 30
0.000000
  70
    32
  0
VERTEX
  8
0
  5
13FC
 10
88.2143
 20
177.320
 30
0.000000
  70
    32
  0
VERTEX
  8
0
  5
13FD
 10
87.9904
 20
177.404
 30
0.000000
  70
    32
  0
VERTEX
  8
0
  5
13FE
 10
87.7553
 20
177.483
 30
0.000000
  70
    32
  0
VERTEX
  8
0
  5
13FF
 10
87.5098
 20
177.558
 30
0.000000
  70
    32
  0
VERTEX
  8
0
  5
1400
 10
87.2543
 20
177.628
 30
0.000000
  70
    32
  0
VERTEX
  8
0
  5
1401
 10
86.9895
 20
177.693
 30
0.000000
  70
    32
  0
VERTEX
  8
0
  5
1402
 10
86.7160
 20
177.753
 30
0.000000
  70
    32
  0
VERTEX
  8
0
  5
1403
 10
86.4345
 20
177.808
 30
0.000000
  70
    32
  0
VERTEX
  8
0
  5
1404
 10
86.1456
 20
177.857
 30
0.000000
  70
    32
  0
VERTEX
  8
0
  5
1405
 10
85.8501
 20
177.900
 30
0.000000
  70
    32
  0
VERTEX
  8
0
  5
1406
 10
85.5487
 20
177.938
 30
0.000000
  70
    32
  0
VERTEX
  8
0
  5
1407
 10
85.2421
 20
177.970
 30
0.000000
  70
    32
  0
VERTEX
  8
0
  5
1408
 10
84.9310
 20
177.996
 30
0.000000
  70
    32
  0
VERTEX
  8
0
  5
1409
 10
84.6162
 20
178.016
 30
0.000000
  70
    32
  0
VERTEX
  8
0
  5
140A
 10
84.2984
 20
178.031
 30
0.000000
  70
    32
  0
VERTEX
  8
0
  5
140B
 10
83.9784
 20
178.039
 30
0.000000
  70
    32
  0
VERTEX
  8
0
  5
140C
 10
83.6570
 20
178.041
 30
0.000000
  70
    32
  0
VERTEX
  8
0
  5
140D
 10
83.3350
 20
178.038
 30
0.000000
  70
    32
  0
VERTEX
  8
0
  5
140E
 10
83.0131
 20
178.028
 30
0.000000
  70
    32
  0
VERTEX
  8
0
  5
140F
 10
82.6921
 20
178.012
 30
0.000000
  70
    32
  0
VERTEX
  8
0
  5
1410
 10
82.3727
 20
177.990
 30
0.000000
  70
    32
  0
VERTEX
  8
0
  5
1411
 10
82.0558
 20
177.963
 30
0.000000
  70
    32
  0
VERTEX
  8
0
  5
1412
 10
81.7421
 20
177.929
 30
0.000000
  70
    32
  0
VERTEX
  8
0
  5
1413
 10
81.4324
 20
177.890
 30
0.000000
  70
    32
  0
VERTEX
  8
0
  5
1414
 10
81.1274
 20
177.845
 30
0.000000
  70
    32
  0
VERTEX
  8
0
  5
1415
 10
80.8278
 20
177.795
 30
0.000000
  70
    32
  0
VERTEX
  8
0
  5
1416
 10
80.5344
 20
177.739
 30
0.000000
  70
    32
  0
VERTEX
  8
0
  5
1417
 10
80.2479
 20
177.678
 30
0.000000
  70
    32
  0
VERTEX
  8
0
  5
1418
 10
79.9689
 20
177.611
 30
0.000000
  70
    32
  0
VERTEX
  8
0
  5
1419
 10
79.6982
 20
177.540
 30
0.000000
  70
    32
  0
VERTEX
  8
0
  5
141A
 10
79.4364
 20
177.464
 30
0.000000
  70
    32
  0
VERTEX
  8
0
  5
141B
 10
79.1840
 20
177.383
 30
0.000000
  70
    32
  0
VERTEX
  8
0
  5
141C
 10
78.9418
 20
177.298
 30
0.000000
  70
    32
  0
VERTEX
  8
0
  5
141D
 10
78.7104
 20
177.209
 30
0.000000
  70
    32
  0
VERTEX
  8
0
  5
141E
 10
78.4901
 20
177.115
 30
0.000000
  70
    32
  0
VERTEX
  8
0
  5
141F
 10
78.2817
 20
177.018
 30
0.000000
  70
    32
  0
VERTEX
  8
0
  5
1420
 10
78.0856
 20
176.917
 30
0.000000
  70
    32
  0
VERTEX
  8
0
  5
1421
 10
77.9022
 20
176.813
 30
0.000000
  70
    32
  0
VERTEX
  8
0
  5
1422
 10
77.7321
 20
176.706
 30
0.000000
  70
    32
  0
VERTEX
  8
0
  5
1423
 10
77.5756
 20
176.596
 30
0.000000
  70
    32
  0
VERTEX
  8
0
  5
1424
 10
77.4331
 20
176.484
 30
0.000000
  70
    32
  0
VERTEX
  8
0
  5
1425
 10
77.3049
 20
176.369
 30
0.000000
  70
    32
  0
VERTEX
  8
0
  5
1426
 10
77.1914
 20
176.252
 30
0.000000
  70
    32
  0
VERTEX
  8
0
  5
1427
 10
77.0928
 20
176.134
 30
0.000000
  70
    32
  0
VERTEX
  8
0
  5
1428
 10
77.0094
 20
176.014
 30
0.000000
  70
    32
  0
VERTEX
  8
0
  5
1429
 10
76.9414
 20
175.893
 30
0.000000
  70
    32
  0
VERTEX
  8
0
  5
142A
 10
76.8888
 20
175.771
 30
0.000000
  70
    32
  0
VERTEX
  8
0
  5
142B
 10
76.8520
 20
175.648
 30
0.000000
  70
    32
  0
VERTEX
  8
0
  5
142C
 10
76.8308
 20
175.525
 30
0.000000
  70
    32
  0
VERTEX
  8
0
  5
142D
 10
76.8255
 20
175.403
 30
0.000000
  70
    32
  0
SEQEND
  8
0
  5
142E
  0
LINE
  5
10A0
  8
0
 10
90.549770286785787
 20
171.84285945204701
 30
0.0
 11
76.225133302534715
 21
171.84285945204701
 31
0.0
  0
POLYLINE
  5
10A1
  8
0
 10
90.549770286785773
 20
171.84285945204692
 30
0.0
 66
     1
 70
     8
  0
VERTEX
  8
0
  5
142F
 10
90.5498
 20
171.843
 30
0.000000
  70
    32
  0
VERTEX
  8
0
  5
1430
 10
90.8618
 20
171.955
 30
0.000000
  70
    32
  0
VERTEX
  8
0
  5
1431
 10
91.1630
 20
172.071
 30
0.000000
  70
    32
  0
VERTEX
  8
0
  5
1432
 10
91.4530
 20
172.193
 30
0.000000
  70
    32
  0
VERTEX
  8
0
  5
1433
 10
91.7314
 20
172.318
 30
0.000000
  70
    32
  0
VERTEX
  8
0
  5
1434
 10
91.9976
 20
172.448
 30
0.000000
  70
    32
  0
VERTEX
  8
0
  5
1435
 10
92.2515
 20
172.581
 30
0.000000
  70
    32
  0
VERTEX
  8
0
  5
1436
 10
92.4926
 20
172.719
 30
0.000000
  70
    32
  0
VERTEX
  8
0
  5
1437
 10
92.7205
 20
172.860
 30
0.000000
  70
    32
  0
VERTEX
  8
0
  5
1438
 10
92.9349
 20
173.004
 30
0.000000
  70
    32
  0
VERTEX
  8
0
  5
1439
 10
93.1355
 20
173.152
 30
0.000000
  70
    32
  0
VERTEX
  8
0
  5
143A
 10
93.3221
 20
173.302
 30
0.000000
  70
    32
  0
VERTEX
  8
0
  5
143B
 10
93.4943
 20
173.455
 30
0.000000
  70
    32
  0
VERTEX
  8
0
  5
143C
 10
93.6519
 20
173.611
 30
0.000000
  70
    32
  0
VERTEX
  8
0
  5
143D
 10
93.7946
 20
173.769
 30
0.000000
  70
    32
  0
VERTEX
  8
0
  5
143E
 10
93.9224
 20
173.929
 30
0.000000
  70
    32
  0
VERTEX
  8
0
  5
143F
 10
94.0349
 20
174.091
 30
0.000000
  70
    32
  0
VERTEX
  8
0
  5
1440
 10
94.1321
 20
174.255
 30
0.000000
  70
    32
  0
VERTEX
  8
0
  5
1441
 10
94.2137
 20
174.420
 30
0.000000
  70
    32
  0
VERTEX
  8
0
  5
1442
 10
94.2797
 20
174.586
 30
0.000000
  70
    32
  0
VERTEX
  8
0
  5
1443
 10
94.3299
 20
174.753
 30
0.000000
  70
    32
  0
VERTEX
  8
0
  5
1444
 10
94.3644
 20
174.920
 30
0.000000
  70
    32
  0
VERTEX
  8
0
  5
1445
 10
94.3830
 20
175.088
 30
0.000000
  70
    32
  0
VERTEX
  8
0
  5
1446
 10
94.3857
 20
175.257
 30
0.000000
  70
    32
  0
VERTEX
  8
0
  5
1447
 10
94.3726
 20
175.425
 30
0.000000
  70
    32
  0
VERTEX
  8
0
  5
1448
 10
94.3435
 20
175.592
 30
0.000000
  70
    32
  0
VERTEX
  8
0
  5
1449
 10
94.2987
 20
175.760
 30
0.000000
  70
    32
  0
VERTEX
  8
0
  5
144A
 10
94.2380
 20
175.926
 30
0.000000
  70
    32
  0
VERTEX
  8
0
  5
144B
 10
94.1618
 20
176.091
 30
0.000000
  70
    32
  0
VERTEX
  8
0
  5
144C
 10
94.0699
 20
176.255
 30
0.000000
  70
    32
  0
VERTEX
  8
0
  5
144D
 10
93.9626
 20
176.418
 30
0.000000
  70
    32
  0
VERTEX
  8
0
  5
144E
 10
93.8401
 20
176.579
 30
0.000000
  70
    32
  0
VERTEX
  8
0
  5
144F
 10
93.7024
 20
176.738
 30
0.000000
  70
    32
  0
VERTEX
  8
0
  5
1450
 10
93.5499
 20
176.894
 30
0.000000
  70
    32
  0
VERTEX
  8
0
  5
1451
 10
93.3826
 20
177.048
 30
0.000000
  70
    32
  0
VERTEX
  8
0
  5
1452
 10
93.2010
 20
177.200
 30
0.000000
  70
    32
  0
VERTEX
  8
0
  5
1453
 10
93.0051
 20
177.348
 30
0.000000
  70
    32
  0
VERTEX
  8
0
  5
1454
 10
92.7954
 20
177.494
 30
0.000000
  70
    32
  0
VERTEX
  8
0
  5
1455
 10
92.5721
 20
177.636
 30
0.000000
  70
    32
  0
VERTEX
  8
0
  5
1456
 10
92.3355
 20
177.775
 30
0.000000
  70
    32
  0
VERTEX
  8
0
  5
1457
 10
92.0860
 20
177.910
 30
0.000000
  70
    32
  0
VERTEX
  8
0
  5
1458
 10
91.8239
 20
178.041
 30
0.000000
  70
    32
  0
VERTEX
  8
0
  5
1459
 10
91.5496
 20
178.167
 30
0.000000
  70
    32
  0
VERTEX
  8
0
  5
145A
 10
91.2636
 20
178.290
 30
0.000000
  70
    32
  0
VERTEX
  8
0
  5
145B
 10
90.9661
 20
178.408
 30
0.000000
  70
    32
  0
VERTEX
  8
0
  5
145C
 10
90.6578
 20
178.522
 30
0.000000
  70
    32
  0
VERTEX
  8
0
  5
145D
 10
90.3389
 20
178.631
 30
0.000000
  70
    32
  0
VERTEX
  8
0
  5
145E
 10
90.0100
 20
178.734
 30
0.000000
  70
    32
  0
VERTEX
  8
0
  5
145F
 10
89.6715
 20
178.833
 30
0.000000
  70
    32
  0
VERTEX
  8
0
  5
1460
 10
89.3239
 20
178.926
 30
0.000000
  70
    32
  0
VERTEX
  8
0
  5
1461
 10
88.9678
 20
179.015
 30
0.000000
  70
    32
  0
VERTEX
  8
0
  5
1462
 10
88.6036
 20
179.097
 30
0.000000
  70
    32
  0
VERTEX
  8
0
  5
1463
 10
88.2319
 20
179.174
 30
0.000000
  70
    32
  0
VERTEX
  8
0
  5
1464
 10
87.8532
 20
179.245
 30
0.000000
  70
    32
  0
VERTEX
  8
0
  5
1465
 10
87.4680
 20
179.311
 30
0.000000
  70
    32
  0
VERTEX
  8
0
  5
1466
 10
87.0769
 20
179.370
 30
0.000000
  70
    32
  0
VERTEX
  8
0
  5
1467
 10
86.6805
 20
179.423
 30
0.000000
  70
    32
  0
VERTEX
  8
0
  5
1468
 10
86.2794
 20
179.471
 30
0.000000
  70
    32
  0
VERTEX
  8
0
  5
1469
 10
85.8741
 20
179.512
 30
0.000000
  70
    32
  0
VERTEX
  8
0
  5
146A
 10
85.4651
 20
179.547
 30
0.000000
  70
    32
  0
VERTEX
  8
0
  5
146B
 10
85.0532
 20
179.575
 30
0.000000
  70
    32
  0
VERTEX
  8
0
  5
146C
 10
84.6389
 20
179.598
 30
0.000000
  70
    32
  0
VERTEX
  8
0
  5
146D
 10
84.2227
 20
179.614
 30
0.000000
  70
    32
  0
VERTEX
  8
0
  5
146E
 10
83.8054
 20
179.623
 30
0.000000
  70
    32
  0
VERTEX
  8
0
  5
146F
 10
83.3875
 20
179.626
 30
0.000000
  70
    32
  0
VERTEX
  8
0
  5
1470
 10
82.9695
 20
179.623
 30
0.000000
  70
    32
  0
VERTEX
  8
0
  5
1471
 10
82.5522
 20
179.614
 30
0.000000
  70
    32
  0
VERTEX
  8
0
  5
1472
 10
82.1360
 20
179.598
 30
0.000000
  70
    32
  0
VERTEX
  8
0
  5
1473
 10
81.7217
 20
179.575
 30
0.000000
  70
    32
  0
VERTEX
  8
0
  5
1474
 10
81.3098
 20
179.547
 30
0.000000
  70
    32
  0
VERTEX
  8
0
  5
1475
 10
80.9009
 20
179.512
 30
0.000000
  70
    32
  0
VERTEX
  8
0
  5
1476
 10
80.4955
 20
179.471
 30
0.000000
  70
    32
  0
VERTEX
  8
0
  5
1477
 10
80.0944
 20
179.423
 30
0.000000
  70
    32
  0
VERTEX
  8
0
  5
1478
 10
79.6980
 20
179.370
 30
0.000000
  70
    32
  0
VERTEX
  8
0
  5
1479
 10
79.3069
 20
179.311
 30
0.000000
  70
    32
  0
VERTEX
  8
0
  5
147A
 10
78.9217
 20
179.245
 30
0.000000
  70
    32
  0
VERTEX
  8
0
  5
147B
 10
78.5430
 20
179.174
 30
0.000000
  70
    32
  0
VERTEX
  8
0
  5
147C
 10
78.1713
 20
179.097
 30
0.000000
  70
    32
  0
VERTEX
  8
0
  5
147D
 10
77.8071
 20
179.015
 30
0.000000
  70
    32
  0
VERTEX
  8
0
  5
147E
 10
77.4510
 20
178.926
 30
0.000000
  70
    32
  0
VERTEX
  8
0
  5
147F
 10
77.1034
 20
178.833
 30
0.000000
  70
    32
  0
VERTEX
  8
0
  5
1480
 10
76.7649
 20
178.734
 30
0.000000
  70
    32
  0
VERTEX
  8
0
  5
1481
 10
76.4360
 20
178.631
 30
0.000000
  70
    32
  0
VERTEX
  8
0
  5
1482
 10
76.1171
 20
178.522
 30
0.000000
  70
    32
  0
VERTEX
  8
0
  5
1483
 10
75.8088
 20
178.408
 30
0.000000
  70
    32
  0
VERTEX
  8
0
  5
1484
 10
75.5113
 20
178.290
 30
0.000000
  70
    32
  0
VERTEX
  8
0
  5
1485
 10
75.2253
 20
178.167
 30
0.000000
  70
    32
  0
VERTEX
  8
0
  5
1486
 10
74.9510
 20
178.041
 30
0.000000
  70
    32
  0
VERTEX
  8
0
  5
1487
 10
74.6889
 20
177.910
 30
0.000000
  70
    32
  0
VERTEX
  8
0
  5
1488
 10
74.4394
 20
177.775
 30
0.000000
  70
    32
  0
VERTEX
  8
0
  5
1489
 10
74.2028
 20
177.636
 30
0.000000
  70
    32
  0
VERTEX
  8
0
  5
148A
 10
73.9795
 20
177.494
 30
0.000000
  70
    32
  0
VERTEX
  8
0
  5
148B
 10
73.7698
 20
177.348
 30
0.000000
  70
    32
  0
VERTEX
  8
0
  5
148C
 10
73.5739
 20
177.200
 30
0.000000
  70
    32
  0
VERTEX
  8
0
  5
148D
 10
73.3923
 20
177.048
 30
0.000000
  70
    32
  0
VERTEX
  8
0
  5
148E
 10
73.2250
 20
176.894
 30
0.000000
  70
    32
  0
VERTEX
  8
0
  5
148F
 10
73.0725
 20
176.738
 30
0.000000
  70
    32
  0
VERTEX
  8
0
  5
1490
 10
72.9348
 20
176.579
 30
0.000000
  70
    32
  0
VERTEX
  8
0
  5
1491
 10
72.8123
 20
176.418
 30
0.000000
  70
    32
  0
VERTEX
  8
0
  5
1492
 10
72.7050
 20
176.255
 30
0.000000
  70
    32
  0
VERTEX
  8
0
  5
1493
 10
72.6131
 20
176.091
 30
0.000000
  70
    32
  0
VERTEX
  8
0
  5
1494
 10
72.5369
 20
175.926
 30
0.000000
  70
    32
  0
VERTEX
  8
0
  5
1495
 10
72.4762
 20
175.760
 30
0.000000
  70
    32
  0
VERTEX
  8
0
  5
1496
 10
72.4314
 20
175.592
 30
0.000000
  70
    32
  0
VERTEX
  8
0
  5
1497
 10
72.4023
 20
175.425
 30
0.000000
  70
    32
  0
VERTEX
  8
0
  5
1498
 10
72.3892
 20
175.257
 30
0.000000
  70
    32
  0
VERTEX
  8
0
  5
1499
 10
72.3919
 20
175.088
 30
0.000000
  70
    32
  0
VERTEX
  8
0
  5
149A
 10
72.4105
 20
174.920
 30
0.000000
  70
    32
  0
VERTEX
  8
0
  5
149B
 10
72.4450
 20
174.753
 30
0.000000
  70
    32
  0
VERTEX
  8
0
  5
149C
 10
72.4952
 20
174.586
 30
0.000000
  70
    32
  0
VERTEX
  8
0
  5
149D
 10
72.5612
 20
174.420
 30
0.000000
  70
    32
  0
VERTEX
  8
0
  5
149E
 10
72.6428
 20
174.255
 30
0.000000
  70
    32
  0
VERTEX
  8
0
  5
149F
 10
72.7400
 20
174.091
 30
0.000000
  70
    32
  0
VERTEX
  8
0
  5
14A0
 10
72.8525
 20
173.929
 30
0.000000
  70
    32
  0
VERTEX
  8
0
  5
14A1
 10
72.9803
 20
173.769
 30
0.000000
  70
    32
  0
VERTEX
  8
0
  5
14A2
 10
73.1230
 20
173.611
 30
0.000000
  70
    32
  0
VERTEX
  8
0
  5
14A3
 10
73.2806
 20
173.455
 30
0.000000
  70
    32
  0
VERTEX
  8
0
  5
14A4
 10
73.4529
 20
173.302
 30
0.000000
  70
    32
  0
VERTEX
  8
0
  5
14A5
 10
73.6394
 20
173.152
 30
0.000000
  70
    32
  0
VERTEX
  8
0
  5
14A6
 10
73.8400
 20
173.004
 30
0.000000
  70
    32
  0
VERTEX
  8
0
  5
14A7
 10
74.0545
 20
172.860
 30
0.000000
  70
    32
  0
VERTEX
  8
0
  5
14A8
 10
74.2824
 20
172.719
 30
0.000000
  70
    32
  0
VERTEX
  8
0
  5
14A9
 10
74.5234
 20
172.581
 30
0.000000
  70
    32
  0
VERTEX
  8
0
  5
14AA
 10
74.7773
 20
172.448
 30
0.000000
  70
    32
  0
VERTEX
  8
0
  5
14AB
 10
75.0436
 20
172.318
 30
0.000000
  70
    32
  0
VERTEX
  8
0
  5
14AC
 10
75.3219
 20
172.193
 30
0.000000
  70
    32
  0
VERTEX
  8
0
  5
14AD
 10
75.6119
 20
172.071
 30
0.000000
  70
    32
  0
VERTEX
  8
0
  5
14AE
 10
75.9131
 20
171.955
 30
0.000000
  70
    32
  0
VERTEX
  8
0
  5
14AF
 10
76.2251
 20
171.843
 30
0.000000
  70
    32
  0
SEQEND
  8
0
  5
14B0
  0
LINE
  5
10A2
  8
0
 10
94.387451794660251
 20
175.14589071525549
 30
0.0
 11
93.887451794660265
 21
149.1034606702529
 31
0.0
  0
ARC
  5
10A3
  8
0
 10
94.818957268749813
 20
183.2718379481945
 30
0.0
 40
5.0
 50
152.0074062139272
 51
213.9177417789258
  0
LINE
  5
10A4
  8
0
 10
90.423113217437447
 20
185.75327362733719
 30
0.0
 11
88.954033179028613
 21
192.80734597514871
 31
0.0
  0
ARC
  5
10A5
  8
0
 10
87.975038397404376
 20
192.6034606702529
 30
0.0
 40
1.0
 50
11.764253641804171
 51
90.0
  0
ARC
  5
10A6
  8
0
 10
90.227314261112582
 20
185.71249656635811
 30
0.0
 40
0.2
 50
332.00740621392731
 51
11.764253641805761
  0
LINE
  5
10A7
  8
0
 10
90.427314261112585
 20
185.71249656635811
 30
0.0
 11
90.427314261112585
 21
180.8815510002589
 31
0.0
  0
ARC
  5
10A8
  8
0
 10
103.69538195911031
 20
187.9204537839644
 30
0.0
 40
15.0
 50
209.7296705382044
 51
225.69583298831839
  0
LINE
  5
10A9
  8
0
 10
76.347589328207903
 20
185.71249656635811
 30
0.0
 11
76.347589328207903
 21
180.8815510002589
 31
0.0
  0
ARC
  5
10AA
  8
0
 10
71.955946320570689
 20
183.2718379481945
 30
0.0
 40
5.0
 50
326.0822582210742
 51
27.992593786072749
  0
LINE
  5
10AB
  8
0
 10
76.351790371883055
 20
185.75327362733719
 30
0.0
 11
77.820870410291889
 21
192.80734597514871
 31
0.0
  0
ARC
  5
10AC
  8
0
 10
76.54758932820792
 20
185.71249656635811
 30
0.0
 40
0.2
 50
168.23574635819421
 51
207.99259378607269
  0
ARC
  5
10AD
  8
0
 10
78.799865191916126
 20
192.6034606702529
 30
0.0
 40
1.0
 50
90.0
 51
168.2357463581958
  0
ARC
  5
10AE
  8
0
 10
63.079521630210202
 20
187.9204537839644
 30
0.0
 40
15.0
 50
314.30416701168161
 51
330.2703294617956
  0
LINE
  5
10AF
  8
0
 10
72.387451794660251
 20
175.14589071525549
 30
0.0
 11
72.887451794660251
 21
149.1034606702529
 31
0.0
  0
LINE
  5
10B0
  8
0
 10
306.56209660810123
 20
139.1034606702529
 30
0.0
 11
306.56209660810123
 21
149.1034606702529
 31
0.0
  0
LINE
  5
10B1
  8
0
 10
290.56209660810123
 20
149.1034606702529
 30
0.0
 11
290.56209660810123
 21
139.1034606702529
 31
0.0
  0
LINE
  5
10B2
  8
0
 10
290.56209660810123
 20
139.1034606702529
 30
0.0
 11
306.56209660810123
 21
139.1034606702529
 31
0.0
  0
LINE
  5
10B3
  8
0
 10
293.10054532319532
 20
183.70640250946241
 30
0.0
 11
304.04480199302401
 21
183.70640250946241
 31
0.0
  0
LINE
  5
10B4
  8
0
 10
292.89081669753722
 20
181.75263300534479
 30
0.0
 11
304.23337651866541
 21
181.75263300534479
 31
0.0
  0
LINE
  5
10B5
  8
0
 10
304.68102534277688
 20
181.1634606702529
 30
0.0
 11
292.44316787342552
 21
181.1634606702529
 31
0.0
  0
LINE
  5
10B6
  8
0
 10
309.06209660810123
 20
149.1034606702529
 30
0.0
 11
288.06209660810123
 21
149.1034606702529
 31
0.0
  0
LINE
  5
10B7
  8
0
 10
292.36140142809609
 20
180.86021980137841
 30
0.0
 11
304.76279178810643
 21
180.86021980137841
 31
0.0
  0
LINE
  5
10B8
  8
1
 10
298.56209660810123
 20
198.60346067025301
 30
0.0
 11
298.56209660810123
 21
134.1034606702529
 31
0.0
  0
LINE
  5
10B9
  8
0
 10
303.1496832108453
 20
193.6034606702529
 30
0.0
 11
293.9745100053571
 21
193.6034606702531
 31
0.0
  0
LINE
  5
10BA
  8
0
 10
291.52643518532398
 20
185.75327362733719
 30
0.0
 11
292.99551522373281
 21
192.80734597514871
 31
0.0
  0
ARC
  5
10BB
  8
0
 10
293.9745100053571
 20
192.6034606702529
 30
0.0
 40
1.0
 50
90.0
 51
168.2357463581958
  0
LINE
  5
10BC
  8
0
 10
305.59775803087842
 20
185.75327362733719
 30
0.0
 11
304.12867799246959
 21
192.80734597514871
 31
0.0
  0
ARC
  5
10BD
  8
0
 10
303.1496832108453
 20
192.6034606702529
 30
0.0
 40
1.0
 50
11.764253641804171
 51
90.0
  0
LINE
  5
10BE
  8
0
 10
305.60195907455358
 20
185.71249656635811
 30
0.0
 11
305.60195907455358
 21
172.64935909982131
 31
0.0
  0
ARC
  5
10BF
  8
0
 10
298.5798465397408
 20
195.26228402211899
 30
0.0
 40
3.0
 50
269.66099929890152
 51
299.63458235356808
  0
LINE
  5
10C0
  8
0
 10
300.06324628812001
 20
192.6546941029583
 30
0.0
 11
301.96116676788432
 21
193.44855602654971
 31
0.0
  0
ARC
  5
10C1
  8
0
 10
302.7329330059203
 20
191.6034606702529
 30
0.0
 40
2.0
 50
90.0
 51
112.69857631690989
  0
ARC
  5
10C2
  8
0
 10
298.54434667646171
 20
195.26228402211899
 30
0.0
 40
3.0
 50
240.36541764643189
 51
270.33900070109848
  0
LINE
  5
10C3
  8
0
 10
297.0609469280825
 20
192.6546941029583
 30
0.0
 11
295.16302644831808
 21
193.44855602654971
 31
0.0
  0
ARC
  5
10C4
  8
0
 10
294.3912602102821
 20
191.6034606702529
 30
0.0
 40
2.0
 50
67.30142368309005
 51
90.0
  0
ARC
  5
10C5
  8
0
 10
298.57267365810958
 20
189.06457565682931
 30
0.0
 40
0.8
 50
41.037685178419068
 51
138.96231482158089
  0
ARC
  5
10C6
  8
0
 10
278.90814020246648
 20
167.47172845411919
 30
0.0
 40
30.0
 50
33.602711735221362
 51
47.49935354968013
  0
ARC
  5
10C7
  8
0
 10
303.06209660810123
 20
183.52122657570229
 30
0.0
 40
1.0
 50
0.0
 51
33.602711735221362
  0
LINE
  5
10C8
  8
0
 10
304.06209660810123
 20
193.01273049873771
 30
0.0
 11
304.06209660810123
 21
183.5425719117068
 31
0.0
  0
LINE
  5
10C9
  8
0
 10
304.06209660810123
 20
183.52122657570229
 30
0.0
 11
304.29043506877701
 21
181.1634606702529
 31
0.0
  0
LINE
  5
10CA
  8
0
 10
293.08325070811799
 20
193.01273049873771
 30
0.0
 11
293.08325070811799
 21
183.5425719117068
 31
0.0
  0
ARC
  5
10CB
  8
0
 10
294.08325070811799
 20
183.52122657570229
 30
0.0
 40
1.0
 50
146.39728826477861
 51
180.0
  0
LINE
  5
10CC
  8
0
 10
293.08325070811799
 20
183.52122657570229
 30
0.0
 11
292.8549122474422
 21
181.1634606702529
 31
0.0
  0
ARC
  5
10CD
  8
0
 10
318.23720711375267
 20
167.47172845411919
 30
0.0
 40
30.0
 50
132.50064645031981
 51
146.39728826477861
  0
LINE
  5
10CE
  8
0
 10
304.68102534277688
 20
181.1634606702529
 30
0.0
 11
304.76279178810643
 21
180.86021980137841
 31
0.0
  0
ARC
  5
10CF
  8
0
 10
318.72012204750069
 20
187.94562559073981
 30
0.0
 40
15.0
 50
209.00892254597429
 51
229.35444282771439
  0
ARC
  5
10D0
  8
0
 10
278.40407116870182
 20
187.94562559073981
 30
0.0
 40
15.0
 50
310.64555717228558
 51
330.9910774540258
  0
ARC
  5
10D1
  8
0
 10
315.98033936746413
 20
168.83721247227581
 30
0.0
 40
11.0
 50
161.4773883406954
 51
211.41614743140761
  0
ARC
  5
10D2
  8
0
 10
304.60195907455358
 20
172.6493590998212
 30
0.0
 40
1.0
 50
341.47738834069543
 51
0.0
  0
ARC
  5
10D3
  8
0
 10
281.14385384873839
 20
168.83721247227581
 30
0.0
 40
11.0
 50
328.58385256859248
 51
18.522611659304619
  0
LINE
  5
10D4
  8
0
 10
291.52223414164888
 20
185.71249656635811
 30
0.0
 11
291.52223414164882
 21
172.64935909982131
 31
0.0
  0
ARC
  5
10D5
  8
0
 10
292.52223414164882
 20
172.6493590998212
 30
0.0
 40
1.0
 50
179.9999999999992
 51
198.5226116593046
  0
LINE
  5
10D6
  8
0
 10
287.56209660810123
 20
175.14589071525549
 30
0.0
 11
288.06209660810123
 21
149.1034606702529
 31
0.0
  0
LINE
  5
10D7
  8
0
 10
309.56209660810123
 20
175.14589071525549
 30
0.0
 11
309.06209660810123
 21
149.1034606702529
 31
0.0
  0
LINE
  5
10D8
  8
2
 10
78.397451794660242
 20
139.60346162392699
 30
0.0
 11
78.397451794660242
 21
153.1034606702529
 31
0.0
  0
LINE
  5
10D9
  8
2
 10
79.397451794660242
 20
140.6034606702523
 30
0.0
 11
79.397451794660242
 21
155.1034606702529
 31
0.0
  0
LINE
  5
10DA
  8
2
 10
87.397451794660256
 20
140.6034606702523
 30
0.0
 11
87.397451794660256
 21
155.1034606702529
 31
0.0
  0
LINE
  5
10DB
  8
2
 10
88.397451794660242
 20
139.60346162392699
 30
0.0
 11
88.397451794660242
 21
153.1034606702529
 31
0.0
  0
LINE
  5
10DC
  8
2
 10
87.397451794660256
 20
140.6034606702523
 30
0.0
 11
88.897451794660228
 21
139.1034606702529
 31
0.0
  0
LINE
  5
10DD
  8
2
 10
79.397451794660242
 20
140.6034606702523
 30
0.0
 11
87.397451794660256
 21
140.6034606702523
 31
0.0
  0
LINE
  5
10DE
  8
2
 10
79.397451794660242
 20
140.6034606702523
 30
0.0
 11
77.897451794660242
 21
139.1034606702529
 31
0.0
  0
LINE
  5
10DF
  8
2
 10
88.397451794660256
 20
153.1034606702529
 30
0.0
 11
78.397451794660242
 21
153.1034606702529
 31
0.0
  0
LINE
  5
10E0
  8
2
 10
88.397451794660242
 20
153.1034606702529
 30
0.0
 11
87.397451794660256
 21
154.83551147782191
 31
0.0
  0
LINE
  5
10E1
  8
2
 10
78.397451794660242
 20
153.1034606702529
 30
0.0
 11
79.397451794660242
 21
154.83551147782191
 31
0.0
  0
LINE
  5
10E2
  8
2
 10
87.397451794660256
 20
155.1034606702529
 30
0.0
 11
79.397451794660242
 21
155.1034606702529
 31
0.0
  0
LINE
  5
10E3
  8
2
 10
83.397451794660242
 20
157.41286174701139
 30
0.0
 11
79.397451794660242
 21
155.1034606702529
 31
0.0
  0
LINE
  5
10E4
  8
2
 10
83.397451794660256
 20
157.41286174701139
 30
0.0
 11
87.397451794660256
 21
155.1034606702529
 31
0.0
  0
LINE
  5
10E5
  8
2
 10
293.57209660810122
 20
139.60346162392699
 30
0.0
 11
293.57209660810122
 21
153.1034606702529
 31
0.0
  0
LINE
  5
10E6
  8
2
 10
294.57209660810122
 20
140.6034606702523
 30
0.0
 11
294.57209660810122
 21
155.1034606702529
 31
0.0
  0
LINE
  5
10E7
  8
2
 10
302.57209660810122
 20
140.6034606702523
 30
0.0
 11
302.57209660810122
 21
155.1034606702529
 31
0.0
  0
LINE
  5
10E8
  8
2
 10
303.57209660810122
 20
139.60346162392699
 30
0.0
 11
303.57209660810122
 21
153.1034606702529
 31
0.0
  0
LINE
  5
10E9
  8
2
 10
302.57209660810122
 20
140.6034606702523
 30
0.0
 11
304.07209660810122
 21
139.1034606702529
 31
0.0
  0
LINE
  5
10EA
  8
2
 10
294.57209660810122
 20
140.6034606702523
 30
0.0
 11
302.57209660810122
 21
140.6034606702523
 31
0.0
  0
LINE
  5
10EB
  8
2
 10
294.57209660810122
 20
140.6034606702523
 30
0.0
 11
293.07209660810122
 21
139.1034606702529
 31
0.0
  0
LINE
  5
10EC
  8
2
 10
303.57209660810122
 20
153.1034606702529
 30
0.0
 11
293.57209660810122
 21
153.1034606702529
 31
0.0
  0
LINE
  5
10ED
  8
2
 10
303.57209660810122
 20
153.1034606702529
 30
0.0
 11
302.57209660810122
 21
154.83551147782191
 31
0.0
  0
LINE
  5
10EE
  8
2
 10
293.57209660810122
 20
153.1034606702529
 30
0.0
 11
294.57209660810122
 21
154.83551147782191
 31
0.0
  0
LINE
  5
10EF
  8
2
 10
302.57209660810122
 20
155.1034606702529
 30
0.0
 11
294.57209660810122
 21
155.1034606702529
 31
0.0
  0
LINE
  5
10F0
  8
2
 10
298.57209660810122
 20
157.41286174701139
 30
0.0
 11
294.57209660810122
 21
155.1034606702529
 31
0.0
  0
LINE
  5
10F1
  8
2
 10
298.57209660810122
 20
157.41286174701139
 30
0.0
 11
302.57209660810122
 21
155.1034606702529
 31
0.0
  0
LINE
  5
10F2
  8
0
 10
79.124039743525799
 20
193.6034606702529
 30
0.0
 11
79.100733021671886
 21
193.60327222130371
 31
0.0
  0
LINE
  5
10F3
  8
0
 10
79.100733021671886
 20
193.60327222130371
 30
0.0
 11
79.054540176414037
 21
193.60173733004731
 31
0.0
  0
LINE
  5
10F4
  8
0
 10
79.054540176414037
 20
193.60173733004731
 30
0.0
 11
79.009000983038476
 21
193.5986021617955
 31
0.0
  0
LINE
  5
10F5
  8
0
 10
79.009000983038476
 20
193.5986021617955
 30
0.0
 11
78.986509305287541
 21
193.5964153862443
 31
0.0
  0
LINE
  5
10F6
  8
0
 10
87.650863845794703
 20
193.6034606702529
 30
0.0
 11
87.674170567648616
 21
193.60327222130371
 31
0.0
  0
LINE
  5
10F7
  8
0
 10
87.674170567648616
 20
193.60327222130371
 30
0.0
 11
87.720363412906465
 21
193.60173733004731
 31
0.0
  0
LINE
  5
10F8
  8
0
 10
87.720363412906465
 20
193.60173733004731
 30
0.0
 11
87.765902606282026
 21
193.5986021617955
 31
0.0
  0
LINE
  5
10F9
  8
0
 10
87.765902606282026
 20
193.5986021617955
 30
0.0
 11
87.788394284032961
 21
193.5964153862443
 31
0.0
  0
LINE
  5
10FA
  8
0
 10
228.11546236874901
 20
181.75263300534479
 30
0.0
 11
228.01891248760771
 21
181.72062427372251
 31
0.0
  0
LINE
  5
10FB
  8
0
 10
228.01891248760771
 20
181.72062427372251
 30
0.0
 11
227.82496646816449
 21
181.65922513682659
 31
0.0
  0
LINE
  5
10FC
  8
0
 10
227.82496646816449
 20
181.65922513682659
 30
0.0
 11
227.6299447120293
 21
181.60133362532989
 31
0.0
  0
LINE
  5
10FD
  8
0
 10
227.6299447120293
 20
181.60133362532989
 30
0.0
 11
227.53205024202961
 21
181.5737091580597
 31
0.0
  0
LINE
  5
10FE
  8
0
 10
227.53205024202961
 20
181.5737091580597
 30
0.0
 11
227.43391065098291
 21
181.54696856873011
 31
0.0
  0
LINE
  5
10FF
  8
0
 10
227.43391065098291
 20
181.54696856873011
 30
0.0
 11
227.2369280460635
 21
181.49614764952781
 31
0.0
  0
LINE
  5
1100
  8
0
 10
227.2369280460635
 20
181.49614764952781
 30
0.0
 11
227.03906096682741
 21
181.4488873974758
 31
0.0
  0
LINE
  5
1101
  8
0
 10
227.03906096682741
 20
181.4488873974758
 30
0.0
 11
226.84037377051101
 21
181.40520318420241
 31
0.0
  0
LINE
  5
1102
  8
0
 10
226.84037377051101
 20
181.40520318420241
 30
0.0
 11
226.64093108109731
 21
181.3651092182119
 31
0.0
  0
LINE
  5
1103
  8
0
 10
226.64093108109731
 20
181.3651092182119
 30
0.0
 11
226.44079776829739
 21
181.32861854026299
 31
0.0
  0
LINE
  5
1104
  8
0
 10
226.44079776829739
 20
181.32861854026299
 30
0.0
 11
226.3404924619127
 21
181.31172818918409
 31
0.0
  0
LINE
  5
1105
  8
0
 10
226.3404924619127
 20
181.31172818918409
 30
0.0
 11
226.24003892645109
 21
181.29574301912729
 31
0.0
  0
LINE
  5
1106
  8
0
 10
226.24003892645109
 20
181.29574301912729
 30
0.0
 11
226.03871985335439
 21
181.2664933477289
 31
0.0
  0
LINE
  5
1107
  8
0
 10
226.03871985335439
 20
181.2664933477289
 30
0.0
 11
225.83690602902141
 21
181.24087903966671
 31
0.0
  0
LINE
  5
1108
  8
0
 10
225.83690602902141
 20
181.24087903966671
 30
0.0
 11
225.63466309438641
 21
181.2189084261199
 31
0.0
  0
LINE
  5
1109
  8
0
 10
225.63466309438641
 20
181.2189084261199
 30
0.0
 11
225.43205682995381
 21
181.20058865313791
 31
0.0
  0
LINE
  5
110A
  8
0
 10
225.43205682995381
 20
181.20058865313791
 30
0.0
 11
225.22915313440311
 21
181.18592567931671
 31
0.0
  0
LINE
  5
110B
  8
0
 10
225.22915313440311
 20
181.18592567931671
 30
0.0
 11
225.12761037033511
 21
181.17996702897329
 31
0.0
  0
LINE
  5
110C
  8
0
 10
225.12761037033511
 20
181.17996702897329
 30
0.0
 11
225.02601800315449
 21
181.1749242738602
 31
0.0
  0
LINE
  5
110D
  8
0
 10
225.02601800315449
 20
181.1749242738602
 30
0.0
 11
224.8227175069037
 21
181.16758801502939
 31
0.0
  0
LINE
  5
110E
  8
0
 10
224.8227175069037
 20
181.16758801502939
 30
0.0
 11
224.61931777013251
 21
181.16391928897849
 31
0.0
  0
LINE
  5
110F
  8
0
 10
224.61931777013251
 20
181.16391928897849
 30
0.0
 11
224.5176013598668
 21
181.1634606702529
 31
0.0
  0
LINE
  5
1110
  8
0
 10
291.52223414164882
 20
173.07006999169249
 30
0.0
 11
291.6522339747105
 21
174.4749551529444
 31
0.0
  0
LINE
  5
1111
  8
0
 10
291.6522339747105
 20
174.4749551529444
 30
0.0
 11
291.93320848044982
 21
177.2554907565881
 31
0.0
  0
LINE
  5
1112
  8
0
 10
291.93320848044982
 20
177.2554907565881
 30
0.0
 11
292.21784316179281
 21
179.73474185794259
 31
0.0
  0
LINE
  5
1113
  8
0
 10
292.21784316179281
 20
179.73474185794259
 30
0.0
 11
292.36140142809609
 21
180.86021980137829
 31
0.0
  0
LINE
  5
1114
  8
0
 10
288.17473704824999
 20
176.56432125994209
 30
0.0
 11
288.15761149639758
 21
176.54593940418471
 31
0.0
  0
LINE
  5
1115
  8
0
 10
288.15761149639758
 20
176.54593940418471
 30
0.0
 11
288.07292966209559
 21
176.44711824410439
 31
0.0
  0
LINE
  5
1116
  8
0
 10
288.07292966209559
 20
176.44711824410439
 30
0.0
 11
287.99535187885431
 21
176.3482262469937
 31
0.0
  0
LINE
  5
1117
  8
0
 10
287.99535187885431
 20
176.3482262469937
 30
0.0
 11
287.9247993706735
 21
176.24944245614239
 31
0.0
  0
LINE
  5
1118
  8
0
 10
287.9247993706735
 20
176.24944245614239
 30
0.0
 11
287.86113787983692
 21
176.15090224700529
 31
0.0
  0
LINE
  5
1119
  8
0
 10
287.86113787983692
 20
176.15090224700529
 30
0.0
 11
287.8315700691906
 21
176.1012915252289
 31
0.0
  0
LINE
  5
111A
  8
0
 10
287.8315700691906
 20
176.1012915252289
 30
0.0
 11
287.80338831075858
 21
176.0512252161636
 31
0.0
  0
LINE
  5
111B
  8
0
 10
287.80338831075858
 20
176.0512252161636
 30
0.0
 11
287.75131222428371
 21
175.9497866356073
 31
0.0
  0
LINE
  5
111C
  8
0
 10
287.75131222428371
 20
175.9497866356073
 30
0.0
 11
287.70515304627497
 21
175.84671095649679
 31
0.0
  0
LINE
  5
111D
  8
0
 10
287.70515304627497
 20
175.84671095649679
 30
0.0
 11
287.66512958599998
 21
175.74212654168761
 31
0.0
  0
LINE
  5
111E
  8
0
 10
287.66512958599998
 20
175.74212654168761
 30
0.0
 11
287.63143568076077
 21
175.63616471147751
 31
0.0
  0
LINE
  5
111F
  8
0
 10
287.63143568076077
 20
175.63616471147751
 30
0.0
 11
287.60424016383132
 21
175.5289587489917
 31
0.0
  0
LINE
  5
1120
  8
0
 10
287.60424016383132
 20
175.5289587489917
 30
0.0
 11
287.59312528892519
 21
175.4749311496173
 31
0.0
  0
LINE
  5
1121
  8
0
 10
287.59312528892519
 20
175.4749311496173
 30
0.0
 11
287.5836871550967
 21
175.4206428611252
 31
0.0
  0
LINE
  5
1122
  8
0
 10
287.5836871550967
 20
175.4206428611252
 30
0.0
 11
287.56989676456828
 21
175.31135200956459
 31
0.0
  0
LINE
  5
1123
  8
0
 10
287.56989676456828
 20
175.31135200956459
 30
0.0
 11
287.56296586308099
 21
175.20122427773799
 31
0.0
  0
LINE
  5
1124
  8
0
 10
287.56296586308099
 20
175.20122427773799
 30
0.0
 11
287.56209660810123
 21
175.14589071525549
 31
0.0
  0
LINE
  5
1125
  8
0
 10
291.50802920347508
 20
172.85664467699419
 30
0.0
 11
291.50817255861688
 21
172.87595893933681
 31
0.0
  0
LINE
  5
1126
  8
0
 10
291.50817255861688
 20
172.87595893933681
 30
0.0
 11
291.50932549114123
 21
172.91468154404899
 31
0.0
  0
LINE
  5
1127
  8
0
 10
291.50932549114123
 20
172.91468154404899
 30
0.0
 11
291.51164646127961
 21
172.95351873765091
 31
0.0
  0
LINE
  5
1128
  8
0
 10
291.51164646127961
 20
172.95351873765091
 30
0.0
 11
291.51324965633103
 21
172.97297625082129
 31
0.0
  0
LINE
  5
1129
  8
0
 10
305.60195907455358
 20
173.07006999169249
 30
0.0
 11
305.47195924149202
 21
174.4749551529444
 31
0.0
  0
LINE
  5
112A
  8
0
 10
305.47195924149202
 20
174.4749551529444
 30
0.0
 11
305.19098473575269
 21
177.2554907565881
 31
0.0
  0
LINE
  5
112B
  8
0
 10
305.19098473575269
 20
177.2554907565881
 30
0.0
 11
304.9063500544097
 21
179.73474185794259
 31
0.0
  0
LINE
  5
112C
  8
0
 10
304.9063500544097
 20
179.73474185794259
 30
0.0
 11
304.76279178810643
 21
180.86021980137829
 31
0.0
  0
LINE
  5
112D
  8
0
 10
305.61616401272732
 20
172.85664467699419
 30
0.0
 11
305.61602065758552
 21
172.87595893933681
 31
0.0
  0
LINE
  5
112E
  8
0
 10
305.61602065758552
 20
172.87595893933681
 30
0.0
 11
305.61486772506117
 21
172.91468154404899
 31
0.0
  0
LINE
  5
112F
  8
0
 10
305.61486772506117
 20
172.91468154404899
 30
0.0
 11
305.61254675492279
 21
172.95351873765091
 31
0.0
  0
LINE
  5
1130
  8
0
 10
305.61254675492279
 20
172.95351873765091
 30
0.0
 11
305.61094355987149
 21
172.97297625082129
 31
0.0
  0
LINE
  5
1131
  8
0
 10
238.3542767945483
 20
189.66950565299399
 30
0.0
 11
238.35427425195479
 21
189.66948523983351
 31
0.0
  0
LINE
  5
1132
  8
0
 10
238.35427425195479
 20
189.66948523983351
 30
0.0
 11
238.3542539112205
 21
189.66932193466261
 31
0.0
  0
LINE
  5
1133
  8
0
 10
238.3542539112205
 20
189.66932193466261
 30
0.0
 11
238.3542132298272
 21
189.66899532492479
 31
0.0
  0
LINE
  5
1134
  8
0
 10
238.3542132298272
 20
189.66899532492479
 30
0.0
 11
238.3541852614274
 21
189.66877078119731
 31
0.0
  0
LINE
  5
1135
  8
0
 10
238.3541852614274
 20
189.66877078119731
 30
0.0
 11
238.35415220792521
 21
189.66850541182811
 31
0.0
  0
LINE
  5
1136
  8
0
 10
238.35415220792521
 20
189.66850541182811
 30
0.0
 11
238.3540708457403
 21
189.66785219718429
 31
0.0
  0
LINE
  5
1137
  8
0
 10
238.3540708457403
 20
189.66785219718429
 30
0.0
 11
238.35396914357329
 21
189.6670356834091
 31
0.0
  0
LINE
  5
1138
  8
0
 10
238.35396914357329
 20
189.6670356834091
 30
0.0
 11
238.3538471018006
 21
189.6660558735222
 31
0.0
  0
LINE
  5
1139
  8
0
 10
238.3538471018006
 20
189.6660558735222
 30
0.0
 11
238.3537047208732
 21
189.66491277114741
 31
0.0
  0
LINE
  5
113A
  8
0
 10
238.3537047208732
 20
189.66491277114741
 30
0.0
 11
238.35354200131781
 21
189.66360638051219
 31
0.0
  0
LINE
  5
113B
  8
0
 10
238.35354200131781
 20
189.66360638051219
 30
0.0
 11
238.3534530147397
 21
189.6628919535832
 31
0.0
  0
LINE
  5
113C
  8
0
 10
238.3534530147397
 20
189.6628919535832
 30
0.0
 11
238.3533589437362
 21
189.662136706448
 31
0.0
  0
LINE
  5
113D
  8
0
 10
238.3533589437362
 20
189.662136706448
 30
0.0
 11
238.35315554880549
 21
189.66050375439019
 31
0.0
  0
LINE
  5
113E
  8
0
 10
238.35315554880549
 20
189.66050375439019
 30
0.0
 11
238.35293181727769
 21
189.65870753037791
 31
0.0
  0
LINE
  5
113F
  8
0
 10
238.35293181727769
 20
189.65870753037791
 30
0.0
 11
238.3526877499805
 21
189.6567480410541
 31
0.0
  0
LINE
  5
1140
  8
0
 10
238.3526877499805
 20
189.6567480410541
 30
0.0
 11
238.35242334781631
 21
189.6546252936657
 31
0.0
  0
LINE
  5
1141
  8
0
 10
238.35242334781631
 20
189.6546252936657
 30
0.0
 11
238.35213861176311
 21
189.6523392960633
 31
0.0
  0
LINE
  5
1142
  8
0
 10
238.35213861176311
 20
189.6523392960633
 30
0.0
 11
238.35198861885419
 21
189.65113508105011
 31
0.0
  0
LINE
  5
1143
  8
0
 10
238.35198861885419
 20
189.65113508105011
 30
0.0
 11
238.35183354287381
 21
189.64989005670111
 31
0.0
  0
LINE
  5
1144
  8
0
 10
238.35183354287381
 20
189.64989005670111
 30
0.0
 11
238.3515081422768
 21
189.64727758463721
 31
0.0
  0
LINE
  5
1145
  8
0
 10
238.3515081422768
 20
189.64727758463721
 30
0.0
 11
238.35116241117541
 21
189.6445018895335
 31
0.0
  0
LINE
  5
1146
  8
0
 10
238.35116241117541
 20
189.6445018895335
 30
0.0
 11
238.35098192208221
 21
189.6430528365261
 31
0.0
  0
LINE
  5
1147
  8
0
 10
308.94945616795252
 20
176.56432125994209
 30
0.0
 11
308.96658171980488
 21
176.54593940418471
 31
0.0
  0
LINE
  5
1148
  8
0
 10
308.96658171980488
 20
176.54593940418471
 30
0.0
 11
309.05126355410692
 21
176.44711824410439
 31
0.0
  0
LINE
  5
1149
  8
0
 10
309.05126355410692
 20
176.44711824410439
 30
0.0
 11
309.12884133734821
 21
176.3482262469937
 31
0.0
  0
LINE
  5
114A
  8
0
 10
309.12884133734821
 20
176.3482262469937
 30
0.0
 11
309.19939384552902
 21
176.24944245614239
 31
0.0
  0
LINE
  5
114B
  8
0
 10
309.19939384552902
 20
176.24944245614239
 30
0.0
 11
309.26305533636548
 21
176.15090224700529
 31
0.0
  0
LINE
  5
114C
  8
0
 10
309.26305533636548
 20
176.15090224700529
 30
0.0
 11
309.29262314701191
 21
176.1012915252289
 31
0.0
  0
LINE
  5
114D
  8
0
 10
309.29262314701191
 20
176.1012915252289
 30
0.0
 11
309.32080490544388
 21
176.0512252161636
 31
0.0
  0
LINE
  5
114E
  8
0
 10
309.32080490544388
 20
176.0512252161636
 30
0.0
 11
309.37288099191881
 21
175.9497866356073
 31
0.0
  0
LINE
  5
114F
  8
0
 10
309.37288099191881
 20
175.9497866356073
 30
0.0
 11
309.41904016992748
 21
175.84671095649679
 31
0.0
  0
LINE
  5
1150
  8
0
 10
309.41904016992748
 20
175.84671095649679
 30
0.0
 11
309.45906363020248
 21
175.74212654168761
 31
0.0
  0
LINE
  5
1151
  8
0
 10
309.45906363020248
 20
175.74212654168761
 30
0.0
 11
309.49275753544168
 21
175.63616471147751
 31
0.0
  0
LINE
  5
1152
  8
0
 10
309.49275753544168
 20
175.63616471147751
 30
0.0
 11
309.51995305237119
 21
175.5289587489917
 31
0.0
  0
LINE
  5
1153
  8
0
 10
309.51995305237119
 20
175.5289587489917
 30
0.0
 11
309.53106792727732
 21
175.4749311496173
 31
0.0
  0
LINE
  5
1154
  8
0
 10
309.53106792727732
 20
175.4749311496173
 30
0.0
 11
309.5405060611057
 21
175.4206428611252
 31
0.0
  0
LINE
  5
1155
  8
0
 10
309.5405060611057
 20
175.4206428611252
 30
0.0
 11
309.55429645163417
 21
175.31135200956459
 31
0.0
  0
LINE
  5
1156
  8
0
 10
309.55429645163417
 20
175.31135200956459
 30
0.0
 11
309.56122735312152
 21
175.20122427773799
 31
0.0
  0
LINE
  5
1157
  8
0
 10
309.56122735312152
 20
175.20122427773799
 30
0.0
 11
309.56209660810123
 21
175.14589071525549
 31
0.0
  0
ARC
  5
11E3
  8
0
 10
158.3542767945483
 20
245.01872012849239
 30
0.0
 40
2.6855911825890351
 50
191.27321412590859
 51
348.72678587409132
  0
LINE
  5
11E4
  8
0
 10
155.6042767945483
 20
245.54372012849251
 30
0.0
 11
155.6042767945483
 21
244.4937201284925
 31
0.0
  0
LINE
  5
11E5
  8
0
 10
161.1042767945483
 20
245.5437201284924
 30
0.0
 11
161.1042767945483
 21
244.4937201284925
 31
0.0
  0
ARC
  5
11E6
  8
0
 10
158.3542767945483
 20
245.01872012849239
 30
0.0
 40
2.6855911825890351
 50
11.27321412590867
 51
168.72678587409129
  0
LINE
  5
11EA
  8
0
 10
88.387451794660208
 20
175.44015750087499
 30
0.0
 11
78.387451794660223
 21
175.4401575008749
 31
0.0
  0
ARC
  5
11EB
  8
0
 10
83.387451794660208
 20
162.36346067025289
 30
0.0
 40
14.0
 50
101.0594800362036
 51
110.92483242763829
  0
ARC
  5
11EC
  8
0
 10
83.387451794660208
 20
162.36346067025289
 30
0.0
 40
14.0
 50
69.075167572361664
 51
78.940519963796405
  0
LINE
  5
11ED
  8
0
 10
86.073042977249315
 20
176.1034606702529
 30
0.0
 11
80.701860612071187
 21
176.1034606702529
 31
0.0
  0
LINE
  5
11EE
  8
0
 10
78.387451794660223
 20
175.44015750087499
 30
0.0
 11
78.387451794660223
 21
173.83306617089579
 31
0.0
  0
LINE
  5
11EF
  8
0
 10
88.387451794660208
 20
175.44015750087499
 30
0.0
 11
88.387451794660237
 21
174.0127534274697
 31
0.0
  0
CIRCLE
  5
11F0
  8
0
 10
158.3542767945483
 20
245.01872012849239
 30
0.0
 40
5.0
  0
ARC
  5
11F5
  8
0
 10
156.5236148885364
 20
246.07565327272371
 30
0.0
 40
0.6912500000000005
 50
309.6888779406537
 51
16.658241772777039
  0
ARC
  5
11F6
  8
0
 10
157.56427679454839
 20
246.3870402664719
 30
0.0
 40
0.3949999999999998
 50
43.341758227222279
 51
196.65824177277699
  0
ARC
  5
11F7
  8
0
 10
158.35427679454841
 20
247.13258641695489
 30
0.0
 40
0.6912499999999989
 50
223.3417582272223
 51
316.65824177277773
  0
ARC
  5
11F8
  8
0
 10
159.14427679454829
 20
246.3870402664719
 30
0.0
 40
0.3950000000000002
 50
343.3417582272229
 51
136.6582417727777
  0
ARC
  5
11F9
  8
0
 10
156.5236148885364
 20
243.96178698426129
 30
0.0
 40
0.691250000000001
 50
343.3417582272229
 51
50.311122059332341
  0
ARC
  5
11FA
  8
0
 10
157.56427679454839
 20
243.65039999051311
 30
0.0
 40
0.3950000000000001
 50
163.3417582272229
 51
316.65824177277773
  0
ARC
  5
11FB
  8
0
 10
158.35427679454841
 20
242.90485384003011
 30
0.0
 40
0.6912500000000003
 50
43.341758227222279
 51
136.65824177277651
  0
ARC
  5
11FC
  8
0
 10
159.14427679454829
 20
243.65039999051311
 30
0.0
 40
0.3949999999999998
 50
223.3417582272223
 51
16.658241772777039
  0
ARC
  5
11FD
  8
0
 10
160.18493870056031
 20
243.96178698426129
 30
0.0
 40
0.6912500000000003
 50
129.6888779406676
 51
196.65824177277699
  0
ARC
  5
11FF
  8
0
 10
160.18493870056031
 20
246.07565327272371
 30
0.0
 40
0.6912500000000011
 50
163.3417582272229
 51
230.3111220593463
  0
LINE
  5
1200
  8
0
 10
155.6042767945483
 20
244.4937201284925
 30
0.0
 11
156.96505989368239
 21
244.4937201284925
 31
0.0
  0
LINE
  5
1201
  8
0
 10
155.6042767945483
 20
245.54372012849251
 30
0.0
 11
156.96505989368231
 21
245.54372012849251
 31
0.0
  0
LINE
  5
1202
  8
0
 10
159.7434936954144
 20
245.5437201284924
 30
0.0
 11
161.1042767945483
 21
245.5437201284924
 31
0.0
  0
LINE
  5
1203
  8
0
 10
159.74349369541429
 20
244.4937201284925
 30
0.0
 11
161.1042767945483
 21
244.4937201284925
 31
0.0
  0
LINE
  5
1206
  8
0
 10
160.8117704980848
 20
176.1034606702529
 30
0.0
 11
155.6586856119593
 21
176.1034606702529
 31
0.0
  0
LINE
  5
1208
  8
0
 10
159.13051030085271
 20
175.44015750087499
 30
0.0
 11
153.34427679454831
 21
175.4401575008749
 31
0.0
  0
LINE
  5
1209
  8
0
 10
153.34427679454831
 20
175.44015750087499
 30
0.0
 11
153.34427679454831
 21
173.05685629989429
 31
0.0
  0
ARC
  5
120A
  8
0
 10
158.34427679454831
 20
162.36346067025289
 30
0.0
 40
14.0
 50
101.0594800362036
 51
110.92483242763829
  0
TEXT
  5
131C
  8
0
 62
     3
 10
0.0
 20
0.0
 30
0.0
 40
10.0
  1
FKF10-SUS
  7
STANDARD1
  0
ENDSEC
  0
EOF
