  0
SECTION
  2
HEADER
  9
$ACADVER
  1
AC1009
  9
$INSBASE
 10
0.0
 20
0.0
 30
0.0
  9
$EXTMIN
 10
0.0
 20
-2.960436562073669
 30
0.0
  9
$EXTMAX
 10
316.87746959465568
 20
230.28392312057099
 30
0.0
  9
$LIMMIN
 10
0.0
 20
0.0
  9
$LIMMAX
 10
375.0
 20
270.0
  9
$ORTHOMODE
 70
     1
  9
$REGENMODE
 70
     1
  9
$FILLMODE
 70
     1
  9
$QTEXTMODE
 70
     0
  9
$MIRRTEXT
 70
     0
  9
$DRAGMODE
 70
     2
  9
$LTSCALE
 40
10.0
  9
$OSMODE
 70
    55
  9
$ATTMODE
 70
     1
  9
$TEXTSIZE
 40
5.0
  9
$TRACEWID
 40
0.05
  9
$TEXTSTYLE
  7
STANDARD
  9
$CLAYER
  8
4
  9
$CELTYPE
  6
BYLAYER
  9
$CECOLOR
 62
   256
  9
$DIMSCALE
 40
1.0
  9
$DIMASZ
 40
3.0
  9
$DIMEXO
 40
2.0
  9
$DIMDLI
 40
0.3799999999999999
  9
$DIMRND
 40
0.0
  9
$DIMDLE
 40
0.0
  9
$DIMEXE
 40
2.0
  9
$DIMTP
 40
0.0
  9
$DIMTM
 40
0.0
  9
$DIMTXT
 40
3.2000000000000002
  9
$DIMCEN
 40
0.09
  9
$DIMTSZ
 40
0.0
  9
$DIMTOL
 70
     0
  9
$DIMLIM
 70
     0
  9
$DIMTIH
 70
     0
  9
$DIMTOH
 70
     0
  9
$DIMSE1
 70
     0
  9
$DIMSE2
 70
     0
  9
$DIMTAD
 70
     1
  9
$DIMZIN
 70
     0
  9
$DIMBLK
  1

  9
$DIMASO
 70
     0
  9
$DIMSHO
 70
     0
  9
$DIMPOST
  1

  9
$DIMAPOST
  1

  9
$DIMALT
 70
     0
  9
$DIMALTD
 70
     2
  9
$DIMALTF
 40
25.399999999999999
  9
$DIMLFAC
 40
1.0
  9
$DIMTOFL
 70
     0
  9
$DIMTVP
 40
1.6000000000000001
  9
$DIMTIX
 70
     1
  9
$DIMSOXD
 70
     0
  9
$DIMSAH
 70
     0
  9
$DIMBLK1
  1

  9
$DIMBLK2
  1

  9
$DIMSTYLE
  2
STANDARD
  9
$DIMCLRD
 70
     0
  9
$DIMCLRE
 70
     0
  9
$DIMCLRT
 70
     0
  9
$DIMTFAC
 40
1.0
  9
$DIMGAP
 40
0.09
  9
$LUNITS
 70
     2
  9
$LUPREC
 70
     4
  9
$SKETCHINC
 40
0.1
  9
$FILLETRAD
 40
0.0
  9
$AUNITS
 70
     0
  9
$AUPREC
 70
     0
  9
$MENU
  1
E:\r13\win\SUPPORT\ACAD
  9
$ELEVATION
 40
0.0
  9
$PELEVATION
 40
0.0
  9
$THICKNESS
 40
0.0
  9
$LIMCHECK
 70
     0
  9
$BLIPMODE
 70
     0
  9
$CHAMFERA
 40
0.0
  9
$CHAMFERB
 40
0.0
  9
$SKPOLY
 70
     0
  9
$TDCREATE
 40
2449840.627743056
  9
$TDUPDATE
 40
2456598.6398866088
  9
$TDINDWG
 40
0.0002159144
  9
$TDUSRTIMER
 40
0.0002159144
  9
$USRTIMER
 70
     1
  9
$ANGBASE
 50
0.0
  9
$ANGDIR
 70
     0
  9
$PDMODE
 70
     0
  9
$PDSIZE
 40
0.0
  9
$PLINEWID
 40
0.0
  9
$COORDS
 70
     1
  9
$SPLFRAME
 70
     0
  9
$SPLINETYPE
 70
     6
  9
$SPLINESEGS
 70
     8
  9
$ATTDIA
 70
     0
  9
$ATTREQ
 70
     1
  9
$HANDLING
 70
     1
  9
$HANDSEED
  5
2B3
  9
$SURFTAB1
 70
     6
  9
$SURFTAB2
 70
     6
  9
$SURFTYPE
 70
     6
  9
$SURFU
 70
     6
  9
$SURFV
 70
     6
  9
$UCSNAME
  2

  9
$UCSORG
 10
0.0
 20
0.0
 30
0.0
  9
$UCSXDIR
 10
1.0
 20
0.0
 30
0.0
  9
$UCSYDIR
 10
0.0
 20
1.0
 30
0.0
  9
$PUCSNAME
  2

  9
$PUCSORG
 10
0.0
 20
0.0
 30
0.0
  9
$PUCSXDIR
 10
1.0
 20
0.0
 30
0.0
  9
$PUCSYDIR
 10
0.0
 20
1.0
 30
0.0
  9
$USERI1
 70
     0
  9
$USERI2
 70
     1
  9
$USERI3
 70
     0
  9
$USERI4
 70
     0
  9
$USERI5
 70
     0
  9
$USERR1
 40
0.0
  9
$USERR2
 40
0.0
  9
$USERR3
 40
0.0
  9
$USERR4
 40
0.0
  9
$USERR5
 40
0.0
  9
$WORLDVIEW
 70
     1
  9
$SHADEDGE
 70
     3
  9
$SHADEDIF
 70
    70
  9
$TILEMODE
 70
     1
  9
$MAXACTVP
 70
    16
  9
$PLIMCHECK
 70
     0
  9
$PEXTMIN
 10
1.0000000000000000E+020
 20
1.0000000000000000E+020
 30
1.0000000000000000E+020
  9
$PEXTMAX
 10
-1.0000000000000000E+020
 20
-1.0000000000000000E+020
 30
-1.0000000000000000E+020
  9
$PLIMMIN
 10
0.0
 20
0.0
  9
$PLIMMAX
 10
12.0
 20
9.0
  9
$UNITMODE
 70
     0
  9
$VISRETAIN
 70
     0
  9
$PLINEGEN
 70
     0
  9
$PSLTSCALE
 70
     0
  0
ENDSEC
  0
SECTION
  2
TABLES
  0
TABLE
  2
VPORT
 70
     1
  0
VPORT
  2
*ACTIVE
 70
     0
 10
0.0
 20
0.0
 11
1.0
 21
1.0
 12
187.49427839065231
 22
174.91677254346851
 13
0.0
 23
0.0
 14
10.0
 24
10.0
 15
10.0
 25
10.0
 16
0.0
 26
0.0
 36
1.0
 17
0.0
 27
0.0
 37
0.0
 40
358.92027899574339
 41
1.7807262569832401
 42
50.0
 43
0.0
 44
0.0
 50
0.0
 51
0.0
 71
     0
 72
   500
 73
     1
 74
     0
 75
     0
 76
     0
 77
     0
 78
     2
  0
ENDTAB
  0
TABLE
  2
LTYPE
 70
     3
  0
LTYPE
  2
CONTINUOUS
 70
     0
  3
Solid Line
 72
    65
 73
     0
 40
0.0
  0
LTYPE
  2
CENTER
 70
     0
  3
____ _ ____ _ ____ _ ____ _ ____ _ ____ _ ____
 72
    65
 73
     4
 40
2.0
 49
1.25
 49
-0.25
 49
0.25
 49
-0.25
  0
LTYPE
  2
PHANTOM2
 70
     0
  3
___ _ _ ___ _ _ ___ _ _ ___ _ _
 72
    65
 73
     6
 40
1.25
 49
0.625
 49
-0.125
 49
0.125
 49
-0.125
 49
0.125
 49
-0.125
  0
ENDTAB
  0
TABLE
  2
LAYER
 70
     3
  0
LAYER
  2
0
 70
     0
 62
     7
  6
CONTINUOUS
  0
LAYER
  2
1
 70
     0
 62
     1
  6
CENTER
  0
LAYER
  2
4
 70
     0
 62
     4
  6
CONTINUOUS
  0
ENDTAB
  0
TABLE
  2
STYLE
 70
     2
  0
STYLE
  2
STANDARD
 70
     0
 40
0.0
 41
1.0
 50
0.0
 71
     0
 42
5.0
  3
TXT
  4
BIGFONT
  0
STYLE
  2
STANDARD1
 70
     0
 40
0.0
 41
1.0
 50
0.0
 71
     0
 42
3.0
  3
txt
  4

  0
ENDTAB
  0
TABLE
  2
VIEW
 70
     2
  0
VIEW
  2
ALL
 70
     0
 40
270.0
 10
213.25689075630251
 20
135.0
 41
0.0
 11
0.0
 21
0.0
 31
1.0
 12
0.0
 22
0.0
 32
0.0
 42
0.0
 43
0.0
 44
0.0
 50
0.0
 71
     0
  0
VIEW
  2
1
 70
     0
 40
190.0
 10
140.0
 20
85.0
 41
280.0
 11
0.0
 21
0.0
 31
1.0
 12
0.0
 22
0.0
 32
0.0
 42
0.0
 43
0.0
 44
0.0
 50
0.0
 71
     0
  0
ENDTAB
  0
TABLE
  2
UCS
 70
     0
  0
ENDTAB
  0
TABLE
  2
APPID
 70
     3
  0
APPID
  2
ACAD
 70
     0
  0
APPID
  2
ACAD_MLEADERVER
 70
     0
  0
APPID
  2
ACAD_NAV_VCDISPLAY
 70
     0
  0
ENDTAB
  0
TABLE
  2
DIMSTYLE
 70
     1
  0
DIMSTYLE
  2
STANDARD
 70
     0
  3

  4

  5

  6

  7

 40
1.0
 41
0.18
 42
0.0625
 43
0.38
 44
0.18
 45
0.0
 46
0.0
 47
0.0
 48
0.0
140
0.18
141
0.09
142
0.0
143
25.399999999999999
144
1.0
145
0.0
146
1.0
147
0.09
 71
     0
 72
     0
 73
     1
 74
     1
 75
     0
 76
     0
 77
     0
 78
     0
170
     0
171
     2
172
     0
173
     0
174
     0
175
     0
176
     0
177
     0
178
     0
  0
ENDTAB
  0
ENDSEC
  0
SECTION
  2
BLOCKS
  0
BLOCK
  8
0
  2
$MODEL_SPACE
 70
     0
 10
0.0
 20
0.0
 30
0.0
  3
$MODEL_SPACE
  1

  0
ENDBLK
  5
128
  8
0
  0
BLOCK
 67
     1
  8
0
  2
$PAPER_SPACE
 70
     0
 10
0.0
 20
0.0
 30
0.0
  3
$PAPER_SPACE
  1

  0
ENDBLK
  5
126
 67
     1
  8
0
  0
ENDSEC
  0
SECTION
  2
ENTITIES
  0
LINE
  5
95
  8
0
 10
202.800789519983
 20
115.41431880402411
 30
0.0
 11
203.800789519983
 21
116.41431880402411
 31
0.0
  0
LINE
  5
96
  8
0
 10
202.800789519983
 20
150.41431880402411
 30
0.0
 11
203.800789519983
 21
149.41431880402411
 31
0.0
  0
LINE
  5
97
  8
0
 10
178.80078951998291
 20
149.41431880402411
 30
0.0
 11
179.80078951998291
 21
150.41431880402411
 31
0.0
  0
LINE
  5
98
  8
0
 10
179.80078951998291
 20
115.41431880402411
 30
0.0
 11
178.80078951998291
 21
116.41431880402411
 31
0.0
  0
LINE
  5
99
  8
0
 10
202.800789519983
 20
115.41431880402411
 30
0.0
 11
179.80078951998291
 21
115.41431880402411
 31
0.0
  0
LINE
  5
9A
  8
0
 10
203.800789519983
 20
149.41431880402411
 30
0.0
 11
203.800789519983
 21
116.41431880402411
 31
0.0
  0
LINE
  5
9B
  8
0
 10
179.80078951998291
 20
150.41431880402411
 30
0.0
 11
202.800789519983
 21
150.41431880402411
 31
0.0
  0
LINE
  5
9C
  8
0
 10
178.80078951998291
 20
149.41431880402411
 30
0.0
 11
178.80078951998291
 21
116.41431880402411
 31
0.0
  0
LINE
  5
9D
  8
0
 10
177.800789519983
 20
150.41431880402411
 30
0.0
 11
178.800789519983
 21
149.41431880402411
 31
0.0
  0
LINE
  5
9E
  8
0
 10
153.80078951998291
 20
149.41431880402411
 30
0.0
 11
154.80078951998291
 21
150.41431880402411
 31
0.0
  0
LINE
  5
9F
  8
0
 10
177.800789519983
 20
115.41431880402411
 30
0.0
 11
178.800789519983
 21
116.41431880402411
 31
0.0
  0
LINE
  5
A0
  8
0
 10
154.80078951998291
 20
115.41431880402411
 30
0.0
 11
153.80078951998291
 21
116.41431880402411
 31
0.0
  0
LINE
  5
A1
  8
0
 10
177.80078951998311
 20
115.4143188040243
 30
0.0
 11
154.800789519983
 21
115.41431880402411
 31
0.0
  0
LINE
  5
A2
  8
0
 10
177.8007895199828
 20
150.41431880402419
 30
0.0
 11
154.80078951998291
 21
150.41431880402411
 31
0.0
  0
LINE
  5
A3
  8
0
 10
153.80078951998291
 20
149.41431880402411
 30
0.0
 11
153.80078951998291
 21
116.41431880402411
 31
0.0
  0
CIRCLE
  5
A4
  8
0
 10
294.37746959465733
 20
132.91431880402411
 30
0.0
 40
4.4999999999999849
  0
CIRCLE
  5
A5
  8
0
 10
294.37746959465733
 20
132.91431880402411
 30
0.0
 40
6.9999999999999707
  0
CIRCLE
  5
A6
  8
0
 10
294.37746959465733
 20
132.91431880402411
 30
0.0
 40
5.0
  0
CIRCLE
  5
A7
  8
0
 10
294.37746959465733
 20
132.91431880402411
 30
0.0
 40
6.9999999999999707
  0
CIRCLE
  5
A8
  8
0
 10
294.37746959465733
 20
132.91431880402411
 30
0.0
 40
6.9999999999999707
  0
CIRCLE
  5
A9
  8
0
 10
294.37746959465733
 20
132.91431880402411
 30
0.0
 40
10.49999999999998
  0
CIRCLE
  5
AA
  8
0
 10
294.37746959465733
 20
132.91431880402411
 30
0.0
 40
17.500000000000039
  0
CIRCLE
  5
AB
  8
0
 10
294.37746959465733
 20
132.91431880402411
 30
0.0
 40
16.50000000000005
  0
CIRCLE
  5
AC
  8
0
 10
294.37746959465733
 20
132.91431880402411
 30
0.0
 40
10.000000000000041
  0
LINE
  5
AD
  8
1
 10
294.37746959465733
 20
110.4143188040261
 30
0.0
 11
294.37746959465733
 21
155.41431880402251
 31
0.0
  0
LINE
  5
AE
  8
1
 10
271.87746959465892
 20
132.91431880402411
 30
0.0
 11
316.87746959465568
 21
132.91431880402411
 31
0.0
  0
LINE
  5
AF
  8
1
 10
208.80078951998291
 20
132.91431880402411
 30
0.0
 11
148.80078951998291
 21
132.91431880402411
 31
0.0
  0
LINE
  5
B9
  8
1
 10
62.12214165429031
 20
132.91431880402411
 30
0.0
 11
107.12214165428711
 21
132.91431880402411
 31
0.0
  0
LINE
  5
BA
  8
1
 10
84.622141654288725
 20
110.4143188040261
 30
0.0
 11
84.622141654288725
 21
155.41431880402251
 31
0.0
  0
CIRCLE
  5
BB
  8
0
 10
84.622141654288725
 20
132.91431880402411
 30
0.0
 40
16.50000000000005
  0
CIRCLE
  5
BC
  8
0
 10
84.622141654288725
 20
132.91431880402411
 30
0.0
 40
17.500000000000039
  0
CIRCLE
  5
BD
  8
0
 10
84.622141654288725
 20
132.91431880402411
 30
0.0
 40
5.0
  0
CIRCLE
  5
BE
  8
0
 10
84.622141654288725
 20
132.91431880402411
 30
0.0
 40
4.4999999999999849
  0
LINE
  5
BF
  8
0
 10
202.800789519983
 20
150.41431880402411
 30
0.0
 11
202.800789519983
 21
115.41431880402411
 31
0.0
  0
LINE
  5
C0
  8
0
 10
179.80078951998291
 20
150.41431880402411
 30
0.0
 11
179.80078951998291
 21
115.41431880402411
 31
0.0
  0
LINE
  5
C1
  8
0
 10
177.80078951998291
 20
150.41431880402419
 30
0.0
 11
177.80078951998311
 21
115.4143188040243
 31
0.0
  0
LINE
  5
C2
  8
0
 10
154.800789519983
 20
150.41431880402411
 30
0.0
 11
154.800789519983
 21
115.41431880402411
 31
0.0
  0
LINE
  5
C3
  8
0
 10
154.800789519983
 20
230.2839231205709
 30
0.0
 11
154.800789519983
 21
195.28392312057079
 31
0.0
  0
LINE
  5
C4
  8
0
 10
177.80078951998291
 20
230.28392312057099
 30
0.0
 11
177.80078951998311
 21
195.28392312057099
 31
0.0
  0
LINE
  5
C5
  8
0
 10
179.80078951998291
 20
230.2839231205709
 30
0.0
 11
179.80078951998291
 21
195.28392312057079
 31
0.0
  0
LINE
  5
C6
  8
0
 10
202.800789519983
 20
230.2839231205709
 30
0.0
 11
202.800789519983
 21
195.28392312057079
 31
0.0
  0
LINE
  5
C7
  8
1
 10
208.80078951998291
 20
212.7839231205709
 30
0.0
 11
148.80078951998291
 21
212.7839231205709
 31
0.0
  0
LINE
  5
C8
  8
0
 10
153.80078951998291
 20
229.2839231205709
 30
0.0
 11
153.80078951998291
 21
196.2839231205709
 31
0.0
  0
LINE
  5
C9
  8
0
 10
177.8007895199828
 20
230.28392312057099
 30
0.0
 11
154.80078951998291
 21
230.2839231205709
 31
0.0
  0
LINE
  5
CA
  8
0
 10
177.80078951998311
 20
195.28392312057099
 30
0.0
 11
154.800789519983
 21
195.28392312057079
 31
0.0
  0
LINE
  5
CB
  8
0
 10
154.80078951998291
 20
195.28392312057079
 30
0.0
 11
153.80078951998291
 21
196.2839231205709
 31
0.0
  0
LINE
  5
CC
  8
0
 10
177.800789519983
 20
195.28392312057079
 30
0.0
 11
178.800789519983
 21
196.2839231205709
 31
0.0
  0
LINE
  5
CD
  8
0
 10
153.80078951998291
 20
229.2839231205709
 30
0.0
 11
154.80078951998291
 21
230.2839231205709
 31
0.0
  0
LINE
  5
CE
  8
0
 10
177.800789519983
 20
230.2839231205709
 30
0.0
 11
178.800789519983
 21
229.2839231205709
 31
0.0
  0
LINE
  5
CF
  8
0
 10
178.80078951998291
 20
229.2839231205709
 30
0.0
 11
178.80078951998291
 21
196.2839231205709
 31
0.0
  0
LINE
  5
D0
  8
0
 10
179.80078951998291
 20
230.2839231205709
 30
0.0
 11
202.800789519983
 21
230.2839231205709
 31
0.0
  0
LINE
  5
D1
  8
0
 10
203.800789519983
 20
229.2839231205709
 30
0.0
 11
203.800789519983
 21
196.2839231205709
 31
0.0
  0
LINE
  5
D2
  8
0
 10
202.800789519983
 20
195.28392312057079
 30
0.0
 11
179.80078951998291
 21
195.28392312057079
 31
0.0
  0
LINE
  5
D3
  8
0
 10
179.80078951998291
 20
195.28392312057079
 30
0.0
 11
178.80078951998291
 21
196.2839231205709
 31
0.0
  0
LINE
  5
D4
  8
0
 10
178.80078951998291
 20
229.2839231205709
 30
0.0
 11
179.80078951998291
 21
230.2839231205709
 31
0.0
  0
LINE
  5
D5
  8
0
 10
202.800789519983
 20
230.2839231205709
 30
0.0
 11
203.800789519983
 21
229.2839231205709
 31
0.0
  0
LINE
  5
D6
  8
0
 10
202.800789519983
 20
195.28392312057079
 30
0.0
 11
203.800789519983
 21
196.2839231205709
 31
0.0
  0
LINE
  5
D7
  8
0
 10
154.800789519983
 20
67.374750458700362
 30
0.0
 11
154.800789519983
 21
32.374750458700348
 31
0.0
  0
LINE
  5
D8
  8
0
 10
177.80078951998291
 20
67.374750458700504
 30
0.0
 11
177.80078951998311
 21
32.374750458700547
 31
0.0
  0
LINE
  5
D9
  8
0
 10
179.80078951998291
 20
67.374750458700362
 30
0.0
 11
179.80078951998291
 21
32.374750458700383
 31
0.0
  0
LINE
  5
DA
  8
0
 10
202.800789519983
 20
67.374750458700362
 30
0.0
 11
202.800789519983
 21
32.374750458700383
 31
0.0
  0
LINE
  5
DB
  8
1
 10
208.80078951998291
 20
49.874750458700362
 30
0.0
 11
148.80078951998291
 21
49.874750458700362
 31
0.0
  0
LINE
  5
DC
  8
0
 10
153.80078951998291
 20
66.374750458700362
 30
0.0
 11
153.80078951998291
 21
33.374750458700383
 31
0.0
  0
LINE
  5
DD
  8
0
 10
177.8007895199828
 20
67.374750458700476
 30
0.0
 11
154.80078951998291
 21
67.374750458700362
 31
0.0
  0
LINE
  5
DE
  8
0
 10
177.80078951998311
 20
32.374750458700547
 30
0.0
 11
154.800789519983
 21
32.374750458700333
 31
0.0
  0
LINE
  5
DF
  8
0
 10
154.80078951998291
 20
32.374750458700348
 30
0.0
 11
153.80078951998291
 21
33.374750458700348
 31
0.0
  0
LINE
  5
E0
  8
0
 10
177.800789519983
 20
32.374750458700383
 30
0.0
 11
178.800789519983
 21
33.374750458700383
 31
0.0
  0
LINE
  5
E1
  8
0
 10
153.80078951998291
 20
66.374750458700362
 30
0.0
 11
154.80078951998291
 21
67.374750458700362
 31
0.0
  0
LINE
  5
E2
  8
0
 10
177.800789519983
 20
67.374750458700362
 30
0.0
 11
178.800789519983
 21
66.374750458700362
 31
0.0
  0
LINE
  5
E3
  8
0
 10
178.80078951998291
 20
66.374750458700362
 30
0.0
 11
178.80078951998291
 21
33.37475045870039
 31
0.0
  0
LINE
  5
E4
  8
0
 10
179.80078951998291
 20
67.374750458700362
 30
0.0
 11
202.800789519983
 21
67.374750458700362
 31
0.0
  0
LINE
  5
E5
  8
0
 10
203.800789519983
 20
66.374750458700362
 30
0.0
 11
203.800789519983
 21
33.374750458700383
 31
0.0
  0
LINE
  5
E6
  8
0
 10
202.800789519983
 20
32.374750458700383
 30
0.0
 11
179.80078951998291
 21
32.374750458700383
 31
0.0
  0
LINE
  5
E7
  8
0
 10
179.80078951998291
 20
32.374750458700383
 30
0.0
 11
178.80078951998291
 21
33.374750458700383
 31
0.0
  0
LINE
  5
E8
  8
0
 10
178.80078951998291
 20
66.374750458700362
 30
0.0
 11
179.80078951998291
 21
67.374750458700362
 31
0.0
  0
LINE
  5
E9
  8
0
 10
202.800789519983
 20
67.374750458700362
 30
0.0
 11
203.800789519983
 21
66.374750458700362
 31
0.0
  0
LINE
  5
EA
  8
0
 10
202.800789519983
 20
32.374750458700383
 30
0.0
 11
203.800789519983
 21
33.374750458700383
 31
0.0
  0
TEXT
  5
220
  8
0
 62
     3
 10
0.0
 20
0.0
 30
0.0
 40
10.0
  1
FD35X25
  7
STANDARD1
  0
ENDSEC
  0
EOF
