  0
SECTION
  2
HEADER
  9
$ACADVER
  1
AC1009
  9
$INSBASE
 10
0.0
 20
0.0
 30
0.0
  9
$EXTMIN
 10
0.0
 20
-2.960436562073669
 30
0.0
  9
$EXTMAX
 10
147.7442810243794
 20
113.4012206901146
 30
0.0
  9
$LIMMIN
 10
0.0
 20
0.0
  9
$LIMMAX
 10
187.5
 20
135.0
  9
$ORTHOMODE
 70
     1
  9
$REGENMODE
 70
     1
  9
$FILLMODE
 70
     1
  9
$QTEXTMODE
 70
     0
  9
$MIRRTEXT
 70
     0
  9
$DRAGMODE
 70
     2
  9
$LTSCALE
 40
5.0
  9
$OSMODE
 70
    55
  9
$ATTMODE
 70
     1
  9
$TEXTSIZE
 40
2.5000000000000488
  9
$TRACEWID
 40
0.05
  9
$TEXTSTYLE
  7
07500
  9
$CLAYER
  8
0
  9
$CELTYPE
  6
BYLAYER
  9
$CECOLOR
 62
   256
  9
$DIMSCALE
 40
0.5
  9
$DIMASZ
 40
3.0
  9
$DIMEXO
 40
2.0
  9
$DIMDLI
 40
0.3799999999999999
  9
$DIMRND
 40
0.0
  9
$DIMDLE
 40
0.0
  9
$DIMEXE
 40
2.0
  9
$DIMTP
 40
0.0
  9
$DIMTM
 40
0.0
  9
$DIMTXT
 40
3.2000000000000002
  9
$DIMCEN
 40
0.09
  9
$DIMTSZ
 40
0.0
  9
$DIMTOL
 70
     0
  9
$DIMLIM
 70
     0
  9
$DIMTIH
 70
     0
  9
$DIMTOH
 70
     0
  9
$DIMSE1
 70
     0
  9
$DIMSE2
 70
     0
  9
$DIMTAD
 70
     1
  9
$DIMZIN
 70
     0
  9
$DIMBLK
  1

  9
$DIMASO
 70
     0
  9
$DIMSHO
 70
     0
  9
$DIMPOST
  1

  9
$DIMAPOST
  1

  9
$DIMALT
 70
     0
  9
$DIMALTD
 70
     2
  9
$DIMALTF
 40
25.399999999999999
  9
$DIMLFAC
 40
1.0
  9
$DIMTOFL
 70
     0
  9
$DIMTVP
 40
1.6000000000000001
  9
$DIMTIX
 70
     1
  9
$DIMSOXD
 70
     0
  9
$DIMSAH
 70
     0
  9
$DIMBLK1
  1

  9
$DIMBLK2
  1

  9
$DIMSTYLE
  2
STANDARD
  9
$DIMCLRD
 70
     0
  9
$DIMCLRE
 70
     0
  9
$DIMCLRT
 70
     0
  9
$DIMTFAC
 40
1.0
  9
$DIMGAP
 40
0.09
  9
$LUNITS
 70
     2
  9
$LUPREC
 70
     4
  9
$SKETCHINC
 40
0.1
  9
$FILLETRAD
 40
0.5
  9
$AUNITS
 70
     0
  9
$AUPREC
 70
     0
  9
$MENU
  1
E:\r13\win\SUPPORT\ACAD
  9
$ELEVATION
 40
0.0
  9
$PELEVATION
 40
0.0
  9
$THICKNESS
 40
0.0
  9
$LIMCHECK
 70
     0
  9
$BLIPMODE
 70
     0
  9
$CHAMFERA
 40
0.0
  9
$CHAMFERB
 40
0.0
  9
$SKPOLY
 70
     0
  9
$TDCREATE
 40
2449840.6283796299
  9
$TDUPDATE
 40
2456598.63924221
  9
$TDINDWG
 40
0.0014883449
  9
$TDUSRTIMER
 40
0.0014883449
  9
$USRTIMER
 70
     1
  9
$ANGBASE
 50
0.0
  9
$ANGDIR
 70
     0
  9
$PDMODE
 70
     0
  9
$PDSIZE
 40
0.0
  9
$PLINEWID
 40
0.0
  9
$COORDS
 70
     1
  9
$SPLFRAME
 70
     0
  9
$SPLINETYPE
 70
     6
  9
$SPLINESEGS
 70
     8
  9
$ATTDIA
 70
     0
  9
$ATTREQ
 70
     1
  9
$HANDLING
 70
     1
  9
$HANDSEED
  5
242
  9
$SURFTAB1
 70
     6
  9
$SURFTAB2
 70
     6
  9
$SURFTYPE
 70
     6
  9
$SURFU
 70
     6
  9
$SURFV
 70
     6
  9
$UCSNAME
  2

  9
$UCSORG
 10
0.0
 20
0.0
 30
0.0
  9
$UCSXDIR
 10
1.0
 20
0.0
 30
0.0
  9
$UCSYDIR
 10
0.0
 20
1.0
 30
0.0
  9
$PUCSNAME
  2

  9
$PUCSORG
 10
0.0
 20
0.0
 30
0.0
  9
$PUCSXDIR
 10
1.0
 20
0.0
 30
0.0
  9
$PUCSYDIR
 10
0.0
 20
1.0
 30
0.0
  9
$USERI1
 70
     0
  9
$USERI2
 70
     1
  9
$USERI3
 70
     0
  9
$USERI4
 70
     0
  9
$USERI5
 70
     0
  9
$USERR1
 40
0.0
  9
$USERR2
 40
0.0
  9
$USERR3
 40
0.0
  9
$USERR4
 40
0.0
  9
$USERR5
 40
0.0
  9
$WORLDVIEW
 70
     1
  9
$SHADEDGE
 70
     3
  9
$SHADEDIF
 70
    70
  9
$TILEMODE
 70
     1
  9
$MAXACTVP
 70
    16
  9
$PLIMCHECK
 70
     0
  9
$PEXTMIN
 10
1.0000000000000000E+020
 20
1.0000000000000000E+020
 30
1.0000000000000000E+020
  9
$PEXTMAX
 10
-1.0000000000000000E+020
 20
-1.0000000000000000E+020
 30
-1.0000000000000000E+020
  9
$PLIMMIN
 10
0.0
 20
0.0
  9
$PLIMMAX
 10
12.0
 20
9.0
  9
$UNITMODE
 70
     0
  9
$VISRETAIN
 70
     0
  9
$PLINEGEN
 70
     0
  9
$PSLTSCALE
 70
     0
  0
ENDSEC
  0
SECTION
  2
TABLES
  0
TABLE
  2
VPORT
 70
     1
  0
VPORT
  2
*ACTIVE
 70
     0
 10
0.0
 20
0.0
 11
1.0
 21
1.0
 12
93.74713919532617
 22
86.941769983850563
 13
0.0
 23
0.0
 14
5.0
 24
5.0
 15
5.0
 25
5.0
 16
0.0
 26
0.0
 36
1.0
 17
0.0
 27
0.0
 37
0.0
 40
181.41026326986619
 41
1.7807262569832401
 42
50.0
 43
0.0
 44
0.0
 50
0.0
 51
0.0
 71
     0
 72
   500
 73
     1
 74
     0
 75
     0
 76
     0
 77
     0
 78
     2
  0
ENDTAB
  0
TABLE
  2
LTYPE
 70
     3
  0
LTYPE
  2
CONTINUOUS
 70
     0
  3
Solid Line
 72
    65
 73
     0
 40
0.0
  0
LTYPE
  2
CENTER
 70
     0
  3
____ _ ____ _ ____ _ ____ _ ____ _ ____ _ ____
 72
    65
 73
     4
 40
2.0
 49
1.25
 49
-0.25
 49
0.25
 49
-0.25
  0
LTYPE
  2
PHANTOM2
 70
     0
  3
___ _ _ ___ _ _ ___ _ _ ___ _ _
 72
    65
 73
     6
 40
1.25
 49
0.625
 49
-0.125
 49
0.125
 49
-0.125
 49
0.125
 49
-0.125
  0
ENDTAB
  0
TABLE
  2
LAYER
 70
     2
  0
LAYER
  2
0
 70
     0
 62
     7
  6
CONTINUOUS
  0
LAYER
  2
1
 70
     0
 62
     1
  6
CENTER
  0
ENDTAB
  0
TABLE
  2
STYLE
 70
     3
  0
STYLE
  2
STANDARD
 70
     0
 40
0.0
 41
1.0
 50
0.0
 71
     0
 42
2.0000000000000502
  3
ROMANS
  4
BIGFONT
  0
STYLE
  2
07500
 70
     0
 40
0.0
 41
0.75
 50
0.0
 71
     0
 42
2.5000000000000488
  3
ROMANS
  4
BIGFONT
  0
STYLE
  2
STANDARD1
 70
     0
 40
0.0
 41
1.0
 50
0.0
 71
     0
 42
3.0
  3
txt
  4

  0
ENDTAB
  0
TABLE
  2
VIEW
 70
     2
  0
VIEW
  2
ALL
 70
     0
 40
135.16666666666671
 10
110.6322128851541
 20
67.416666666666671
 41
0.0
 11
0.0
 21
0.0
 31
1.0
 12
0.0
 22
0.0
 32
0.0
 42
0.0
 43
0.0
 44
0.0
 50
0.0
 71
     0
  0
VIEW
  2
1
 70
     0
 40
190.0
 10
140.0
 20
85.0
 41
280.0
 11
0.0
 21
0.0
 31
1.0
 12
0.0
 22
0.0
 32
0.0
 42
0.0
 43
0.0
 44
0.0
 50
0.0
 71
     0
  0
ENDTAB
  0
TABLE
  2
UCS
 70
     0
  0
ENDTAB
  0
TABLE
  2
APPID
 70
     3
  0
APPID
  2
ACAD
 70
     0
  0
APPID
  2
ACAD_MLEADERVER
 70
     0
  0
APPID
  2
ACAD_NAV_VCDISPLAY
 70
     0
  0
ENDTAB
  0
TABLE
  2
DIMSTYLE
 70
     1
  0
DIMSTYLE
  2
STANDARD
 70
     0
  3

  4

  5

  6

  7

 40
1.0
 41
0.18
 42
0.0625
 43
0.38
 44
0.18
 45
0.0
 46
0.0
 47
0.0
 48
0.0
140
0.18
141
0.09
142
0.0
143
25.399999999999999
144
1.0
145
0.0
146
1.0
147
0.09
 71
     0
 72
     0
 73
     1
 74
     1
 75
     0
 76
     0
 77
     0
 78
     0
170
     0
171
     2
172
     0
173
     0
174
     0
175
     0
176
     0
177
     0
178
     0
  0
ENDTAB
  0
ENDSEC
  0
SECTION
  2
BLOCKS
  0
BLOCK
  8
0
  2
$MODEL_SPACE
 70
     0
 10
0.0
 20
0.0
 30
0.0
  3
$MODEL_SPACE
  1

  0
ENDBLK
  5
B9
  8
0
  0
BLOCK
 67
     1
  8
0
  2
$PAPER_SPACE
 70
     0
 10
0.0
 20
0.0
 30
0.0
  3
$PAPER_SPACE
  1

  0
ENDBLK
  5
B7
 67
     1
  8
0
  0
ENDSEC
  0
SECTION
  2
ENTITIES
  0
LINE
  5
34
  8
0
 10
98.136743494016059
 20
65.048777644551038
 30
0.0
 11
98.136743494016059
 21
79.048777644551024
 31
0.0
  0
LINE
  5
35
  8
0
 10
85.136743494016017
 20
79.048777644551024
 30
0.0
 11
85.136743494016017
 21
65.048777644551024
 31
0.0
  0
LINE
  5
36
  8
0
 10
97.636743494016059
 20
79.548777644551024
 30
0.0
 11
85.636743494016031
 21
79.548777644551024
 31
0.0
  0
LINE
  5
37
  8
0
 10
85.636743494016031
 20
64.548777644551038
 30
0.0
 11
97.636743494016059
 21
64.548777644551038
 31
0.0
  0
CIRCLE
  5
38
  8
0
 10
137.7442810243794
 20
72.048777644551024
 30
0.0
 40
7.4999999999999778
  0
LINE
  5
39
  8
1
 10
147.7442810243794
 20
72.048777644551024
 30
0.0
 11
127.7442810243795
 21
72.048777644551024
 31
0.0
  0
LINE
  5
3A
  8
1
 10
137.7442810243794
 20
82.048777644550995
 30
0.0
 11
137.7442810243794
 21
62.048777644551052
 31
0.0
  0
CIRCLE
  5
3B
  8
0
 10
137.7442810243794
 20
72.048777644551024
 30
0.0
 40
5.0
  0
CIRCLE
  5
3C
  8
0
 10
137.7442810243794
 20
72.048777644551024
 30
0.0
 40
4.5000000000000071
  0
CIRCLE
  5
3D
  8
0
 10
137.7442810243794
 20
72.048777644551024
 30
0.0
 40
2.4000000000000119
  0
CIRCLE
  5
3E
  8
0
 10
137.7442810243794
 20
72.048777644551024
 30
0.0
 40
3.5000000000000209
  0
CIRCLE
  5
3F
  8
0
 10
137.7442810243794
 20
72.048777644551024
 30
0.0
 40
2.9000000000000119
  0
LINE
  5
40
  8
0
 10
82.136743494016002
 20
79.048777644550995
 30
0.0
 11
82.136743494016002
 21
65.048777644551052
 31
0.0
  0
LINE
  5
41
  8
0
 10
84.636743494016031
 20
79.548777644551024
 30
0.0
 11
82.636743494016002
 21
79.548777644550995
 31
0.0
  0
LINE
  5
42
  8
0
 10
84.636743494016031
 20
64.548777644551024
 30
0.0
 11
82.636743494016002
 21
64.548777644551038
 31
0.0
  0
LINE
  5
43
  8
1
 10
100.636743494016
 20
72.048777644551024
 30
0.0
 11
79.636743494016002
 21
72.048777644551024
 31
0.0
  0
CIRCLE
  5
44
  8
0
 10
137.7442810243794
 20
72.048777644551024
 30
0.0
 40
6.9999999999999778
  0
LINE
  5
45
  8
0
 10
82.636743494016002
 20
79.548777644550995
 30
0.0
 11
82.136743494016002
 21
79.048777644550995
 31
0.0
  0
LINE
  5
46
  8
0
 10
84.636743494016031
 20
79.548777644551024
 30
0.0
 11
85.136743494016017
 21
79.048777644551024
 31
0.0
  0
LINE
  5
47
  8
0
 10
85.136743494016017
 20
79.048777644551024
 30
0.0
 11
85.636743494016031
 21
79.548777644551024
 31
0.0
  0
LINE
  5
48
  8
0
 10
97.636743494016059
 20
79.548777644551024
 30
0.0
 11
98.136743494016059
 21
79.048777644551024
 31
0.0
  0
LINE
  5
49
  8
0
 10
97.636743494016059
 20
64.548777644551038
 30
0.0
 11
98.136743494016059
 21
65.048777644551038
 31
0.0
  0
LINE
  5
4A
  8
0
 10
85.636743494016031
 20
64.548777644551038
 30
0.0
 11
85.136743494016017
 21
65.048777644551038
 31
0.0
  0
LINE
  5
4B
  8
0
 10
84.636743494016031
 20
64.548777644551024
 30
0.0
 11
85.136743494016017
 21
65.048777644551024
 31
0.0
  0
LINE
  5
4C
  8
0
 10
82.636743494016002
 20
64.548777644551038
 30
0.0
 11
82.136743494016002
 21
65.048777644551052
 31
0.0
  0
CIRCLE
  5
56
  8
0
 10
43.231160622705978
 20
72.048777644551024
 30
0.0
 40
6.9999999999999778
  0
CIRCLE
  5
57
  8
0
 10
43.231160622705978
 20
72.048777644551024
 30
0.0
 40
2.9000000000000119
  0
CIRCLE
  5
58
  8
0
 10
43.231160622705978
 20
72.048777644551024
 30
0.0
 40
2.4000000000000119
  0
LINE
  5
59
  8
1
 10
43.231160622705978
 20
82.048777644550995
 30
0.0
 11
43.231160622705978
 21
62.048777644551052
 31
0.0
  0
LINE
  5
5A
  8
1
 10
53.23116062270595
 20
72.048777644551024
 30
0.0
 11
33.231160622706007
 21
72.048777644551024
 31
0.0
  0
CIRCLE
  5
5B
  8
0
 10
43.231160622705978
 20
72.048777644551024
 30
0.0
 40
7.4999999999999778
  0
LINE
  5
5C
  8
0
 10
97.636743494016059
 20
79.548777644551024
 30
0.0
 11
97.636743494016059
 21
64.548777644551038
 31
0.0
  0
LINE
  5
5D
  8
0
 10
85.636743494016031
 20
79.548777644551024
 30
0.0
 11
85.636743494016031
 21
64.548777644551038
 31
0.0
  0
LINE
  5
5E
  8
0
 10
84.636743494016031
 20
79.548777644551024
 30
0.0
 11
84.636743494015931
 21
64.548777644551024
 31
0.0
  0
LINE
  5
5F
  8
0
 10
82.636743494016002
 20
79.548777644550995
 30
0.0
 11
82.636743494015903
 21
64.548777644551038
 31
0.0
  0
LINE
  5
60
  8
0
 10
82.636743494016002
 20
113.4012206901145
 30
0.0
 11
82.636743494015903
 21
98.401220690114599
 31
0.0
  0
LINE
  5
61
  8
0
 10
84.636743494016031
 20
113.4012206901146
 30
0.0
 11
84.636743494015931
 21
98.401220690114584
 31
0.0
  0
LINE
  5
62
  8
0
 10
85.636743494016031
 20
113.4012206901146
 30
0.0
 11
85.636743494016031
 21
98.401220690114599
 31
0.0
  0
LINE
  5
63
  8
0
 10
97.636743494016059
 20
113.4012206901146
 30
0.0
 11
97.636743494016059
 21
98.401220690114599
 31
0.0
  0
LINE
  5
64
  8
0
 10
82.636743494016002
 20
98.401220690114599
 30
0.0
 11
82.136743494016002
 21
98.901220690114613
 31
0.0
  0
LINE
  5
65
  8
0
 10
84.636743494016031
 20
98.401220690114584
 30
0.0
 11
85.136743494016017
 21
98.901220690114584
 31
0.0
  0
LINE
  5
66
  8
0
 10
85.636743494016031
 20
98.401220690114599
 30
0.0
 11
85.136743494016017
 21
98.901220690114613
 31
0.0
  0
LINE
  5
67
  8
0
 10
97.636743494016059
 20
98.401220690114599
 30
0.0
 11
98.136743494016059
 21
98.901220690114613
 31
0.0
  0
LINE
  5
68
  8
0
 10
97.636743494016059
 20
113.4012206901146
 30
0.0
 11
98.136743494016059
 21
112.9012206901146
 31
0.0
  0
LINE
  5
69
  8
0
 10
85.136743494016017
 20
112.9012206901146
 30
0.0
 11
85.636743494016031
 21
113.4012206901146
 31
0.0
  0
LINE
  5
6A
  8
0
 10
84.636743494016031
 20
113.4012206901146
 30
0.0
 11
85.136743494016017
 21
112.9012206901146
 31
0.0
  0
LINE
  5
6B
  8
0
 10
82.636743494016002
 20
113.4012206901145
 30
0.0
 11
82.136743494016002
 21
112.9012206901145
 31
0.0
  0
LINE
  5
6C
  8
1
 10
100.636743494016
 20
105.9012206901146
 30
0.0
 11
79.636743494016002
 21
105.9012206901146
 31
0.0
  0
LINE
  5
6D
  8
0
 10
84.636743494016031
 20
98.401220690114584
 30
0.0
 11
82.636743494016002
 21
98.401220690114599
 31
0.0
  0
LINE
  5
6E
  8
0
 10
84.636743494016031
 20
113.4012206901146
 30
0.0
 11
82.636743494016002
 21
113.4012206901145
 31
0.0
  0
LINE
  5
6F
  8
0
 10
82.136743494016002
 20
112.9012206901145
 30
0.0
 11
82.136743494016002
 21
98.901220690114613
 31
0.0
  0
LINE
  5
70
  8
0
 10
85.636743494016031
 20
98.401220690114599
 30
0.0
 11
97.636743494016059
 21
98.401220690114599
 31
0.0
  0
LINE
  5
71
  8
0
 10
97.636743494016059
 20
113.4012206901146
 30
0.0
 11
85.636743494016031
 21
113.4012206901146
 31
0.0
  0
LINE
  5
72
  8
0
 10
85.136743494016017
 20
112.9012206901146
 30
0.0
 11
85.136743494016017
 21
98.901220690114584
 31
0.0
  0
LINE
  5
73
  8
0
 10
98.136743494016059
 20
98.901220690114613
 30
0.0
 11
98.136743494016059
 21
112.9012206901146
 31
0.0
  0
LINE
  5
74
  8
0
 10
98.136743494016059
 20
45.196334598987441
 30
0.0
 11
98.136743494016059
 21
31.196334598987459
 31
0.0
  0
LINE
  5
75
  8
0
 10
85.136743494016017
 20
31.196334598987459
 30
0.0
 11
85.136743494016017
 21
45.196334598987463
 31
0.0
  0
LINE
  5
76
  8
0
 10
97.636743494016059
 20
30.696334598987459
 30
0.0
 11
85.636743494016031
 21
30.696334598987459
 31
0.0
  0
LINE
  5
77
  8
0
 10
85.636743494016031
 20
45.696334598987448
 30
0.0
 11
97.636743494016059
 21
45.696334598987448
 31
0.0
  0
LINE
  5
78
  8
0
 10
82.136743494016002
 20
31.196334598987491
 30
0.0
 11
82.136743494016002
 21
45.196334598987427
 31
0.0
  0
LINE
  5
79
  8
0
 10
84.636743494016031
 20
30.696334598987459
 30
0.0
 11
82.636743494016002
 21
30.696334598987491
 31
0.0
  0
LINE
  5
7A
  8
0
 10
84.636743494016031
 20
45.696334598987463
 30
0.0
 11
82.636743494016002
 21
45.696334598987448
 31
0.0
  0
LINE
  5
7B
  8
1
 10
100.636743494016
 20
38.196334598987463
 30
0.0
 11
79.636743494016002
 21
38.196334598987463
 31
0.0
  0
LINE
  5
7C
  8
0
 10
82.636743494016002
 20
30.696334598987491
 30
0.0
 11
82.136743494016002
 21
31.196334598987491
 31
0.0
  0
LINE
  5
7D
  8
0
 10
84.636743494016031
 20
30.696334598987459
 30
0.0
 11
85.136743494016017
 21
31.196334598987459
 31
0.0
  0
LINE
  5
7E
  8
0
 10
85.136743494016017
 20
31.196334598987459
 30
0.0
 11
85.636743494016031
 21
30.696334598987459
 31
0.0
  0
LINE
  5
7F
  8
0
 10
97.636743494016059
 20
30.696334598987459
 30
0.0
 11
98.136743494016059
 21
31.196334598987459
 31
0.0
  0
LINE
  5
80
  8
0
 10
97.636743494016059
 20
45.696334598987448
 30
0.0
 11
98.136743494016059
 21
45.196334598987441
 31
0.0
  0
LINE
  5
81
  8
0
 10
85.636743494016031
 20
45.696334598987448
 30
0.0
 11
85.136743494016017
 21
45.196334598987441
 31
0.0
  0
LINE
  5
82
  8
0
 10
84.636743494016031
 20
45.696334598987463
 30
0.0
 11
85.136743494016017
 21
45.196334598987463
 31
0.0
  0
LINE
  5
83
  8
0
 10
82.636743494016002
 20
45.696334598987448
 30
0.0
 11
82.136743494016002
 21
45.196334598987427
 31
0.0
  0
LINE
  5
84
  8
0
 10
97.636743494016059
 20
30.696334598987459
 30
0.0
 11
97.636743494016059
 21
45.696334598987448
 31
0.0
  0
LINE
  5
85
  8
0
 10
85.636743494016031
 20
30.696334598987459
 30
0.0
 11
85.636743494016031
 21
45.696334598987448
 31
0.0
  0
LINE
  5
86
  8
0
 10
84.636743494016031
 20
30.696334598987459
 30
0.0
 11
84.636743494015931
 21
45.696334598987463
 31
0.0
  0
LINE
  5
87
  8
0
 10
82.636743494016002
 20
30.696334598987491
 30
0.0
 11
82.636743494015903
 21
45.696334598987448
 31
0.0
  0
TEXT
  5
1AF
  8
0
 62
     3
 10
0.0
 20
0.0
 30
0.0
 40
10.0
  1
FD15X3
  7
STANDARD1
  0
ENDSEC
  0
EOF
