  0
SECTION
  2
HEADER
  9
$ACADVER
  1
AC1009
  9
$INSBASE
 10
0.0
 20
0.0
 30
0.0
  9
$EXTMIN
 10
0.0
 20
-1.4802182810368341
 30
0.0
  9
$EXTMAX
 10
33.053415363680919
 20
15.44865282375809
 30
0.0
  9
$LIMMIN
 10
0.0
 20
0.0
  9
$LIMMAX
 10
187.5
 20
135.0
  9
$ORTHOMODE
 70
     1
  9
$REGENMODE
 70
     1
  9
$FILLMODE
 70
     1
  9
$QTEXTMODE
 70
     0
  9
$MIRRTEXT
 70
     0
  9
$DRAGMODE
 70
     2
  9
$LTSCALE
 40
2.0
  9
$OSMODE
 70
    37
  9
$ATTMODE
 70
     1
  9
$TEXTSIZE
 40
4.0
  9
$TRACEWID
 40
0.05
  9
$TEXTSTYLE
  7
STANDARD
  9
$CLAYER
  8
0
  9
$CELTYPE
  6
BYLAYER
  9
$CECOLOR
 62
   256
  9
$DIMSCALE
 40
0.5
  9
$DIMASZ
 40
3.0
  9
$DIMEXO
 40
2.0
  9
$DIMDLI
 40
0.38
  9
$DIMRND
 40
0.0
  9
$DIMDLE
 40
0.0
  9
$DIMEXE
 40
2.0
  9
$DIMTP
 40
0.0
  9
$DIMTM
 40
0.0
  9
$DIMTXT
 40
3.0
  9
$DIMCEN
 40
0.0
  9
$DIMTSZ
 40
0.0
  9
$DIMTOL
 70
     0
  9
$DIMLIM
 70
     0
  9
$DIMTIH
 70
     0
  9
$DIMTOH
 70
     0
  9
$DIMSE1
 70
     0
  9
$DIMSE2
 70
     0
  9
$DIMTAD
 70
     1
  9
$DIMZIN
 70
     0
  9
$DIMBLK
  1

  9
$DIMASO
 70
     0
  9
$DIMSHO
 70
     0
  9
$DIMPOST
  1

  9
$DIMAPOST
  1

  9
$DIMALT
 70
     0
  9
$DIMALTD
 70
     2
  9
$DIMALTF
 40
25.399999999999999
  9
$DIMLFAC
 40
1.0
  9
$DIMTOFL
 70
     0
  9
$DIMTVP
 40
1.6000000000000001
  9
$DIMTIX
 70
     1
  9
$DIMSOXD
 70
     0
  9
$DIMSAH
 70
     0
  9
$DIMBLK1
  1

  9
$DIMBLK2
  1

  9
$DIMSTYLE
  2
STANDARD
  9
$DIMCLRD
 70
     0
  9
$DIMCLRE
 70
     0
  9
$DIMCLRT
 70
     0
  9
$DIMTFAC
 40
1.0
  9
$DIMGAP
 40
0.09
  9
$LUNITS
 70
     2
  9
$LUPREC
 70
     4
  9
$SKETCHINC
 40
0.1
  9
$FILLETRAD
 40
1.0
  9
$AUNITS
 70
     0
  9
$AUPREC
 70
     0
  9
$MENU
  1
E:\r13\win\SUPPORT\ACAD
  9
$ELEVATION
 40
0.0
  9
$PELEVATION
 40
0.0
  9
$THICKNESS
 40
0.0
  9
$LIMCHECK
 70
     0
  9
$BLIPMODE
 70
     0
  9
$CHAMFERA
 40
0.0
  9
$CHAMFERB
 40
0.0
  9
$SKPOLY
 70
     0
  9
$TDCREATE
 40
2449840.6143865739
  9
$TDUPDATE
 40
2457172.4988972922
  9
$TDINDWG
 40
0.2594138773
  9
$TDUSRTIMER
 40
0.2594138773
  9
$USRTIMER
 70
     1
  9
$ANGBASE
 50
0.0
  9
$ANGDIR
 70
     0
  9
$PDMODE
 70
     0
  9
$PDSIZE
 40
0.0
  9
$PLINEWID
 40
0.0
  9
$COORDS
 70
     1
  9
$SPLFRAME
 70
     0
  9
$SPLINETYPE
 70
     6
  9
$SPLINESEGS
 70
     8
  9
$ATTDIA
 70
     0
  9
$ATTREQ
 70
     1
  9
$HANDLING
 70
     1
  9
$HANDSEED
  5
1752
  9
$SURFTAB1
 70
     6
  9
$SURFTAB2
 70
     6
  9
$SURFTYPE
 70
     6
  9
$SURFU
 70
     6
  9
$SURFV
 70
     6
  9
$UCSNAME
  2

  9
$UCSORG
 10
0.0
 20
0.0
 30
0.0
  9
$UCSXDIR
 10
1.0
 20
0.0
 30
0.0
  9
$UCSYDIR
 10
0.0
 20
1.0
 30
0.0
  9
$PUCSNAME
  2

  9
$PUCSORG
 10
0.0
 20
0.0
 30
0.0
  9
$PUCSXDIR
 10
1.0
 20
0.0
 30
0.0
  9
$PUCSYDIR
 10
0.0
 20
1.0
 30
0.0
  9
$USERI1
 70
     0
  9
$USERI2
 70
     1
  9
$USERI3
 70
     1
  9
$USERI4
 70
     0
  9
$USERI5
 70
     0
  9
$USERR1
 40
0.0
  9
$USERR2
 40
0.0
  9
$USERR3
 40
0.0
  9
$USERR4
 40
0.0
  9
$USERR5
 40
0.0
  9
$WORLDVIEW
 70
     1
  9
$SHADEDGE
 70
     3
  9
$SHADEDIF
 70
    70
  9
$TILEMODE
 70
     1
  9
$MAXACTVP
 70
    16
  9
$PLIMCHECK
 70
     0
  9
$PEXTMIN
 10
1.0000000000000000E+020
 20
1.0000000000000000E+020
 30
1.0000000000000000E+020
  9
$PEXTMAX
 10
-1.0000000000000000E+020
 20
-1.0000000000000000E+020
 30
-1.0000000000000000E+020
  9
$PLIMMIN
 10
0.0
 20
0.0
  9
$PLIMMAX
 10
12.0
 20
9.0
  9
$UNITMODE
 70
     0
  9
$VISRETAIN
 70
     0
  9
$PLINEGEN
 70
     0
  9
$PSLTSCALE
 70
     0
  0
ENDSEC
  0
SECTION
  2
TABLES
  0
TABLE
  2
VPORT
 70
     1
  0
VPORT
  2
*ACTIVE
 70
     0
 10
0.0
 20
0.0
 11
1.0
 21
1.0
 12
21.78729625917585
 22
6.9862786624204878
 13
0.0
 23
0.0
 14
5.0
 24
5.0
 15
5.0
 25
5.0
 16
0.0
 26
0.0
 36
1.0
 17
0.0
 27
0.0
 37
0.0
 40
17.089931442335221
 41
2.6019575856443709
 42
50.0
 43
0.0
 44
0.0
 50
0.0
 51
0.0
 71
     0
 72
   100
 73
     1
 74
     0
 75
     0
 76
     0
 77
     0
 78
     0
  0
ENDTAB
  0
TABLE
  2
LTYPE
 70
     4
  0
LTYPE
  2
CONTINUOUS
 70
     0
  3
Solid Line
 72
    65
 73
     0
 40
0.0
  0
LTYPE
  2
CENTER
 70
     0
  3
____ _ ____ _ ____ _ ____ _ ____ _ ____ _ ____
 72
    65
 73
     4
 40
2.0
 49
1.25
 49
-0.25
 49
0.25
 49
-0.25
  0
LTYPE
  2
HIDDEN
 70
     0
  3
_ _ _ _ _ _ _ _ _ _ _ _ _ _ _ _ _ _ _ _ _ _ _
 72
    65
 73
     2
 40
0.375
 49
0.25
 49
-0.125
  0
LTYPE
  2
PHANTOM2
 70
     0
  3
___ _ _ ___ _ _ ___ _ _ ___ _ _
 72
    65
 73
     6
 40
1.25
 49
0.625
 49
-0.125
 49
0.125
 49
-0.125
 49
0.125
 49
-0.125
  0
ENDTAB
  0
TABLE
  2
LAYER
 70
     4
  0
LAYER
  2
0
 70
     0
 62
     7
  6
CONTINUOUS
  0
LAYER
  2
1
 70
     0
 62
     1
  6
CENTER
  0
LAYER
  2
3
 70
     0
 62
     3
  6
CONTINUOUS
  0
LAYER
  2
2
 70
     0
 62
     2
  6
HIDDEN
  0
ENDTAB
  0
TABLE
  2
STYLE
 70
     2
  0
STYLE
  2
STANDARD
 70
     0
 40
0.0
 41
1.0
 50
0.0
 71
     0
 42
4.0
  3
TXT
  4
BIGFONT
  0
STYLE
  2
STANDARD1
 70
     0
 40
0.0
 41
1.0
 50
0.0
 71
     0
 42
3.0
  3
txt
  4

  0
ENDTAB
  0
TABLE
  2
VIEW
 70
     1
  0
VIEW
  2
ALL
 70
     0
 40
179.66152299999999
 10
141.903918
 20
89.830760999999995
 41
0.0
 11
0.0
 21
0.0
 31
1.0
 12
0.0
 22
0.0
 32
0.0
 42
0.0
 43
0.0
 44
0.0
 50
0.0
 71
     0
  0
ENDTAB
  0
TABLE
  2
UCS
 70
     0
  0
ENDTAB
  0
TABLE
  2
APPID
 70
     5
  0
APPID
  2
ACAD
 70
     0
  0
APPID
  2
DCO15
 70
     0
  0
APPID
  2
ACAD_MLEADERVER
 70
     0
  0
APPID
  2
ACAD_NAV_VCDISPLAY
 70
     0
  0
APPID
  2
ACAD_EXEMPT_FROM_CAD_STANDARDS
 70
     0
  0
ENDTAB
  0
TABLE
  2
DIMSTYLE
 70
     1
  0
DIMSTYLE
  2
STANDARD
 70
     0
  3

  4

  5

  6

  7

 40
1.0
 41
0.18
 42
0.0625
 43
0.38
 44
0.18
 45
0.0
 46
0.0
 47
0.0
 48
0.0
140
0.18
141
0.09
142
0.0
143
25.399999999999999
144
1.0
145
0.0
146
1.0
147
0.09
 71
     0
 72
     0
 73
     1
 74
     1
 75
     0
 76
     0
 77
     0
 78
     0
170
     0
171
     2
172
     0
173
     0
174
     0
175
     0
176
     0
177
     0
178
     0
  0
ENDTAB
  0
ENDSEC
  0
SECTION
  2
BLOCKS
  0
BLOCK
  8
0
  2
$MODEL_SPACE
 70
     0
 10
0.0
 20
0.0
 30
0.0
  3
$MODEL_SPACE
  1

  0
ENDBLK
  5
1BD
  8
0
  0
BLOCK
 67
     1
  8
0
  2
$PAPER_SPACE
 70
     0
 10
0.0
 20
0.0
 30
0.0
  3
$PAPER_SPACE
  1

  0
ENDBLK
  5
1BB
 67
     1
  8
0
  0
ENDSEC
  0
SECTION
  2
ENTITIES
  0
TEXT
  5
137E
  8
0
 62
     3
 10
0.0
 20
0.0
 30
0.0
 40
5.0
  1
DSB2.5
  7
STANDARD1
  0
LINE
  5
15A6
  8
0
 10
15.10341536368089
 20
11.89865282370803
 30
0.0
 11
16.603415363680892
 21
11.89865282370803
 31
0.0
  0
LINE
  5
15A7
  8
0
 10
16.603415363680892
 20
14.448652823708031
 30
0.0
 11
15.10341536368089
 21
14.448652823708031
 31
0.0
  0
LINE
  5
15A8
  8
0
 10
13.0655473978809
 20
11.92365282370802
 30
0.0
 11
15.10341536368089
 21
11.92365282370802
 31
0.0
  0
LINE
  5
15A9
  8
0
 10
15.10341536368089
 20
14.42365282370803
 30
0.0
 11
13.0655473978809
 21
14.42365282370802
 31
0.0
  0
LINE
  5
15AA
  8
0
 10
16.603415363680892
 20
11.92365282370802
 30
0.0
 11
18.64128332928091
 21
11.92365282370802
 31
0.0
  0
LINE
  5
15AB
  8
0
 10
18.64128332928091
 20
14.42365282370802
 30
0.0
 11
16.603415363680892
 21
14.42365282370802
 31
0.0
  0
LINE
  5
15AC
  8
0
 10
18.64128332928091
 20
11.923652823808011
 30
0.0
 11
18.853415363580901
 21
12.135784858008609
 31
0.0
  0
LINE
  5
15AD
  8
0
 10
18.853415363580901
 20
14.211520789408031
 30
0.0
 11
18.64128332928091
 21
14.42365282370802
 31
0.0
  0
LINE
  5
15AE
  8
0
 10
13.0655473978809
 20
14.42365282370802
 30
0.0
 11
12.853415363680901
 21
14.211520789508031
 31
0.0
  0
LINE
  5
15AF
  8
0
 10
12.853415363680901
 20
12.135784858008019
 30
0.0
 11
13.0655473978809
 21
11.923652823808011
 31
0.0
  0
LINE
  5
15B0
  8
0
 10
15.10341536368089
 20
11.89865282370803
 30
0.0
 11
15.10341536368089
 21
14.448652823708031
 31
0.0
  0
LINE
  5
15B1
  8
0
 10
16.603415363680892
 20
11.89865282370803
 30
0.0
 11
16.603415363680892
 21
14.448652823708031
 31
0.0
  0
LINE
  5
15B2
  8
0
 10
13.0655473978809
 20
11.92365282370802
 30
0.0
 11
13.0655473978809
 21
14.42365282370802
 31
0.0
  0
LINE
  5
15B3
  8
0
 10
18.64128332928091
 20
11.92365282370802
 30
0.0
 11
18.64128332928091
 21
14.42365282370802
 31
0.0
  0
LINE
  5
15B4
  8
0
 10
18.853415363580901
 20
12.135784858008609
 30
0.0
 11
18.853415363580901
 21
14.21152078940802
 31
0.0
  0
LINE
  5
15B5
  8
0
 10
12.853415363680901
 20
12.135784858008019
 30
0.0
 11
12.853415363680901
 21
14.211520789508031
 31
0.0
  0
CIRCLE
  5
15B6
  8
0
 10
30.77841536368085
 20
13.173652823758021
 30
0.0
 40
1.03786796563557
  0
CIRCLE
  5
15B7
  8
0
 10
30.77841536368085
 20
13.173652823758021
 30
0.0
 40
1.0000000000000571
  0
CIRCLE
  5
15B8
  8
0
 10
30.77841536368085
 20
13.173652823758021
 30
0.0
 40
1.249999999999972
  0
CIRCLE
  5
15B9
  8
0
 10
30.77841536368085
 20
13.173652823758021
 30
0.0
 40
1.2750000000000621
  0
ARC
  5
15BE
  8
0
 10
18.503415363580899
 20
13.173652823758021
 30
0.0
 40
1.0
 50
290.48731511472278
 51
69.512684885277224
  0
ARC
  5
15BF
  8
2
 10
17.853415363580911
 20
13.173652823758021
 30
0.0
 40
1.0
 50
290.48731511472278
 51
69.512684885277224
  0
ARC
  5
15C0
  8
0
 10
13.203426481280889
 20
13.173652823758021
 30
0.0
 40
1.0
 50
110.4873151147227
 51
249.5126848852772
  0
ARC
  5
15C1
  8
2
 10
13.85342648128089
 20
13.173652823758021
 30
0.0
 40
1.0
 50
110.4873151147227
 51
249.5126848852772
  0
LINE
  5
15C5
  8
1
 10
11.203426481280889
 20
13.173652823758021
 30
0.0
 11
20.50341536358091
 21
13.173652823758021
 31
0.0
  0
LINE
  5
15C6
  8
1
 10
30.77841536368085
 20
15.44865282375809
 30
0.0
 11
30.77841536368085
 21
10.89865282375796
 31
0.0
  0
LINE
  5
15C7
  8
1
 10
28.503415363680791
 20
13.173652823758021
 30
0.0
 11
33.053415363680919
 21
13.173652823758021
 31
0.0
  0
LINE
  5
15C9
  8
3
 10
15.1034209224309
 20
13.02365282375802
 30
0.0
 11
16.603420922430839
 21
13.02365282375802
 31
0.0
  0
LINE
  5
15CA
  8
3
 10
15.1034209224309
 20
12.72365282375802
 30
0.0
 11
16.603420922430839
 21
12.72365282375802
 31
0.0
  0
LINE
  5
15CB
  8
3
 10
15.1034209224309
 20
12.423652823758021
 30
0.0
 11
16.603420922430839
 21
12.423652823758021
 31
0.0
  0
LINE
  5
15CC
  8
3
 10
15.1034209224309
 20
12.123652823758031
 30
0.0
 11
16.603420922430839
 21
12.123652823758031
 31
0.0
  0
LINE
  5
15CF
  8
3
 10
15.1034209224309
 20
14.22365282375802
 30
0.0
 11
16.603420922430839
 21
14.22365282375802
 31
0.0
  0
LINE
  5
15D0
  8
3
 10
15.1034209224309
 20
13.923652823758021
 30
0.0
 11
16.603420922430839
 21
13.923652823758021
 31
0.0
  0
LINE
  5
15D1
  8
3
 10
15.1034209224309
 20
13.623652823758031
 30
0.0
 11
16.603420922430839
 21
13.623652823758031
 31
0.0
  0
LINE
  5
15D2
  8
3
 10
15.1034209224309
 20
13.32365282375803
 30
0.0
 11
16.603420922430839
 21
13.32365282375803
 31
0.0
  0
ENDSEC
  0
EOF
