  0
SECTION
  2
HEADER
  9
$ACADVER
  1
AC1009
  9
$INSBASE
 10
0.0
 20
0.0
 30
0.0
  9
$EXTMIN
 10
0.0
 20
-1.4802182810368341
 30
0.0
  9
$EXTMAX
 10
79.152882896126627
 20
46.001180454572633
 30
0.0
  9
$LIMMIN
 10
0.0
 20
0.0
  9
$LIMMAX
 10
187.5
 20
135.0
  9
$ORTHOMODE
 70
     1
  9
$REGENMODE
 70
     1
  9
$FILLMODE
 70
     1
  9
$QTEXTMODE
 70
     0
  9
$MIRRTEXT
 70
     0
  9
$DRAGMODE
 70
     2
  9
$LTSCALE
 40
2.0
  9
$OSMODE
 70
  3071
  9
$ATTMODE
 70
     1
  9
$TEXTSIZE
 40
4.0
  9
$TRACEWID
 40
0.05
  9
$TEXTSTYLE
  7
STANDARD
  9
$CLAYER
  8
0
  9
$CELTYPE
  6
BYLAYER
  9
$CECOLOR
 62
   256
  9
$DIMSCALE
 40
0.5
  9
$DIMASZ
 40
3.0
  9
$DIMEXO
 40
2.0
  9
$DIMDLI
 40
0.38
  9
$DIMRND
 40
0.0
  9
$DIMDLE
 40
0.0
  9
$DIMEXE
 40
2.0
  9
$DIMTP
 40
0.0
  9
$DIMTM
 40
0.0
  9
$DIMTXT
 40
3.0
  9
$DIMCEN
 40
0.0
  9
$DIMTSZ
 40
0.0
  9
$DIMTOL
 70
     0
  9
$DIMLIM
 70
     0
  9
$DIMTIH
 70
     0
  9
$DIMTOH
 70
     0
  9
$DIMSE1
 70
     0
  9
$DIMSE2
 70
     0
  9
$DIMTAD
 70
     1
  9
$DIMZIN
 70
     0
  9
$DIMBLK
  1

  9
$DIMASO
 70
     0
  9
$DIMSHO
 70
     0
  9
$DIMPOST
  1

  9
$DIMAPOST
  1

  9
$DIMALT
 70
     0
  9
$DIMALTD
 70
     2
  9
$DIMALTF
 40
25.399999999999999
  9
$DIMLFAC
 40
1.0
  9
$DIMTOFL
 70
     0
  9
$DIMTVP
 40
1.6000000000000001
  9
$DIMTIX
 70
     1
  9
$DIMSOXD
 70
     0
  9
$DIMSAH
 70
     0
  9
$DIMBLK1
  1

  9
$DIMBLK2
  1

  9
$DIMSTYLE
  2
STANDARD
  9
$DIMCLRD
 70
     0
  9
$DIMCLRE
 70
     0
  9
$DIMCLRT
 70
     0
  9
$DIMTFAC
 40
1.0
  9
$DIMGAP
 40
0.09
  9
$LUNITS
 70
     2
  9
$LUPREC
 70
     4
  9
$SKETCHINC
 40
0.1
  9
$FILLETRAD
 40
1.0
  9
$AUNITS
 70
     0
  9
$AUPREC
 70
     0
  9
$MENU
  1
E:\r13\win\SUPPORT\ACAD
  9
$ELEVATION
 40
0.0
  9
$PELEVATION
 40
0.0
  9
$THICKNESS
 40
0.0
  9
$LIMCHECK
 70
     0
  9
$BLIPMODE
 70
     0
  9
$CHAMFERA
 40
0.0
  9
$CHAMFERB
 40
0.0
  9
$SKPOLY
 70
     0
  9
$TDCREATE
 40
2449840.6143865739
  9
$TDUPDATE
 40
2456602.61496206
  9
$TDINDWG
 40
0.2392810995
  9
$TDUSRTIMER
 40
0.2392810995
  9
$USRTIMER
 70
     1
  9
$ANGBASE
 50
0.0
  9
$ANGDIR
 70
     0
  9
$PDMODE
 70
     0
  9
$PDSIZE
 40
0.0
  9
$PLINEWID
 40
0.0
  9
$COORDS
 70
     1
  9
$SPLFRAME
 70
     0
  9
$SPLINETYPE
 70
     6
  9
$SPLINESEGS
 70
     8
  9
$ATTDIA
 70
     0
  9
$ATTREQ
 70
     1
  9
$HANDLING
 70
     1
  9
$HANDSEED
  5
1587
  9
$SURFTAB1
 70
     6
  9
$SURFTAB2
 70
     6
  9
$SURFTYPE
 70
     6
  9
$SURFU
 70
     6
  9
$SURFV
 70
     6
  9
$UCSNAME
  2

  9
$UCSORG
 10
0.0
 20
0.0
 30
0.0
  9
$UCSXDIR
 10
1.0
 20
0.0
 30
0.0
  9
$UCSYDIR
 10
0.0
 20
1.0
 30
0.0
  9
$PUCSNAME
  2

  9
$PUCSORG
 10
0.0
 20
0.0
 30
0.0
  9
$PUCSXDIR
 10
1.0
 20
0.0
 30
0.0
  9
$PUCSYDIR
 10
0.0
 20
1.0
 30
0.0
  9
$USERI1
 70
     0
  9
$USERI2
 70
     1
  9
$USERI3
 70
     1
  9
$USERI4
 70
     0
  9
$USERI5
 70
     0
  9
$USERR1
 40
0.0
  9
$USERR2
 40
0.0
  9
$USERR3
 40
0.0
  9
$USERR4
 40
0.0
  9
$USERR5
 40
0.0
  9
$WORLDVIEW
 70
     1
  9
$SHADEDGE
 70
     3
  9
$SHADEDIF
 70
    70
  9
$TILEMODE
 70
     1
  9
$MAXACTVP
 70
    16
  9
$PLIMCHECK
 70
     0
  9
$PEXTMIN
 10
1.0000000000000000E+020
 20
1.0000000000000000E+020
 30
1.0000000000000000E+020
  9
$PEXTMAX
 10
-1.0000000000000000E+020
 20
-1.0000000000000000E+020
 30
-1.0000000000000000E+020
  9
$PLIMMIN
 10
0.0
 20
0.0
  9
$PLIMMAX
 10
12.0
 20
9.0
  9
$UNITMODE
 70
     0
  9
$VISRETAIN
 70
     0
  9
$PLINEGEN
 70
     0
  9
$PSLTSCALE
 70
     0
  0
ENDSEC
  0
SECTION
  2
TABLES
  0
TABLE
  2
VPORT
 70
     1
  0
VPORT
  2
*ACTIVE
 70
     0
 10
0.0
 20
0.0
 11
1.0
 21
1.0
 12
164.86842105263159
 22
90.0
 13
0.0
 23
0.0
 14
5.0
 24
5.0
 15
5.0
 25
5.0
 16
0.0
 26
0.0
 36
1.0
 17
0.0
 27
0.0
 37
0.0
 40
180.0
 41
1.831871345029239
 42
50.0
 43
0.0
 44
0.0
 50
0.0
 51
0.0
 71
     0
 72
   100
 73
     1
 74
     0
 75
     0
 76
     0
 77
     0
 78
     0
  0
ENDTAB
  0
TABLE
  2
LTYPE
 70
     4
  0
LTYPE
  2
CONTINUOUS
 70
     0
  3
Solid Line
 72
    65
 73
     0
 40
0.0
  0
LTYPE
  2
CENTER
 70
     0
  3
____ _ ____ _ ____ _ ____ _ ____ _ ____ _ ____
 72
    65
 73
     4
 40
2.0
 49
1.25
 49
-0.25
 49
0.25
 49
-0.25
  0
LTYPE
  2
HIDDEN
 70
     0
  3
_ _ _ _ _ _ _ _ _ _ _ _ _ _ _ _ _ _ _ _ _ _ _
 72
    65
 73
     2
 40
0.375
 49
0.25
 49
-0.125
  0
LTYPE
  2
PHANTOM2
 70
     0
  3
___ _ _ ___ _ _ ___ _ _ ___ _ _
 72
    65
 73
     6
 40
1.25
 49
0.625
 49
-0.125
 49
0.125
 49
-0.125
 49
0.125
 49
-0.125
  0
ENDTAB
  0
TABLE
  2
LAYER
 70
     4
  0
LAYER
  2
0
 70
     0
 62
     7
  6
CONTINUOUS
  0
LAYER
  2
1
 70
     0
 62
     1
  6
CENTER
  0
LAYER
  2
3
 70
     0
 62
     3
  6
CONTINUOUS
  0
LAYER
  2
2
 70
     0
 62
     2
  6
HIDDEN
  0
ENDTAB
  0
TABLE
  2
STYLE
 70
     2
  0
STYLE
  2
STANDARD
 70
     0
 40
0.0
 41
1.0
 50
0.0
 71
     0
 42
4.0
  3
TXT
  4
BIGFONT
  0
STYLE
  2
STANDARD1
 70
     0
 40
0.0
 41
1.0
 50
0.0
 71
     0
 42
3.0
  3
txt
  4

  0
ENDTAB
  0
TABLE
  2
VIEW
 70
     1
  0
VIEW
  2
ALL
 70
     0
 40
179.66152299999999
 10
141.903918
 20
89.830760999999995
 41
0.0
 11
0.0
 21
0.0
 31
1.0
 12
0.0
 22
0.0
 32
0.0
 42
0.0
 43
0.0
 44
0.0
 50
0.0
 71
     0
  0
ENDTAB
  0
TABLE
  2
UCS
 70
     0
  0
ENDTAB
  0
TABLE
  2
APPID
 70
     4
  0
APPID
  2
ACAD
 70
     0
  0
APPID
  2
DCO15
 70
     0
  0
APPID
  2
ACAD_MLEADERVER
 70
     0
  0
APPID
  2
ACAD_NAV_VCDISPLAY
 70
     0
  0
ENDTAB
  0
TABLE
  2
DIMSTYLE
 70
     1
  0
DIMSTYLE
  2
STANDARD
 70
     0
  3

  4

  5

  6

  7

 40
1.0
 41
0.18
 42
0.0625
 43
0.38
 44
0.18
 45
0.0
 46
0.0
 47
0.0
 48
0.0
140
0.18
141
0.09
142
0.0
143
25.399999999999999
144
1.0
145
0.0
146
1.0
147
0.09
 71
     0
 72
     0
 73
     1
 74
     1
 75
     0
 76
     0
 77
     0
 78
     0
170
     0
171
     2
172
     0
173
     0
174
     0
175
     0
176
     0
177
     0
178
     0
  0
ENDTAB
  0
ENDSEC
  0
SECTION
  2
BLOCKS
  0
BLOCK
  8
0
  2
$MODEL_SPACE
 70
     0
 10
0.0
 20
0.0
 30
0.0
  3
$MODEL_SPACE
  1

  0
ENDBLK
  5
1BD
  8
0
  0
BLOCK
 67
     1
  8
0
  2
$PAPER_SPACE
 70
     0
 10
0.0
 20
0.0
 30
0.0
  3
$PAPER_SPACE
  1

  0
ENDBLK
  5
1BB
 67
     1
  8
0
  0
ENDSEC
  0
SECTION
  2
ENTITIES
  0
LINE
  5
139C
  8
0
 10
27.415014930482592
 20
43.476180454572649
 30
0.0
 11
27.202882896126631
 21
43.264048420216682
 31
0.0
  0
LINE
  5
139D
  8
0
 10
27.202882896126631
 20
33.688312488928602
 30
0.0
 11
27.415014930482592
 21
33.476180454572628
 31
0.0
  0
LINE
  5
139E
  8
0
 10
36.202882896126631
 20
43.476180454572642
 30
0.0
 11
27.415014930482592
 21
43.476180454572642
 31
0.0
  0
LINE
  5
139F
  8
0
 10
27.415014930482592
 20
33.476180454572642
 30
0.0
 11
36.202882896126631
 21
33.476180454572642
 31
0.0
  0
LINE
  5
13A0
  8
0
 10
42.202882896126617
 20
43.501180454572633
 30
0.0
 11
36.202882896126631
 21
43.501180454572633
 31
0.0
  0
LINE
  5
13A1
  8
0
 10
36.202882896126631
 20
33.451180454572643
 30
0.0
 11
42.202882896126617
 21
33.451180454572643
 31
0.0
  0
LINE
  5
13A2
  8
0
 10
50.990750861770657
 20
43.476180454572649
 30
0.0
 11
42.202882896126617
 21
43.476180454572649
 31
0.0
  0
LINE
  5
13A3
  8
0
 10
42.202882896126617
 20
33.476180454572628
 30
0.0
 11
50.990750861770657
 21
33.476180454572628
 31
0.0
  0
LINE
  5
13A4
  8
0
 10
51.202882896126631
 20
43.264048420216689
 30
0.0
 11
50.990750861770657
 21
43.476180454572649
 31
0.0
  0
LINE
  5
13A5
  8
0
 10
50.990750861770657
 20
33.476180454572642
 30
0.0
 11
51.202882896126631
 21
33.688312488928602
 31
0.0
  0
ARC
  5
13A6
  8
0
 10
47.202882896131051
 20
38.476180454572642
 30
0.0
 40
4.0009999999955603
 50
358.71896085581329
 51
1.2810391441867059
  0
LINE
  5
13A7
  8
0
 10
27.202882896126631
 20
33.688312488928602
 30
0.0
 11
27.202882896126631
 21
43.264048420216682
 31
0.0
  0
LINE
  5
13A8
  8
0
 10
27.415014930482592
 20
33.476180454572628
 30
0.0
 11
27.415014930482592
 21
43.476180454572649
 31
0.0
  0
LINE
  5
13A9
  8
0
 10
36.202882896126631
 20
33.451180454572643
 30
0.0
 11
36.202882896126631
 21
43.501180454572633
 31
0.0
  0
LINE
  5
13AA
  8
0
 10
42.202882896126617
 20
33.451180454572643
 30
0.0
 11
42.202882896126617
 21
43.501180454572633
 31
0.0
  0
LINE
  5
13AB
  8
0
 10
50.990750861770657
 20
33.476180454572628
 30
0.0
 11
50.990750861770657
 21
43.476180454572649
 31
0.0
  0
LINE
  5
13AC
  8
0
 10
51.202882896126631
 20
33.688312488928602
 30
0.0
 11
51.202882896126631
 21
43.264048420216682
 31
0.0
  0
LINE
  5
13D4
  8
1
 10
21.802882896126619
 20
38.476180454572642
 30
0.0
 11
56.60288289612663
 21
38.476180454572642
 31
0.0
  0
ARC
  5
13D5
  8
0
 10
28.302882896126619
 20
38.476180454572642
 30
0.0
 40
4.0
 50
105.9620141628471
 51
254.03798583715289
  0
ARC
  5
13D6
  8
0
 10
50.10288289612663
 20
38.476180454572642
 30
0.0
 40
4.0
 50
285.9620141628472
 51
74.037985837152846
  0
LINE
  5
13D7
  8
3
 10
36.202882896126653
 20
38.676180454572652
 30
0.0
 11
42.202882896126617
 21
38.676180454572638
 31
0.0
  0
LINE
  5
13D8
  8
3
 10
36.202882896126653
 20
39.076180454572643
 30
0.0
 11
42.202882896126617
 21
39.076180454572643
 31
0.0
  0
LINE
  5
13D9
  8
3
 10
36.202882896126653
 20
39.476180454572642
 30
0.0
 11
42.202882896126617
 21
39.476180454572642
 31
0.0
  0
LINE
  5
13DA
  8
3
 10
36.202882896126653
 20
39.876180454572641
 30
0.0
 11
42.202882896126617
 21
39.876180454572641
 31
0.0
  0
LINE
  5
13DB
  8
3
 10
36.202882896126653
 20
40.276180454572639
 30
0.0
 11
42.202882896126617
 21
40.276180454572632
 31
0.0
  0
LINE
  5
13DC
  8
3
 10
36.202882896126653
 20
40.676180454572638
 30
0.0
 11
42.202882896126617
 21
40.676180454572631
 31
0.0
  0
LINE
  5
13DD
  8
3
 10
36.202882896126653
 20
41.076180454572643
 30
0.0
 11
42.202882896126617
 21
41.076180454572629
 31
0.0
  0
LINE
  5
13DE
  8
3
 10
36.202882896126653
 20
41.476180454572628
 30
0.0
 11
42.202882896126617
 21
41.476180454572628
 31
0.0
  0
LINE
  5
13DF
  8
3
 10
36.202882896126653
 20
41.876180454572633
 30
0.0
 11
42.202882896126617
 21
41.876180454572619
 31
0.0
  0
LINE
  5
13E0
  8
3
 10
36.202882896126653
 20
42.276180454572632
 30
0.0
 11
42.202882896126617
 21
42.276180454572618
 31
0.0
  0
LINE
  5
13E1
  8
3
 10
36.202882896126653
 20
42.676180454572631
 30
0.0
 11
42.202882896126617
 21
42.676180454572624
 31
0.0
  0
LINE
  5
13E2
  8
3
 10
36.202882896126653
 20
43.076180454572629
 30
0.0
 11
42.202882896126617
 21
43.076180454572622
 31
0.0
  0
LINE
  5
13E3
  8
3
 10
36.202882896126653
 20
33.876180454572662
 30
0.0
 11
42.202882896126617
 21
33.876180454572662
 31
0.0
  0
LINE
  5
13E4
  8
3
 10
36.202882896126653
 20
34.276180454572653
 30
0.0
 11
42.202882896126617
 21
34.27618045457266
 31
0.0
  0
LINE
  5
13E5
  8
3
 10
36.202882896126653
 20
34.676180454572652
 30
0.0
 11
42.202882896126617
 21
34.676180454572659
 31
0.0
  0
LINE
  5
13E6
  8
3
 10
36.202882896126653
 20
35.076180454572651
 30
0.0
 11
42.202882896126617
 21
35.076180454572658
 31
0.0
  0
LINE
  5
13E7
  8
3
 10
36.202882896126653
 20
35.476180454572649
 30
0.0
 11
42.202882896126617
 21
35.476180454572663
 31
0.0
  0
LINE
  5
13E8
  8
3
 10
36.202882896126653
 20
35.876180454572648
 30
0.0
 11
42.202882896126617
 21
35.876180454572648
 31
0.0
  0
LINE
  5
13E9
  8
3
 10
36.202882896126653
 20
36.276180454572653
 30
0.0
 11
42.202882896126617
 21
36.276180454572653
 31
0.0
  0
LINE
  5
13EA
  8
3
 10
36.202882896126653
 20
36.676180454572652
 30
0.0
 11
42.202882896126617
 21
36.676180454572652
 31
0.0
  0
LINE
  5
13EB
  8
3
 10
36.202882896126653
 20
37.076180454572651
 30
0.0
 11
42.202882896126617
 21
37.076180454572651
 31
0.0
  0
LINE
  5
13EC
  8
3
 10
36.202882896126653
 20
37.476180454572642
 30
0.0
 11
42.202882896126617
 21
37.476180454572649
 31
0.0
  0
LINE
  5
13ED
  8
3
 10
36.202882896126653
 20
37.876180454572641
 30
0.0
 11
42.202882896126617
 21
37.876180454572648
 31
0.0
  0
LINE
  5
13EE
  8
3
 10
36.202882896126653
 20
38.276180454572639
 30
0.0
 11
42.202882896126617
 21
38.276180454572653
 31
0.0
  0
ARC
  5
13EF
  8
2
 10
31.202882896126631
 20
38.476180454572642
 30
0.0
 40
4.0
 50
105.9620141628471
 51
254.03798583715289
  0
ARC
  5
13F0
  8
2
 10
47.202882896126653
 20
38.476180454572642
 30
0.0
 40
4.0
 50
285.9620141628472
 51
74.037985837152846
  0
LINE
  5
13FD
  8
1
 10
56.60288289612663
 20
38.476180454572642
 30
0.0
 11
21.802882896126619
 21
38.476180454572642
 31
0.0
  0
LINE
  5
13FE
  8
1
 10
71.627882896126636
 20
30.95118045457264
 30
0.0
 11
71.627882896126636
 21
46.001180454572633
 31
0.0
  0
LINE
  5
13FF
  8
1
 10
79.152882896126627
 20
38.476180454572642
 30
0.0
 11
64.10288289612663
 21
38.476180454572642
 31
0.0
  0
CIRCLE
  5
1400
  8
0
 10
71.627882896126636
 20
38.476180454572642
 30
0.0
 40
4.0
  0
CIRCLE
  5
1401
  8
0
 10
71.627882896126636
 20
38.476180454572642
 30
0.0
 40
4.7878679656440424
  0
CIRCLE
  5
1402
  8
0
 10
71.627882896126636
 20
38.476180454572642
 30
0.0
 40
5.0000000000000062
  0
CIRCLE
  5
1403
  8
0
 10
71.627882896126636
 20
38.476180454572642
 30
0.0
 40
5.0250000000000004
  0
TEXT
  5
14B7
  8
0
 62
     3
 10
0.0
 20
0.0
 30
0.0
 40
5.0
  1
DSB10
  7
STANDARD1
  0
ENDSEC
  0
EOF
