  0
SECTION
  2
HEADER
  9
$ACADVER
  1
AC1009
  9
$INSBASE
 10
0.0
 20
0.0
 30
0.0
  9
$EXTMIN
 10
0.0
 20
-2.960436562073669
 30
0.0
  9
$EXTMAX
 10
135.9097609892859
 20
81.066646620746383
 30
0.0
  9
$LIMMIN
 10
0.0
 20
0.0
  9
$LIMMAX
 10
390.0
 20
270.0
  9
$ORTHOMODE
 70
     1
  9
$REGENMODE
 70
     1
  9
$FILLMODE
 70
     1
  9
$QTEXTMODE
 70
     0
  9
$MIRRTEXT
 70
     1
  9
$DRAGMODE
 70
     2
  9
$LTSCALE
 40
5.0
  9
$OSMODE
 70
  3071
  9
$ATTMODE
 70
     1
  9
$TEXTSIZE
 40
2.5
  9
$TRACEWID
 40
1.0
  9
$TEXTSTYLE
  7
STANDARD
  9
$CLAYER
  8
4
  9
$CELTYPE
  6
BYLAYER
  9
$CECOLOR
 62
   256
  9
$DIMSCALE
 40
1.1999999999999991
  9
$DIMASZ
 40
3.0
  9
$DIMEXO
 40
1.0
  9
$DIMDLI
 40
6.0
  9
$DIMRND
 40
0.0
  9
$DIMDLE
 40
0.0
  9
$DIMEXE
 40
1.0
  9
$DIMTP
 40
495.0
  9
$DIMTM
 40
0.0
  9
$DIMTXT
 40
3.2000000000000002
  9
$DIMCEN
 40
0.0
  9
$DIMTSZ
 40
0.0
  9
$DIMTOL
 70
     0
  9
$DIMLIM
 70
     0
  9
$DIMTIH
 70
     0
  9
$DIMTOH
 70
     0
  9
$DIMSE1
 70
     0
  9
$DIMSE2
 70
     0
  9
$DIMTAD
 70
     1
  9
$DIMZIN
 70
     8
  9
$DIMBLK
  1

  9
$DIMASO
 70
     0
  9
$DIMSHO
 70
     1
  9
$DIMPOST
  1

  9
$DIMAPOST
  1

  9
$DIMALT
 70
     0
  9
$DIMALTD
 70
     2
  9
$DIMALTF
 40
25.399999999999999
  9
$DIMLFAC
 40
1.0
  9
$DIMTOFL
 70
     1
  9
$DIMTVP
 40
0.0
  9
$DIMTIX
 70
     1
  9
$DIMSOXD
 70
     0
  9
$DIMSAH
 70
     0
  9
$DIMBLK1
  1

  9
$DIMBLK2
  1

  9
$DIMSTYLE
  2
ITM
  9
$DIMCLRD
 70
   256
  9
$DIMCLRE
 70
   256
  9
$DIMCLRT
 70
   256
  9
$DIMTFAC
 40
1.0
  9
$DIMGAP
 40
1.0
  9
$LUNITS
 70
     2
  9
$LUPREC
 70
     2
  9
$SKETCHINC
 40
1.0
  9
$FILLETRAD
 40
0.4
  9
$AUNITS
 70
     0
  9
$AUPREC
 70
     0
  9
$MENU
  1
.
  9
$ELEVATION
 40
0.0
  9
$PELEVATION
 40
0.0
  9
$THICKNESS
 40
0.0
  9
$LIMCHECK
 70
     0
  9
$BLIPMODE
 70
     0
  9
$CHAMFERA
 40
1.1999999999999991
  9
$CHAMFERB
 40
1.1999999999999991
  9
$SKPOLY
 70
     0
  9
$TDCREATE
 40
2453354.0921258219
  9
$TDUPDATE
 40
2456598.502497477
  9
$TDINDWG
 40
513.39112318289995
  9
$TDUSRTIMER
 40
513.39084520829999
  9
$USRTIMER
 70
     1
  9
$ANGBASE
 50
0.0
  9
$ANGDIR
 70
     0
  9
$PDMODE
 70
     0
  9
$PDSIZE
 40
0.0
  9
$PLINEWID
 40
0.0
  9
$COORDS
 70
     1
  9
$SPLFRAME
 70
     0
  9
$SPLINETYPE
 70
     6
  9
$SPLINESEGS
 70
     8
  9
$ATTDIA
 70
     0
  9
$ATTREQ
 70
     1
  9
$HANDLING
 70
     1
  9
$HANDSEED
  5
1AD
  9
$SURFTAB1
 70
     6
  9
$SURFTAB2
 70
     6
  9
$SURFTYPE
 70
     6
  9
$SURFU
 70
     6
  9
$SURFV
 70
     6
  9
$UCSNAME
  2

  9
$UCSORG
 10
0.0
 20
0.0
 30
0.0
  9
$UCSXDIR
 10
1.0
 20
0.0
 30
0.0
  9
$UCSYDIR
 10
0.0
 20
1.0
 30
0.0
  9
$PUCSNAME
  2

  9
$PUCSORG
 10
0.0
 20
0.0
 30
0.0
  9
$PUCSXDIR
 10
1.0
 20
0.0
 30
0.0
  9
$PUCSYDIR
 10
0.0
 20
1.0
 30
0.0
  9
$USERI1
 70
     4
  9
$USERI2
 70
     1
  9
$USERI3
 70
     1
  9
$USERI4
 70
     0
  9
$USERI5
 70
     0
  9
$USERR1
 40
1.0
  9
$USERR2
 40
3.0
  9
$USERR3
 40
3.2000000000000002
  9
$USERR4
 40
3.0
  9
$USERR5
 40
10.0
  9
$WORLDVIEW
 70
     1
  9
$SHADEDGE
 70
     3
  9
$SHADEDIF
 70
    70
  9
$TILEMODE
 70
     1
  9
$MAXACTVP
 70
    16
  9
$PLIMCHECK
 70
     0
  9
$PEXTMIN
 10
0.0
 20
0.0
 30
0.0
  9
$PEXTMAX
 10
0.0
 20
0.0
 30
0.0
  9
$PLIMMIN
 10
0.0
 20
0.0
  9
$PLIMMAX
 10
12.0
 20
9.0
  9
$UNITMODE
 70
     0
  9
$VISRETAIN
 70
     0
  9
$PLINEGEN
 70
     0
  9
$PSLTSCALE
 70
     1
  0
ENDSEC
  0
SECTION
  2
TABLES
  0
TABLE
  2
VPORT
 70
     1
  0
VPORT
  2
*ACTIVE
 70
     0
 10
0.0
 20
0.0
 11
1.0
 21
1.0
 12
202.55787946771341
 22
133.5127261426681
 13
0.0
 23
0.0
 14
5.0
 24
5.0
 15
10.0
 25
10.0
 16
0.0
 26
0.0
 36
1.0
 17
0.0
 27
0.0
 37
0.0
 40
275.42274993631997
 41
1.831871345029239
 42
50.0
 43
0.0
 44
0.0
 50
0.0
 51
0.0
 71
    16
 72
   500
 73
     1
 74
     1
 75
     0
 76
     0
 77
     0
 78
     1
  0
ENDTAB
  0
TABLE
  2
LTYPE
 70
     4
  0
LTYPE
  2
CONTINUOUS
 70
     0
  3
Solid line
 72
    65
 73
     0
 40
0.0
  0
LTYPE
  2
CENTER
 70
     0
  3
____ _ ____ _ ____ _ ____ _ ____ _ ____ _ ____
 72
    65
 73
     4
 40
2.0
 49
1.25
 49
-0.25
 49
0.25
 49
-0.25
  0
LTYPE
  2
HIDDEN
 70
     0
  3
_ _ _ _ _ _ _ _ _ _ _ _ _ _ _ _ _ _ _ _ _ _ _
 72
    65
 73
     2
 40
0.375
 49
0.25
 49
-0.125
  0
LTYPE
  2
PHANTOM2
 70
     0
  3
___ _ _ ___ _ _ ___ _ _ ___ _ _
 72
    65
 73
     6
 40
1.25
 49
0.625
 49
-0.125
 49
0.125
 49
-0.125
 49
0.125
 49
-0.125
  0
ENDTAB
  0
TABLE
  2
LAYER
 70
     5
  0
LAYER
  2
0
 70
     0
 62
     7
  6
CONTINUOUS
  0
LAYER
  2
1
 70
     0
 62
     1
  6
CENTER
  0
LAYER
  2
WAKU
 70
     0
 62
     5
  6
CONTINUOUS
  0
LAYER
  2
4
 70
     0
 62
     4
  6
CONTINUOUS
  0
LAYER
  2
2
 70
     0
 62
     2
  6
HIDDEN
  0
ENDTAB
  0
TABLE
  2
STYLE
 70
     3
  0
STYLE
  2
STANDARD
 70
     0
 40
0.0
 41
1.0
 50
0.0
 71
     0
 42
2.5
  3
ROMANS
  4
EXTFONT
  0
STYLE
  2
K
 70
     0
 40
0.0
 41
0.75
 50
0.0
 71
     0
 42
3.2000000000000002
  3
ROMANS.shx
  4
EXTFONT.shx
  0
STYLE
  2
STANDARD1
 70
     0
 40
0.0
 41
1.0
 50
0.0
 71
     0
 42
3.0
  3
txt
  4

  0
ENDTAB
  0
TABLE
  2
VIEW
 70
     0
  0
ENDTAB
  0
TABLE
  2
UCS
 70
     0
  0
ENDTAB
  0
TABLE
  2
APPID
 70
     3
  0
APPID
  2
ACAD
 70
     0
  0
APPID
  2
ACAD_MLEADERVER
 70
     0
  0
APPID
  2
ACAD_NAV_VCDISPLAY
 70
     0
  0
ENDTAB
  0
TABLE
  2
DIMSTYLE
 70
     2
  0
DIMSTYLE
  2
ITM
 70
     0
  3

  4

  5

  6

  7

 40
0.0
 41
2.5
 42
1.0
 43
6.0
 44
1.0
 45
0.0
 46
0.0
 47
495.0
 48
0.0
140
3.0
141
0.0
142
0.0
143
25.399999999999999
144
1.0
145
0.0
146
1.0
147
1.0
 71
     0
 72
     0
 73
     0
 74
     0
 75
     0
 76
     0
 77
     3
 78
     8
170
     0
171
     2
172
     1
173
     0
174
     0
175
     0
176
     0
177
     0
178
     0
  0
DIMSTYLE
  2
STANDARD
 70
     0
  3

  4

  5

  6

  7

 40
1.0
 41
0.18
 42
0.0625
 43
0.38
 44
0.18
 45
0.0
 46
0.0
 47
0.0
 48
0.0
140
0.18
141
0.09
142
0.0
143
25.399999999999999
144
1.0
145
0.0
146
1.0
147
0.09
 71
     0
 72
     0
 73
     1
 74
     1
 75
     0
 76
     0
 77
     0
 78
     0
170
     0
171
     2
172
     0
173
     0
174
     0
175
     0
176
     0
177
     0
178
     0
  0
ENDTAB
  0
ENDSEC
  0
SECTION
  2
BLOCKS
  0
BLOCK
  8
0
  2
$MODEL_SPACE
 70
     0
 10
0.0
 20
0.0
 30
0.0
  3
$MODEL_SPACE
  1

  0
ENDBLK
  5
9
  8
0
  0
BLOCK
 67
     1
  8
0
  2
$PAPER_SPACE
 70
     0
 10
0.0
 20
0.0
 30
0.0
  3
$PAPER_SPACE
  1

  0
ENDBLK
  5
E
 67
     1
  8
0
  0
BLOCK
  8
0
  2
ARROW1
 70
     0
 10
0.0
 20
0.0
 30
0.0
  3
ARROW1
  1

  0
SOLID
  5
29
  8
WAKU
  6
CONTINUOUS
 62
     4
 10
-1.0
 20
0.1666666666666714
 30
0.0
 11
-1.0
 21
-0.1666666666666714
 31
0.0
 12
0.0
 22
0.0
 32
0.0
 13
0.0
 23
0.0
 33
0.0
  0
ENDBLK
  5
2B
  8
0
  0
ENDSEC
  0
SECTION
  2
ENTITIES
  0
LINE
  5
2D
  8
2
 10
116.9097609892861
 20
31.662416334446331
 30
0.0
 11
130.90976098928601
 21
31.662416334446451
 31
0.0
  0
LINE
  5
30
  8
0
 10
117.189760989286
 20
76.162416334446533
 30
0.0
 11
117.1897609892858
 21
26.162416334446501
 31
0.0
  0
LINE
  5
31
  8
0
 10
130.6297609892859
 20
76.162416334446391
 30
0.0
 11
130.6297609892857
 21
26.16241633444638
 31
0.0
  0
LINE
  5
32
  8
0
 10
115.0497609892859
 20
42.012416334446428
 30
0.0
 11
116.9097609892858
 21
42.012416334446428
 31
0.0
  0
LINE
  5
33
  8
0
 10
130.90976098928579
 20
42.012416334446378
 30
0.0
 11
132.76976098928591
 21
42.012416334446371
 31
0.0
  0
LINE
  5
34
  8
0
 10
115.0497609892859
 20
42.012416334446428
 30
0.0
 11
114.9097609892859
 21
42.152416334446428
 31
0.0
  0
LINE
  5
35
  8
0
 10
132.76976098928591
 20
42.012416334446371
 30
0.0
 11
132.9097609892859
 21
42.152416334446357
 31
0.0
  0
LINE
  5
36
  8
0
 10
130.90976098928579
 20
26.442416334446381
 30
0.0
 11
130.90976098928601
 21
75.882416334446276
 31
0.0
  0
LINE
  5
37
  8
0
 10
116.9097609892858
 20
26.44241633444642
 30
0.0
 11
116.909760989286
 21
75.882416334446503
 31
0.0
  0
LINE
  5
38
  8
0
 10
116.9097609892858
 20
26.44241633444642
 30
0.0
 11
117.1897609892858
 21
26.162416334446419
 31
0.0
  0
LINE
  5
39
  8
0
 10
130.90976098928579
 20
26.442416334446381
 30
0.0
 11
130.62976098928581
 21
26.16241633444638
 31
0.0
  0
LINE
  5
3A
  8
0
 10
117.1897609892858
 20
26.162416334446419
 30
0.0
 11
130.62976098928581
 21
26.16241633444638
 31
0.0
  0
LINE
  5
3B
  8
2
 10
122.0730111424096
 20
42.012416334446407
 30
0.0
 11
116.9097609892858
 21
42.012416334446421
 31
0.0
  0
LINE
  5
3C
  8
2
 10
118.9097609892858
 20
34.137416334446407
 30
0.0
 11
128.90976098928579
 21
34.137416334446392
 31
0.0
  0
LINE
  5
3D
  8
2
 10
125.7465108361621
 20
37.287416334446391
 30
0.0
 11
127.87826098928591
 21
37.287416334446391
 31
0.0
  0
LINE
  5
3E
  8
2
 10
119.94126098928589
 20
37.287416334446412
 30
0.0
 11
122.0730111424096
 21
37.287416334446412
 31
0.0
  0
LINE
  5
3F
  8
2
 10
118.9097609892859
 20
42.012416334446421
 30
0.0
 11
118.9097609892858
 21
34.137416334446407
 31
0.0
  0
LINE
  5
40
  8
2
 10
128.9097609892859
 20
42.012416334446378
 30
0.0
 11
128.90976098928579
 21
34.137416334446392
 31
0.0
  0
LINE
  5
41
  8
2
 10
118.9097609892858
 20
35.712416334446402
 30
0.0
 11
116.9097609892858
 21
34.557715796067171
 31
0.0
  0
LINE
  5
42
  8
2
 10
128.90976098928579
 20
35.712416334446388
 30
0.0
 11
130.90976098928579
 21
34.557715796067129
 31
0.0
  0
LINE
  5
43
  8
2
 10
125.7465108361621
 20
42.012416334446399
 30
0.0
 11
130.90976098928579
 21
42.012416334446378
 31
0.0
  0
LINE
  5
44
  8
2
 10
127.6168677704723
 20
35.611809553259832
 30
0.0
 11
126.9097609892858
 21
36.318916334446378
 31
0.0
  0
LINE
  5
45
  8
2
 10
128.9097609892859
 20
36.904702772073307
 30
0.0
 11
127.6168677704723
 21
35.611809553259832
 31
0.0
  0
LINE
  5
46
  8
2
 10
127.9097609892859
 20
37.318916334446392
 30
0.0
 11
126.9097609892858
 21
36.318916334446378
 31
0.0
  0
LINE
  5
47
  8
2
 10
120.2026542080993
 20
35.611809553259853
 30
0.0
 11
120.9097609892859
 21
36.318916334446421
 31
0.0
  0
LINE
  5
48
  8
2
 10
118.9097609892859
 20
36.904702772073342
 30
0.0
 11
120.2026542080993
 21
35.611809553259853
 31
0.0
  0
LINE
  5
49
  8
2
 10
119.9097609892859
 20
37.318916334446421
 30
0.0
 11
120.9097609892859
 21
36.318916334446421
 31
0.0
  0
LINE
  5
4A
  8
2
 10
119.9097609892859
 20
37.318916334446421
 30
0.0
 11
119.9097609892859
 21
42.012416334446407
 31
0.0
  0
LINE
  5
4B
  8
2
 10
127.9097609892859
 20
37.318916334446392
 30
0.0
 11
127.9097609892859
 21
42.012416334446357
 31
0.0
  0
CIRCLE
  5
4C
  8
2
 10
123.9097609892858
 20
39.649916334446402
 30
0.0
 40
2.9924999999999979
  0
CIRCLE
  5
4D
  8
2
 10
123.9097609892858
 20
62.674916334446387
 30
0.0
 40
2.9924999999999979
  0
LINE
  5
4E
  8
2
 10
127.9097609892859
 20
65.005916334446397
 30
0.0
 11
127.9097609892859
 21
60.312416334446411
 31
0.0
  0
LINE
  5
4F
  8
2
 10
119.9097609892859
 20
65.005916334446397
 30
0.0
 11
119.9097609892859
 21
60.312416334446389
 31
0.0
  0
LINE
  5
50
  8
2
 10
119.9097609892859
 20
65.005916334446397
 30
0.0
 11
120.9097609892859
 21
66.005916334446397
 31
0.0
  0
LINE
  5
51
  8
2
 10
118.9097609892859
 20
65.420129896819475
 30
0.0
 11
120.2026542080993
 21
66.71302311563295
 31
0.0
  0
LINE
  5
52
  8
2
 10
120.2026542080993
 20
66.71302311563295
 30
0.0
 11
120.9097609892859
 21
66.005916334446397
 31
0.0
  0
LINE
  5
53
  8
2
 10
127.9097609892859
 20
65.005916334446397
 30
0.0
 11
126.9097609892859
 21
66.005916334446397
 31
0.0
  0
LINE
  5
54
  8
2
 10
128.9097609892859
 20
65.420129896819461
 30
0.0
 11
127.6168677704724
 21
66.71302311563295
 31
0.0
  0
LINE
  5
55
  8
2
 10
127.6168677704724
 20
66.71302311563295
 30
0.0
 11
126.9097609892859
 21
66.005916334446397
 31
0.0
  0
LINE
  5
56
  8
2
 10
125.7465108361621
 20
60.312416334446382
 30
0.0
 11
130.9097609892859
 21
60.312416334446382
 31
0.0
  0
LINE
  5
57
  8
2
 10
128.9097609892859
 20
66.61241633444638
 30
0.0
 11
130.9097609892859
 21
67.767116872825625
 31
0.0
  0
LINE
  5
58
  8
2
 10
118.9097609892858
 20
66.612416334446394
 30
0.0
 11
116.9097609892859
 21
67.767116872825625
 31
0.0
  0
LINE
  5
59
  8
2
 10
128.9097609892859
 20
60.312416334446382
 30
0.0
 11
128.9097609892859
 21
68.187416334446382
 31
0.0
  0
LINE
  5
5A
  8
2
 10
118.9097609892859
 20
60.312416334446382
 30
0.0
 11
118.9097609892858
 21
68.187416334446382
 31
0.0
  0
LINE
  5
5B
  8
2
 10
119.94126098928589
 20
65.037416334446391
 30
0.0
 11
122.0730111424096
 21
65.037416334446391
 31
0.0
  0
LINE
  5
5C
  8
2
 10
125.7465108361621
 20
65.037416334446391
 30
0.0
 11
127.87826098928591
 21
65.037416334446391
 31
0.0
  0
LINE
  5
5D
  8
2
 10
118.9097609892858
 20
68.187416334446382
 30
0.0
 11
128.9097609892859
 21
68.187416334446382
 31
0.0
  0
LINE
  5
5E
  8
2
 10
116.9097609892859
 20
70.662416334446391
 30
0.0
 11
130.9097609892859
 21
70.662416334446391
 31
0.0
  0
LINE
  5
5F
  8
2
 10
122.0730111424096
 20
60.312416334446382
 30
0.0
 11
116.9097609892858
 21
60.312416334446382
 31
0.0
  0
LINE
  5
60
  8
0
 10
117.1897609892859
 20
76.162416334446391
 30
0.0
 11
130.6297609892859
 21
76.162416334446391
 31
0.0
  0
LINE
  5
61
  8
0
 10
130.9097609892859
 20
75.882416334446376
 30
0.0
 11
130.6297609892859
 21
76.162416334446391
 31
0.0
  0
LINE
  5
62
  8
0
 10
116.9097609892859
 20
75.882416334446376
 30
0.0
 11
117.1897609892859
 21
76.162416334446391
 31
0.0
  0
LINE
  5
63
  8
1
 10
135.9097609892859
 20
51.162416334446391
 30
0.0
 11
111.9097609892859
 21
51.162416334446391
 31
0.0
  0
LINE
  5
66
  8
0
 10
132.76976098928591
 20
60.312416334446389
 30
0.0
 11
132.9097609892859
 21
60.172416334446403
 31
0.0
  0
LINE
  5
67
  8
0
 10
115.0497609892859
 20
60.312416334446382
 30
0.0
 11
114.9097609892859
 21
60.172416334446389
 31
0.0
  0
LINE
  5
68
  8
0
 10
130.9097609892859
 20
60.312416334446382
 30
0.0
 11
132.76976098928591
 21
60.312416334446382
 31
0.0
  0
LINE
  5
69
  8
0
 10
115.0497609892859
 20
60.312416334446382
 30
0.0
 11
116.9097609892859
 21
60.312416334446368
 31
0.0
  0
LINE
  5
6A
  8
2
 10
114.9097609892859
 20
57.162416334446391
 30
0.0
 11
132.9097609892859
 21
57.162416334446391
 31
0.0
  0
LINE
  5
6B
  8
0
 10
132.9097609892859
 20
42.152416334446357
 30
0.0
 11
132.9097609892859
 21
60.172416334446389
 31
0.0
  0
LINE
  5
6C
  8
0
 10
114.9097609892859
 20
60.172416334446403
 30
0.0
 11
114.9097609892859
 21
42.152416334446357
 31
0.0
  0
LINE
  5
6D
  8
2
 10
114.9097609892859
 20
45.162416334446348
 30
0.0
 11
132.9097609892859
 21
45.16241633444637
 31
0.0
  0
CIRCLE
  5
6E
  8
0
 10
44.884969484659621
 20
51.162416334446391
 30
0.0
 40
24.719999999999992
  0
CIRCLE
  5
6F
  8
0
 10
44.884969484659621
 20
51.162416334446391
 30
0.0
 40
25.0
  0
LINE
  5
70
  8
1
 10
44.884969484659621
 20
21.258186048146481
 30
0.0
 11
44.884969484659621
 21
81.066646620746383
 31
0.0
  0
LINE
  5
71
  8
1
 10
74.789199770959613
 20
51.162416334446391
 30
0.0
 11
14.980739198359631
 21
51.162416334446391
 31
0.0
  0
CIRCLE
  5
72
  8
0
 10
44.884969484659621
 20
51.162416334446391
 30
0.0
 40
15.449999999999971
  0
CIRCLE
  5
73
  8
0
 10
44.884969484659621
 20
51.162416334446391
 30
0.0
 40
14.25771356237308
  0
CIRCLE
  5
74
  8
0
 10
44.884969484659621
 20
51.162416334446391
 30
0.0
 40
19.5
  0
CIRCLE
  5
75
  8
0
 10
44.884969484659621
 20
51.162416334446391
 30
0.0
 40
16.604700538379241
  0
CIRCLE
  5
76
  8
0
 10
44.884969484659621
 20
51.162416334446391
 30
0.0
 40
9.1499999999999915
  0
CIRCLE
  5
77
  8
0
 10
44.884969484659621
 20
51.162416334446391
 30
0.0
 40
9.0100000000000051
  0
CIRCLE
  5
78
  8
0
 10
44.884969484659621
 20
51.162416334446391
 30
0.0
 40
6.0
  0
TEXT
  5
11E
  8
0
 62
     3
 10
0.0
 20
0.0
 30
0.0
 40
10.0
  1
CTG-BR50D
  7
STANDARD1
  0
ENDSEC
  0
EOF
