  0
SECTION
  2
HEADER
  9
$ACADVER
  1
AC1009
  9
$INSBASE
 10
0.0
 20
0.0
 30
0.0
  9
$EXTMIN
 10
0.0
 20
-2.960436562073669
 30
0.0
  9
$EXTMAX
 10
130.0000000000002
 20
331.0
 30
0.0
  9
$LIMMIN
 10
0.0
 20
0.0
  9
$LIMMAX
 10
187.5
 20
135.0
  9
$ORTHOMODE
 70
     1
  9
$REGENMODE
 70
     1
  9
$FILLMODE
 70
     1
  9
$QTEXTMODE
 70
     0
  9
$MIRRTEXT
 70
     0
  9
$DRAGMODE
 70
     2
  9
$LTSCALE
 40
5.0
  9
$OSMODE
 70
  3071
  9
$ATTMODE
 70
     1
  9
$TEXTSIZE
 40
4.0
  9
$TRACEWID
 40
0.05
  9
$TEXTSTYLE
  7
STANDARD
  9
$CLAYER
  8
0
  9
$CELTYPE
  6
BYLAYER
  9
$CECOLOR
 62
   256
  9
$DIMSCALE
 40
1.0
  9
$DIMASZ
 40
3.0
  9
$DIMEXO
 40
2.0
  9
$DIMDLI
 40
0.38
  9
$DIMRND
 40
0.0
  9
$DIMDLE
 40
0.0
  9
$DIMEXE
 40
2.0
  9
$DIMTP
 40
0.0
  9
$DIMTM
 40
0.0
  9
$DIMTXT
 40
3.2000000000000002
  9
$DIMCEN
 40
0.0
  9
$DIMTSZ
 40
0.0
  9
$DIMTOL
 70
     0
  9
$DIMLIM
 70
     0
  9
$DIMTIH
 70
     0
  9
$DIMTOH
 70
     0
  9
$DIMSE1
 70
     0
  9
$DIMSE2
 70
     0
  9
$DIMTAD
 70
     1
  9
$DIMZIN
 70
     8
  9
$DIMBLK
  1

  9
$DIMASO
 70
     0
  9
$DIMSHO
 70
     0
  9
$DIMPOST
  1

  9
$DIMAPOST
  1

  9
$DIMALT
 70
     0
  9
$DIMALTD
 70
     2
  9
$DIMALTF
 40
25.399999999999999
  9
$DIMLFAC
 40
1.0
  9
$DIMTOFL
 70
     1
  9
$DIMTVP
 40
1.6000000000000001
  9
$DIMTIX
 70
     0
  9
$DIMSOXD
 70
     0
  9
$DIMSAH
 70
     0
  9
$DIMBLK1
  1

  9
$DIMBLK2
  1

  9
$DIMSTYLE
  2
STANDARD
  9
$DIMCLRD
 70
     4
  9
$DIMCLRE
 70
     4
  9
$DIMCLRT
 70
     4
  9
$DIMTFAC
 40
1.0
  9
$DIMGAP
 40
0.5
  9
$LUNITS
 70
     2
  9
$LUPREC
 70
     1
  9
$SKETCHINC
 40
0.1
  9
$FILLETRAD
 40
0.0
  9
$AUNITS
 70
     0
  9
$AUPREC
 70
     1
  9
$MENU
  1
E:\r13\win\SUPPORT\ACAD
  9
$ELEVATION
 40
0.0
  9
$PELEVATION
 40
0.0
  9
$THICKNESS
 40
0.0
  9
$LIMCHECK
 70
     0
  9
$BLIPMODE
 70
     0
  9
$CHAMFERA
 40
1.1999999999999991
  9
$CHAMFERB
 40
1.1999999999999991
  9
$SKPOLY
 70
     0
  9
$TDCREATE
 40
2449933.4048958332
  9
$TDUPDATE
 40
2456598.4991774312
  9
$TDINDWG
 40
0.428030544
  9
$TDUSRTIMER
 40
0.428030544
  9
$USRTIMER
 70
     1
  9
$ANGBASE
 50
0.0
  9
$ANGDIR
 70
     0
  9
$PDMODE
 70
     0
  9
$PDSIZE
 40
0.0
  9
$PLINEWID
 40
0.0
  9
$COORDS
 70
     1
  9
$SPLFRAME
 70
     0
  9
$SPLINETYPE
 70
     6
  9
$SPLINESEGS
 70
     8
  9
$ATTDIA
 70
     0
  9
$ATTREQ
 70
     1
  9
$HANDLING
 70
     1
  9
$HANDSEED
  5
429A
  9
$SURFTAB1
 70
     6
  9
$SURFTAB2
 70
     6
  9
$SURFTYPE
 70
     6
  9
$SURFU
 70
     6
  9
$SURFV
 70
     6
  9
$UCSNAME
  2

  9
$UCSORG
 10
0.0
 20
0.0
 30
0.0
  9
$UCSXDIR
 10
1.0
 20
0.0
 30
0.0
  9
$UCSYDIR
 10
0.0
 20
1.0
 30
0.0
  9
$PUCSNAME
  2

  9
$PUCSORG
 10
0.0
 20
0.0
 30
0.0
  9
$PUCSXDIR
 10
1.0
 20
0.0
 30
0.0
  9
$PUCSYDIR
 10
0.0
 20
1.0
 30
0.0
  9
$USERI1
 70
     0
  9
$USERI2
 70
     1
  9
$USERI3
 70
     0
  9
$USERI4
 70
     0
  9
$USERI5
 70
     0
  9
$USERR1
 40
0.0
  9
$USERR2
 40
0.0
  9
$USERR3
 40
0.0
  9
$USERR4
 40
0.0
  9
$USERR5
 40
0.0
  9
$WORLDVIEW
 70
     1
  9
$SHADEDGE
 70
     3
  9
$SHADEDIF
 70
    70
  9
$TILEMODE
 70
     1
  9
$MAXACTVP
 70
    16
  9
$PLIMCHECK
 70
     0
  9
$PEXTMIN
 10
1.0000000000000000E+020
 20
1.0000000000000000E+020
 30
1.0000000000000000E+020
  9
$PEXTMAX
 10
-1.0000000000000000E+020
 20
-1.0000000000000000E+020
 30
-1.0000000000000000E+020
  9
$PLIMMIN
 10
0.0
 20
0.0
  9
$PLIMMAX
 10
12.0
 20
9.0
  9
$UNITMODE
 70
     0
  9
$VISRETAIN
 70
     0
  9
$PLINEGEN
 70
     0
  9
$PSLTSCALE
 70
     0
  0
ENDSEC
  0
SECTION
  2
TABLES
  0
TABLE
  2
VPORT
 70
     1
  0
VPORT
  2
*ACTIVE
 70
     0
 10
0.0
 20
0.0
 11
1.0
 21
1.0
 12
103.0012213156844
 22
164.0226829588909
 13
0.0
 23
0.0
 14
5.0
 24
5.0
 15
5.0
 25
5.0
 16
0.0
 26
0.0
 36
1.0
 17
0.0
 27
0.0
 37
0.0
 40
336.97012828953939
 41
1.831871345029239
 42
50.0
 43
0.0
 44
0.0
 50
0.0
 51
0.0
 71
     0
 72
   500
 73
     1
 74
     0
 75
     0
 76
     0
 77
     0
 78
     2
  0
ENDTAB
  0
TABLE
  2
LTYPE
 70
     3
  0
LTYPE
  2
CONTINUOUS
 70
     0
  3
Solid Line
 72
    65
 73
     0
 40
0.0
  0
LTYPE
  2
CENTER
 70
     0
  3
____ _ ____ _ ____ _ ____ _ ____ _ ____ _ ____
 72
    65
 73
     4
 40
2.0
 49
1.25
 49
-0.25
 49
0.25
 49
-0.25
  0
LTYPE
  2
PHANTOM2
 70
     0
  3
___ _ _ ___ _ _ ___ _ _ ___ _ _
 72
    65
 73
     6
 40
1.25
 49
0.625
 49
-0.125
 49
0.125
 49
-0.125
 49
0.125
 49
-0.125
  0
ENDTAB
  0
TABLE
  2
LAYER
 70
     4
  0
LAYER
  2
0
 70
     0
 62
     7
  6
CONTINUOUS
  0
LAYER
  2
1
 70
     0
 62
     1
  6
CENTER
  0
LAYER
  2
DEFPOINTS
 70
     0
 62
     7
  6
CONTINUOUS
  0
LAYER
  2
3
 70
     0
 62
     3
  6
CONTINUOUS
  0
ENDTAB
  0
TABLE
  2
STYLE
 70
     2
  0
STYLE
  2
STANDARD
 70
     0
 40
0.0
 41
1.0
 50
0.0
 71
     0
 42
4.0
  3
SIMPLEX
  4
BIGFONT
  0
STYLE
  2
STANDARD1
 70
     0
 40
0.0
 41
1.0
 50
0.0
 71
     0
 42
3.0
  3
txt
  4

  0
ENDTAB
  0
TABLE
  2
VIEW
 70
     1
  0
VIEW
  2
ALL
 70
     0
 40
175.0
 10
143.1020066889632
 20
87.5
 41
286.2040133779264
 11
0.0
 21
0.0
 31
1.0
 12
0.0
 22
0.0
 32
0.0
 42
50.0
 43
0.0
 44
0.0
 50
0.0
 71
     0
  0
ENDTAB
  0
TABLE
  2
UCS
 70
     0
  0
ENDTAB
  0
TABLE
  2
APPID
 70
     7
  0
APPID
  2
ACAD
 70
     0
  0
APPID
  2
ACAD_DSTYLE_DIMJAG
 70
     0
  0
APPID
  2
ACAD_DSTYLE_DIMTALN
 70
     0
  0
APPID
  2
ACAD_EXEMPT_FROM_CAD_STANDARDS
 70
     0
  0
APPID
  2
ACAD_DSTYLE_DIMRADIAL_EXTENSION
 70
     0
  0
APPID
  2
ACAD_MLEADERVER
 70
     0
  0
APPID
  2
ACAD_NAV_VCDISPLAY
 70
     0
  0
ENDTAB
  0
TABLE
  2
DIMSTYLE
 70
     1
  0
DIMSTYLE
  2
STANDARD
 70
     0
  3

  4

  5

  6

  7

 40
1.0
 41
0.18
 42
0.0625
 43
0.38
 44
0.18
 45
0.0
 46
0.0
 47
0.0
 48
0.0
140
0.18
141
0.09
142
0.0
143
25.399999999999999
144
1.0
145
0.0
146
1.0
147
0.09
 71
     0
 72
     0
 73
     1
 74
     1
 75
     0
 76
     0
 77
     0
 78
     0
170
     0
171
     2
172
     0
173
     0
174
     0
175
     0
176
     0
177
     0
178
     0
  0
ENDTAB
  0
ENDSEC
  0
SECTION
  2
BLOCKS
  0
BLOCK
  8
0
  2
$MODEL_SPACE
 70
     0
 10
0.0
 20
0.0
 30
0.0
  3
$MODEL_SPACE
  1

  0
ENDBLK
  5
8A
  8
0
  0
BLOCK
 67
     1
  8
0
  2
$PAPER_SPACE
 70
     0
 10
0.0
 20
0.0
 30
0.0
  3
$PAPER_SPACE
  1

  0
ENDBLK
  5
88
 67
     1
  8
0
  0
ENDSEC
  0
SECTION
  2
ENTITIES
  0
LINE
  5
37BE
  8
0
 10
84.624999999677073
 20
157.0
 30
0.0
 11
84.624999999677073
 21
157.99999999999989
 31
0.0
  0
LINE
  5
37BF
  8
0
 10
70.374999999677073
 20
158.0
 30
0.0
 11
70.374999999677073
 21
157.0
 31
0.0
  0
LINE
  5
37C0
  8
0
 10
71.500000000000171
 20
155.30000000000001
 30
0.0
 11
71.800000000000125
 21
155.0
 31
0.0
  0
LINE
  5
37C1
  8
0
 10
83.200000000000102
 20
155.0
 30
0.0
 11
83.500000000000171
 21
155.2999999999999
 31
0.0
  0
LINE
  5
37C2
  8
0
 10
71.500000000000171
 20
156.84999999999999
 30
0.0
 11
71.500000000000171
 21
155.30000000000001
 31
0.0
  0
LINE
  5
37C3
  8
0
 10
83.500000000000171
 20
155.2999999999999
 30
0.0
 11
83.500000000000171
 21
156.84999999999999
 31
0.0
  0
LINE
  5
37C4
  8
0
 10
71.750000000000171
 20
157.0
 30
0.0
 11
71.750000000000171
 21
156.84999999999999
 31
0.0
  0
LINE
  5
37C5
  8
0
 10
83.250000000000171
 20
156.84999999999999
 30
0.0
 11
83.250000000000171
 21
157.0
 31
0.0
  0
LINE
  5
37C6
  8
0
 10
125.0000000000001
 20
183.0
 30
0.0
 11
125.0000000000001
 21
193.99999999999989
 31
0.0
  0
LINE
  5
37C7
  8
0
 10
30.00000000000011
 20
193.99999999999989
 30
0.0
 11
30.00000000000011
 21
183.0
 31
0.0
  0
LINE
  5
37C8
  8
0
 10
30.10000000000014
 20
179.49999999999989
 30
0.0
 11
30.60000000000008
 21
179.0
 31
0.0
  0
LINE
  5
37C9
  8
0
 10
124.40000000000011
 20
179.0
 30
0.0
 11
124.90000000000011
 21
179.49999999999989
 31
0.0
  0
LINE
  5
37CA
  8
0
 10
124.90000000000011
 20
179.49999999999989
 30
0.0
 11
124.90000000000011
 21
183.0
 31
0.0
  0
LINE
  5
37CB
  8
0
 10
30.10000000000014
 20
183.0
 30
0.0
 11
30.10000000000014
 21
179.49999999999989
 31
0.0
  0
LINE
  5
37CC
  8
0
 10
112.5000000000001
 20
158.99999999999989
 30
0.0
 11
112.5000000000001
 21
177.49999999999989
 31
0.0
  0
LINE
  5
37CD
  8
0
 10
42.500000000000163
 20
177.49999999999989
 30
0.0
 11
42.500000000000163
 21
159.0
 31
0.0
  0
LINE
  5
37CE
  8
0
 10
112.5000000000001
 20
177.49999999999989
 30
0.0
 11
112.0000000000001
 21
178.0
 31
0.0
  0
LINE
  5
37CF
  8
0
 10
43.000000000000171
 20
178.0
 30
0.0
 11
42.500000000000163
 21
177.49999999999989
 31
0.0
  0
LINE
  5
37D0
  8
0
 10
42.500000000000163
 20
159.0
 30
0.0
 11
43.50000000000005
 21
158.0
 31
0.0
  0
LINE
  5
37D1
  8
0
 10
111.5000000000001
 20
157.99999999999989
 30
0.0
 11
112.5000000000001
 21
158.99999999999989
 31
0.0
  0
LINE
  5
37D2
  8
0
 10
112.0000000000001
 20
178.0
 30
0.0
 11
112.0000000000001
 21
179.0
 31
0.0
  0
LINE
  5
37D3
  8
0
 10
43.000000000000171
 20
179.0
 30
0.0
 11
43.000000000000171
 21
178.0
 31
0.0
  0
LINE
  5
37D4
  8
0
 10
84.624999999677073
 20
157.0
 30
0.0
 11
70.374999999677073
 21
157.0
 31
0.0
  0
LINE
  5
37D5
  8
0
 10
71.500000000000171
 20
155.30000000000001
 30
0.0
 11
83.500000000000171
 21
155.2999999999999
 31
0.0
  0
LINE
  5
37D6
  8
0
 10
83.200000000000102
 20
155.0
 30
0.0
 11
71.800000000000125
 21
155.0
 31
0.0
  0
LINE
  5
37D7
  8
0
 10
71.500000000000171
 20
156.84999999999999
 30
0.0
 11
83.500000000000171
 21
156.84999999999999
 31
0.0
  0
LINE
  5
37D8
  8
0
 10
30.00000000000011
 20
193.99999999999989
 30
0.0
 11
30.319495551658349
 21
193.99999999999989
 31
0.0
  0
LINE
  5
37D9
  8
0
 10
30.319495551658349
 20
193.99999999999989
 30
0.0
 11
30.319495551658349
 21
200.5
 31
0.0
  0
LINE
  5
37DB
  8
0
 10
72.000000000000625
 20
193.99999999999989
 30
0.0
 11
72.000000000000625
 21
201.0
 31
0.0
  0
LINE
  5
37DC
  8
0
 10
72.000000000000625
 20
193.99999999999989
 30
0.0
 11
83.000000000000625
 21
193.99999999999989
 31
0.0
  0
LINE
  5
37DD
  8
0
 10
83.000000000000625
 20
193.99999999999989
 30
0.0
 11
83.000000000000568
 21
201.0
 31
0.0
  0
LINE
  5
37DF
  8
0
 10
124.68050444834191
 20
193.99999999999989
 30
0.0
 11
124.68050444834191
 21
200.5
 31
0.0
  0
LINE
  5
37E0
  8
0
 10
124.68050444834191
 20
193.99999999999989
 30
0.0
 11
125.0000000000001
 21
193.99999999999989
 31
0.0
  0
LINE
  5
37E1
  8
0
 10
125.0000000000001
 20
183.0
 30
0.0
 11
30.000000000000281
 21
183.0
 31
0.0
  0
LINE
  5
37E2
  8
0
 10
124.40000000000011
 20
179.0
 30
0.0
 11
30.60000000000008
 21
179.0
 31
0.0
  0
LINE
  5
37E4
  8
0
 10
30.884551916773489
 20
201.0
 30
0.0
 11
124.1154480832268
 21
201.0
 31
0.0
  0
LINE
  5
37E6
  8
0
 10
30.88455191677355
 20
201.0
 30
0.0
 11
30.319495551658349
 21
200.5
 31
0.0
  0
LINE
  5
37E8
  8
0
 10
124.1154480832268
 20
201.0
 30
0.0
 11
124.68050444834191
 21
200.5
 31
0.0
  0
LINE
  5
37EC
  8
0
 10
112.5000000000001
 20
177.49999999999989
 30
0.0
 11
42.500000000000163
 21
177.49999999999989
 31
0.0
  0
LINE
  5
37ED
  8
0
 10
42.500000000000163
 20
159.0
 30
0.0
 11
112.5000000000001
 21
158.99999999999989
 31
0.0
  0
LINE
  5
37EE
  8
0
 10
112.0000000000001
 20
178.0
 30
0.0
 11
43.000000000000171
 21
178.0
 31
0.0
  0
LINE
  5
37EF
  8
0
 10
111.5000000000001
 20
157.99999999999989
 30
0.0
 11
43.50000000000005
 21
158.0
 31
0.0
  0
LINE
  5
3809
  8
1
 10
77.500000000000227
 20
206.0
 30
0.0
 11
77.500000000000227
 21
150.0
 31
0.0
  0
CIRCLE
  5
380A
  8
0
 10
76.000000004361596
 20
70.411611933339799
 30
0.0
 40
0.7500000000000285
  0
CIRCLE
  5
380B
  8
0
 10
79.000000004361596
 20
70.411611935185732
 30
0.0
 40
0.75
  0
ARC
  5
380C
  8
0
 10
73.01035422314294
 20
70.660646274027187
 30
0.0
 40
1.500000000000002
 50
355.23831501027229
 51
58.631610607749593
  0
ARC
  5
380D
  8
0
 10
77.499999999677016
 20
78.025000000000091
 30
0.0
 40
7.125000000000048
 50
301.36838946276322
 51
238.6316106077492
  0
ARC
  5
380E
  8
0
 10
81.989645785273751
 20
70.660646279552253
 30
0.0
 40
1.5000000000000071
 50
121.3683894627633
 51
184.76168506023669
  0
ARC
  5
380F
  8
0
 10
79.000000004361596
 20
70.411611935185732
 30
0.0
 40
1.5000000000000211
 50
281.94830316731651
 51
4.76168506023836
  0
ARC
  5
3810
  8
0
 10
77.500000000000114
 20
77.500000000000171
 30
0.0
 40
8.7453602650584639
 50
272.45758970821862
 51
281.94830316731651
  0
LINE
  5
3811
  8
0
 10
77.125000005376137
 20
68.762683411384671
 30
0.0
 11
77.125000003684704
 21
71.511730216267594
 31
0.0
  0
ARC
  5
3812
  8
0
 10
77.500000000000114
 20
77.500000000000256
 30
0.0
 40
8.7453602650585758
 50
258.0516969031919
 51
267.54241036228609
  0
ARC
  5
3813
  8
0
 10
76.000000004361596
 20
70.411611933339799
 30
0.0
 40
1.500000000000008
 50
175.23831501027229
 51
258.0516969031919
  0
LINE
  5
3814
  8
0
 10
77.875000003684704
 20
71.51173021672912
 30
0.0
 11
77.875000005376137
 21
68.762683411846155
 31
0.0
  0
CIRCLE
  5
3815
  8
0
 10
77.5
 20
77.500000000000114
 30
0.0
 40
2.5
  0
CIRCLE
  5
3817
  8
0
 10
77.5
 20
77.500000000000114
 30
0.0
 40
6.0
  0
CIRCLE
  5
381A
  8
0
 10
77.5
 20
77.500000000000085
 30
0.0
 40
35.0
  0
CIRCLE
  5
381D
  8
0
 10
77.5
 20
77.500000000000028
 30
0.0
 40
47.399999999999999
  0
CIRCLE
  5
3825
  8
0
 10
77.499999999999886
 20
35.5
 30
0.0
 40
3.2999999999999972
  0
CIRCLE
  5
3826
  8
0
 10
77.5
 20
77.500000000000028
 30
0.0
 40
36.0
  0
CIRCLE
  5
3828
  8
0
 10
119.5
 20
77.5
 30
0.0
 40
3.2999999999999972
  0
CIRCLE
  5
3829
  8
0
 10
35.5
 20
77.500000000000313
 30
0.0
 40
3.3000000000000109
  0
CIRCLE
  5
382B
  8
0
 10
77.500000000000554
 20
119.5
 30
0.0
 40
3.2999999999999972
  0
CIRCLE
  5
382C
  8
0
 10
77.5
 20
77.5
 30
0.0
 40
47.5
  0
CIRCLE
  5
383C
  8
0
 10
77.500000000000171
 20
278.5
 30
0.0
 40
24.00710810020561
  0
CIRCLE
  5
383D
  8
0
 10
77.500000000000171
 20
278.5
 30
0.0
 40
28.000000000000028
  0
CIRCLE
  5
383E
  8
0
 10
77.500000000000171
 20
278.5
 30
0.0
 40
17.338583056341459
  0
ARC
  5
3846
  8
0
 10
77.500000000000171
 20
236.5
 30
0.0
 40
5.5
 50
0.0
 51
180.0
  0
LINE
  5
384C
  8
0
 10
71.999999999999716
 20
325.68050444834171
 30
0.0
 11
71.999999999999716
 21
320.5
 31
0.0
  0
LINE
  5
3850
  8
0
 10
35.500000000000107
 20
284.0
 30
0.0
 11
30.319495551658289
 21
284.0
 31
0.0
  0
LINE
  5
3864
  8
0
 10
124.68050444834191
 20
284.00000000000028
 30
0.0
 11
119.5000000000002
 21
284.00000000000028
 31
0.0
  0
ARC
  5
3867
  8
0
 10
119.5000000000002
 20
278.50000000000028
 30
0.0
 40
5.5
 50
90.0
 51
270.0
  0
LINE
  5
386B
  8
0
 10
119.5000000000002
 20
273.00000000000028
 30
0.0
 11
124.68050444834191
 21
273.00000000000028
 31
0.0
  0
LINE
  5
386D
  8
0
 10
82.999999999999716
 20
320.50000000000011
 30
0.0
 11
82.999999999999716
 21
325.68050444834182
 31
0.0
  0
LINE
  5
386E
  8
0
 10
30.319495551658289
 20
273.0
 30
0.0
 11
35.500000000000107
 21
273.0
 31
0.0
  0
ARC
  5
3870
  8
0
 10
77.499999999999716
 20
320.5
 30
0.0
 40
5.5000000000000284
 50
180.0000000000008
 51
0.0
  0
LINE
  5
3871
  8
0
 10
83.000000000000156
 20
231.31949555165829
 30
0.0
 11
83.000000000000156
 21
236.5
 31
0.0
  0
LINE
  5
3872
  8
0
 10
72.000000000000171
 20
236.5
 30
0.0
 11
72.000000000000398
 21
231.31949555165821
 31
0.0
  0
ARC
  5
3875
  8
0
 10
35.500000000000107
 20
278.5
 30
0.0
 40
5.5000000000000284
 50
270.0
 51
90.0
  0
CIRCLE
  5
3879
  8
0
 10
77.500000000000171
 20
236.5
 30
0.0
 40
3.2999999999999821
  0
CIRCLE
  5
387B
  8
0
 10
35.500000000000107
 20
278.5
 30
0.0
 40
3.2999999999999821
  0
CIRCLE
  5
387E
  8
0
 10
119.5000000000002
 20
278.50000000000028
 30
0.0
 40
3.2999999999999541
  0
CIRCLE
  5
387F
  8
0
 10
77.499999999999716
 20
320.5
 30
0.0
 40
3.3000000000000109
  0
CIRCLE
  5
3885
  8
1
 10
77.500000000000171
 20
278.5
 30
0.0
 40
41.999999999999979
  0
CIRCLE
  5
3ECA
  8
1
 10
77.500000000000114
 20
77.500000000000028
 30
0.0
 40
41.999999999999979
  0
LINE
  5
3ECB
  8
1
 10
77.500000000000057
 20
25.0
 30
0.0
 11
77.500000000000114
 21
130.0
 31
0.0
  0
LINE
  5
3ECC
  8
1
 10
130.0000000000002
 20
278.5
 30
0.0
 11
25.000000000000171
 21
278.5
 31
0.0
  0
LINE
  5
3ECD
  8
1
 10
130.0
 20
77.500000000000028
 30
0.0
 11
25.0
 21
77.500000000000028
 31
0.0
  0
LINE
  5
3ECE
  8
1
 10
77.500000000000171
 20
226.0
 30
0.0
 11
77.500000000000171
 21
331.0
 31
0.0
  0
LINE
  5
3ED6
  8
1
 10
111.4411254969544
 20
244.5588745030459
 30
0.0
 11
102.9558441227158
 21
253.04415587728451
 31
0.0
  0
LINE
  5
3ED7
  8
1
 10
43.558874503045672
 20
43.558874503045949
 30
0.0
 11
52.044155877284247
 21
52.044155877284481
 31
0.0
  0
LINE
  5
3EDC
  8
1
 10
102.9558441227158
 20
102.9558441227157
 30
0.0
 11
111.4411254969545
 21
111.4411254969542
 31
0.0
  0
LINE
  5
3EDD
  8
1
 10
52.044155877284538
 20
303.9558441227158
 30
0.0
 11
43.558874503045843
 21
312.44112549695421
 31
0.0
  0
ARC
  5
411A
  8
0
 10
77.500000000000114
 20
77.500000000000028
 30
0.0
 40
6.2499999999999432
 50
266.56018726773891
 51
273.4398128027695
  0
CIRCLE
  5
4129
  8
3
 10
47.801515190165048
 20
47.801515190165119
 30
0.0
 40
3.0
  0
CIRCLE
  5
412A
  8
0
 10
47.801515190165048
 20
47.801515190165119
 30
0.0
 40
2.458499999999999
  0
CIRCLE
  5
412B
  8
3
 10
107.19848480983519
 20
107.19848480983489
 30
0.0
 40
3.0
  0
CIRCLE
  5
412C
  8
0
 10
107.19848480983519
 20
107.19848480983489
 30
0.0
 40
2.458499999999999
  0
CIRCLE
  5
415A
  8
3
 10
47.801515190165162
 20
308.19848480983501
 30
0.0
 40
3.0
  0
CIRCLE
  5
415B
  8
0
 10
47.801515190165162
 20
308.19848480983501
 30
0.0
 40
2.458499999999999
  0
CIRCLE
  5
415C
  8
3
 10
107.19848480983499
 20
248.80151519016519
 30
0.0
 40
3.0
  0
CIRCLE
  5
415D
  8
0
 10
107.19848480983499
 20
248.80151519016519
 30
0.0
 40
2.458499999999999
  0
CIRCLE
  5
4161
  8
3
 10
77.500000000000171
 20
278.5
 30
0.0
 40
3.0
  0
CIRCLE
  5
4162
  8
0
 10
77.500000000000171
 20
278.5
 30
0.0
 40
2.458499999999999
  0
CIRCLE
  5
4170
  8
0
 10
77.500000000000171
 20
278.5
 30
0.0
 40
47.5
  0
TEXT
  5
423A
  8
0
 62
     3
 10
0.0
 20
0.0
 30
0.0
 40
10.0
  1
CP725-56095
  7
STANDARD1
  0
ENDSEC
  0
EOF
