  0
SECTION
  2
HEADER
  9
$ACADVER
  1
AC1009
  9
$INSBASE
 10
0.0
 20
0.0
 30
0.0
  9
$EXTMIN
 10
0.0
 20
-2.960436562073669
 30
0.0
  9
$EXTMAX
 10
95.532060027285127
 20
63.651329834166823
 30
0.0
  9
$LIMMIN
 10
0.0
 20
0.0
  9
$LIMMAX
 10
187.5
 20
135.0
  9
$ORTHOMODE
 70
     0
  9
$REGENMODE
 70
     1
  9
$FILLMODE
 70
     1
  9
$QTEXTMODE
 70
     0
  9
$MIRRTEXT
 70
     0
  9
$DRAGMODE
 70
     2
  9
$LTSCALE
 40
5.0
  9
$OSMODE
 70
  3071
  9
$ATTMODE
 70
     1
  9
$TEXTSIZE
 40
4.0
  9
$TRACEWID
 40
0.05
  9
$TEXTSTYLE
  7
STANDARD
  9
$CLAYER
  8
0
  9
$CELTYPE
  6
BYLAYER
  9
$CECOLOR
 62
   256
  9
$DIMSCALE
 40
1.0
  9
$DIMASZ
 40
3.0
  9
$DIMEXO
 40
2.0
  9
$DIMDLI
 40
0.38
  9
$DIMRND
 40
0.0
  9
$DIMDLE
 40
0.0
  9
$DIMEXE
 40
2.0
  9
$DIMTP
 40
0.0
  9
$DIMTM
 40
0.0
  9
$DIMTXT
 40
3.2000000000000002
  9
$DIMCEN
 40
0.0
  9
$DIMTSZ
 40
0.0
  9
$DIMTOL
 70
     0
  9
$DIMLIM
 70
     0
  9
$DIMTIH
 70
     0
  9
$DIMTOH
 70
     0
  9
$DIMSE1
 70
     0
  9
$DIMSE2
 70
     0
  9
$DIMTAD
 70
     1
  9
$DIMZIN
 70
     8
  9
$DIMBLK
  1

  9
$DIMASO
 70
     0
  9
$DIMSHO
 70
     0
  9
$DIMPOST
  1

  9
$DIMAPOST
  1

  9
$DIMALT
 70
     0
  9
$DIMALTD
 70
     2
  9
$DIMALTF
 40
25.399999999999999
  9
$DIMLFAC
 40
1.0
  9
$DIMTOFL
 70
     1
  9
$DIMTVP
 40
1.6000000000000001
  9
$DIMTIX
 70
     0
  9
$DIMSOXD
 70
     0
  9
$DIMSAH
 70
     0
  9
$DIMBLK1
  1

  9
$DIMBLK2
  1

  9
$DIMSTYLE
  2
STANDARD
  9
$DIMCLRD
 70
     4
  9
$DIMCLRE
 70
     4
  9
$DIMCLRT
 70
     4
  9
$DIMTFAC
 40
1.0
  9
$DIMGAP
 40
0.5
  9
$LUNITS
 70
     2
  9
$LUPREC
 70
     1
  9
$SKETCHINC
 40
0.1
  9
$FILLETRAD
 40
0.0
  9
$AUNITS
 70
     0
  9
$AUPREC
 70
     1
  9
$MENU
  1
E:\r13\win\SUPPORT\ACAD
  9
$ELEVATION
 40
0.0
  9
$PELEVATION
 40
0.0
  9
$THICKNESS
 40
0.0
  9
$LIMCHECK
 70
     0
  9
$BLIPMODE
 70
     0
  9
$CHAMFERA
 40
1.1999999999999991
  9
$CHAMFERB
 40
1.1999999999999991
  9
$SKPOLY
 70
     0
  9
$TDCREATE
 40
2449933.4048958332
  9
$TDUPDATE
 40
2456598.4990161918
  9
$TDINDWG
 40
0.0935077083
  9
$TDUSRTIMER
 40
0.0935077083
  9
$USRTIMER
 70
     1
  9
$ANGBASE
 50
0.0
  9
$ANGDIR
 70
     0
  9
$PDMODE
 70
     0
  9
$PDSIZE
 40
0.0
  9
$PLINEWID
 40
0.0
  9
$COORDS
 70
     1
  9
$SPLFRAME
 70
     0
  9
$SPLINETYPE
 70
     6
  9
$SPLINESEGS
 70
     8
  9
$ATTDIA
 70
     0
  9
$ATTREQ
 70
     1
  9
$HANDLING
 70
     1
  9
$HANDSEED
  5
D9A
  9
$SURFTAB1
 70
     6
  9
$SURFTAB2
 70
     6
  9
$SURFTYPE
 70
     6
  9
$SURFU
 70
     6
  9
$SURFV
 70
     6
  9
$UCSNAME
  2

  9
$UCSORG
 10
0.0
 20
0.0
 30
0.0
  9
$UCSXDIR
 10
1.0
 20
0.0
 30
0.0
  9
$UCSYDIR
 10
0.0
 20
1.0
 30
0.0
  9
$PUCSNAME
  2

  9
$PUCSORG
 10
0.0
 20
0.0
 30
0.0
  9
$PUCSXDIR
 10
1.0
 20
0.0
 30
0.0
  9
$PUCSYDIR
 10
0.0
 20
1.0
 30
0.0
  9
$USERI1
 70
     0
  9
$USERI2
 70
     1
  9
$USERI3
 70
     0
  9
$USERI4
 70
     0
  9
$USERI5
 70
     0
  9
$USERR1
 40
0.0
  9
$USERR2
 40
0.0
  9
$USERR3
 40
0.0
  9
$USERR4
 40
0.0
  9
$USERR5
 40
0.0
  9
$WORLDVIEW
 70
     1
  9
$SHADEDGE
 70
     3
  9
$SHADEDIF
 70
    70
  9
$TILEMODE
 70
     1
  9
$MAXACTVP
 70
    16
  9
$PLIMCHECK
 70
     0
  9
$PEXTMIN
 10
1.0000000000000000E+020
 20
1.0000000000000000E+020
 30
1.0000000000000000E+020
  9
$PEXTMAX
 10
-1.0000000000000000E+020
 20
-1.0000000000000000E+020
 30
-1.0000000000000000E+020
  9
$PLIMMIN
 10
0.0
 20
0.0
  9
$PLIMMAX
 10
12.0
 20
9.0
  9
$UNITMODE
 70
     0
  9
$VISRETAIN
 70
     0
  9
$PLINEGEN
 70
     0
  9
$PSLTSCALE
 70
     0
  0
ENDSEC
  0
SECTION
  2
TABLES
  0
TABLE
  2
VPORT
 70
     1
  0
VPORT
  2
*ACTIVE
 70
     0
 10
0.0
 20
0.0
 11
1.0
 21
1.0
 12
93.74713919532617
 22
95.281589084287575
 13
0.0
 23
0.0
 14
5.0
 24
5.0
 15
5.0
 25
5.0
 16
0.0
 26
0.0
 36
1.0
 17
0.0
 27
0.0
 37
0.0
 40
198.284298069551
 41
1.831871345029239
 42
50.0
 43
0.0
 44
0.0
 50
0.0
 51
0.0
 71
     0
 72
   500
 73
     1
 74
     0
 75
     0
 76
     0
 77
     0
 78
     2
  0
ENDTAB
  0
TABLE
  2
LTYPE
 70
     3
  0
LTYPE
  2
CONTINUOUS
 70
     0
  3
Solid Line
 72
    65
 73
     0
 40
0.0
  0
LTYPE
  2
CENTER
 70
     0
  3
____ _ ____ _ ____ _ ____ _ ____ _ ____ _ ____
 72
    65
 73
     4
 40
2.0
 49
1.25
 49
-0.25
 49
0.25
 49
-0.25
  0
LTYPE
  2
PHANTOM2
 70
     0
  3
___ _ _ ___ _ _ ___ _ _ ___ _ _
 72
    65
 73
     6
 40
1.25
 49
0.625
 49
-0.125
 49
0.125
 49
-0.125
 49
0.125
 49
-0.125
  0
ENDTAB
  0
TABLE
  2
LAYER
 70
     4
  0
LAYER
  2
0
 70
     0
 62
     7
  6
CONTINUOUS
  0
LAYER
  2
1
 70
     0
 62
     1
  6
CENTER
  0
LAYER
  2
DEFPOINTS
 70
     0
 62
     7
  6
CONTINUOUS
  0
LAYER
  2
3
 70
     0
 62
     3
  6
CONTINUOUS
  0
ENDTAB
  0
TABLE
  2
STYLE
 70
     2
  0
STYLE
  2
STANDARD
 70
     0
 40
0.0
 41
1.0
 50
0.0
 71
     0
 42
4.0
  3
SIMPLEX
  4
BIGFONT
  0
STYLE
  2
STANDARD1
 70
     0
 40
0.0
 41
1.0
 50
0.0
 71
     0
 42
3.0
  3
txt
  4

  0
ENDTAB
  0
TABLE
  2
VIEW
 70
     1
  0
VIEW
  2
ALL
 70
     0
 40
175.0
 10
143.1020066889632
 20
87.5
 41
286.2040133779264
 11
0.0
 21
0.0
 31
1.0
 12
0.0
 22
0.0
 32
0.0
 42
50.0
 43
0.0
 44
0.0
 50
0.0
 71
     0
  0
ENDTAB
  0
TABLE
  2
UCS
 70
     0
  0
ENDTAB
  0
TABLE
  2
APPID
 70
     6
  0
APPID
  2
ACAD
 70
     0
  0
APPID
  2
ACAD_DSTYLE_DIMJAG
 70
     0
  0
APPID
  2
ACAD_DSTYLE_DIMTALN
 70
     0
  0
APPID
  2
ACAD_EXEMPT_FROM_CAD_STANDARDS
 70
     0
  0
APPID
  2
ACAD_MLEADERVER
 70
     0
  0
APPID
  2
ACAD_NAV_VCDISPLAY
 70
     0
  0
ENDTAB
  0
TABLE
  2
DIMSTYLE
 70
     1
  0
DIMSTYLE
  2
STANDARD
 70
     0
  3

  4

  5

  6

  7

 40
1.0
 41
0.18
 42
0.0625
 43
0.38
 44
0.18
 45
0.0
 46
0.0
 47
0.0
 48
0.0
140
0.18
141
0.09
142
0.0
143
25.399999999999999
144
1.0
145
0.0
146
1.0
147
0.09
 71
     0
 72
     0
 73
     1
 74
     1
 75
     0
 76
     0
 77
     0
 78
     0
170
     0
171
     2
172
     0
173
     0
174
     0
175
     0
176
     0
177
     0
178
     0
  0
ENDTAB
  0
ENDSEC
  0
SECTION
  2
BLOCKS
  0
BLOCK
  8
0
  2
$MODEL_SPACE
 70
     0
 10
0.0
 20
0.0
 30
0.0
  3
$MODEL_SPACE
  1

  0
ENDBLK
  5
8A
  8
0
  0
BLOCK
 67
     1
  8
0
  2
$PAPER_SPACE
 70
     0
 10
0.0
 20
0.0
 30
0.0
  3
$PAPER_SPACE
  1

  0
ENDBLK
  5
88
 67
     1
  8
0
  0
ENDSEC
  0
SECTION
  2
ENTITIES
  0
LINE
  5
6F3
  8
0
 10
34.095602360975533
 20
18.480373935538289
 30
0.0
 11
34.095602360975533
 21
18.23037392366393
 31
0.0
  0
LINE
  5
6F4
  8
0
 10
40.095602413129598
 20
18.230373923663961
 30
0.0
 11
40.095602413129598
 21
18.480373935538321
 31
0.0
  0
LINE
  5
6F5
  8
0
 10
35.595602374014049
 20
17.998488601527129
 30
0.0
 11
35.595602374014049
 21
14.730374019357329
 31
0.0
  0
LINE
  5
6F6
  8
0
 10
38.595602400091082
 20
14.730374019357351
 30
0.0
 11
38.595602400091082
 21
17.998488601527161
 31
0.0
  0
LINE
  5
6F7
  8
0
 10
35.595602374014049
 20
14.730374019357329
 30
0.0
 11
36.095602339555107
 21
14.230373704570299
 31
0.0
  0
LINE
  5
6F8
  8
0
 10
38.095602434550017
 20
14.23037370457032
 30
0.0
 11
38.595602400091082
 21
14.730374019357351
 31
0.0
  0
ARC
  5
6F9
  8
0
 10
31.405602387052539
 20
21.780373935538311
 30
0.0
 40
0.5
 50
90.0
 51
180.0
  0
ARC
  5
6FA
  8
0
 10
42.785602387052528
 20
21.780373935538339
 30
0.0
 40
0.5
 50
0.0
 51
90.0
  0
LINE
  5
6FB
  8
0
 10
30.905602285128602
 20
21.480373961615332
 30
0.0
 11
31.192347658288242
 21
20.480374030533198
 31
0.0
  0
LINE
  5
6FC
  8
0
 10
42.998857115816833
 20
20.480374030533259
 30
0.0
 11
43.285602488976473
 21
21.480373961615388
 31
0.0
  0
LINE
  5
6FD
  8
0
 10
43.285602488976473
 20
21.480373961615388
 30
0.0
 11
43.285602488976473
 21
21.780373917656959
 31
0.0
  0
LINE
  5
6FE
  8
0
 10
30.905602285128602
 20
21.780373917656899
 30
0.0
 11
30.905602285128602
 21
21.480373961615332
 31
0.0
  0
LINE
  5
6FF
  8
0
 10
31.192347658288242
 20
20.480374030533198
 30
0.0
 11
31.99034442142823
 21
18.769064812452481
 31
0.0
  0
LINE
  5
700
  8
0
 10
42.200860352676898
 20
18.769064812452541
 30
0.0
 11
42.998857115816833
 21
20.480374030533259
 31
0.0
  0
ARC
  5
701
  8
0
 10
41.747706554579992
 20
18.980373935538349
 30
0.0
 40
0.5000000000000002
 50
270.0
 51
335.00000000000028
  0
ARC
  5
702
  8
0
 10
32.443498219525111
 20
18.980373935538289
 30
0.0
 40
0.5
 50
204.99999999999969
 51
270.0
  0
LINE
  5
703
  8
0
 10
34.095602360975533
 20
18.23037392366393
 30
0.0
 11
40.095602413129598
 21
18.230373923663961
 31
0.0
  0
LINE
  5
707
  8
0
 10
35.192974395540148
 20
18.23037392366393
 30
0.0
 11
35.595602374014049
 21
17.998488601527129
 31
0.0
  0
LINE
  5
70A
  8
0
 10
38.595602400091082
 20
17.998488601527161
 30
0.0
 11
38.998230378564983
 21
18.230373923663961
 31
0.0
  0
LINE
  5
70B
  8
0
 10
35.595602374014049
 20
14.730374019357329
 30
0.0
 11
38.595602400091082
 21
14.730374019357351
 31
0.0
  0
LINE
  5
70C
  8
0
 10
38.095602434550017
 20
14.23037370457032
 30
0.0
 11
36.095602339555107
 21
14.230373704570299
 31
0.0
  0
LINE
  5
70D
  8
0
 10
31.405602367084981
 20
22.280373999613289
 30
0.0
 11
42.785602407020093
 21
22.280373999613349
 31
0.0
  0
LINE
  5
70F
  8
0
 10
43.285602488976473
 20
21.480373961615388
 30
0.0
 11
30.905602285128602
 21
21.480373961615332
 31
0.0
  0
LINE
  5
710
  8
0
 10
41.747706727546237
 20
18.480373935538349
 30
0.0
 11
32.443498046558886
 21
18.480373935538289
 31
0.0
  0
LINE
  5
711
  8
0
 10
43.285602488976473
 20
21.780373917656959
 30
0.0
 11
30.905602285128602
 21
21.780373917656899
 31
0.0
  0
LINE
  5
718
  8
0
 10
37.095602387052573
 20
53.606030361134451
 30
0.0
 11
36.095602339555107
 21
53.028680097650629
 31
0.0
  0
LINE
  5
719
  8
0
 10
36.095602339555107
 20
53.028680097650629
 30
0.0
 11
36.095602339555107
 21
51.873979570682991
 31
0.0
  0
LINE
  5
71A
  8
0
 10
36.095602339555107
 20
51.873979570682991
 30
0.0
 11
37.095602387052573
 21
51.296629307199161
 31
0.0
  0
LINE
  5
71B
  8
0
 10
37.095602387052573
 20
51.296629307199161
 30
0.0
 11
38.095602434550017
 21
51.873979570682991
 31
0.0
  0
LINE
  5
71C
  8
0
 10
38.095602434550017
 20
51.873979570682991
 30
0.0
 11
38.095602434550017
 21
53.028680097650629
 31
0.0
  0
LINE
  5
71D
  8
0
 10
38.095602434550017
 20
53.028680097650629
 30
0.0
 11
37.095602387052573
 21
53.606030361134451
 31
0.0
  0
CIRCLE
  5
71E
  8
0
 10
37.095602387052573
 20
52.451329834166813
 30
0.0
 40
3.0000000000000422
  0
CIRCLE
  5
71F
  8
0
 10
37.095602387052573
 20
52.451329834166813
 30
0.0
 40
6.1900000000000039
  0
CIRCLE
  5
720
  8
0
 10
37.095602387052573
 20
52.451329834166813
 30
0.0
 40
5.6900000000000039
  0
CIRCLE
  5
721
  8
0
 10
37.095602387052573
 20
52.451329834166813
 30
0.0
 40
3.2500000000000071
  0
LINE
  5
AFE
  8
1
 10
25.895602387052559
 20
52.451329834166813
 30
0.0
 11
48.295602387052568
 21
52.451329834166813
 31
0.0
  0
LINE
  5
AFF
  8
1
 10
37.095602387052573
 20
63.651329834166823
 30
0.0
 11
37.095602387052573
 21
41.25132983416681
 31
0.0
  0
LINE
  5
B0A
  8
1
 10
37.095602387052537
 20
27.280373999613289
 30
0.0
 11
37.095602387052537
 21
9.2303737045702974
 31
0.0
  0
LINE
  5
B36
  8
3
 10
38.325102387053292
 20
17.99848860152715
 30
0.0
 11
38.325102387053313
 21
14.45987381737749
 31
0.0
  0
LINE
  5
B37
  8
3
 10
35.866102387051832
 20
17.998488601527129
 30
0.0
 11
35.866102387051832
 21
14.45987381737746
 31
0.0
  0
LINE
  5
CD4
  8
0
 10
36.144288391296342
 20
18.23037392366394
 30
0.0
 11
36.370234582063333
 21
17.99823208036549
 31
0.0
  0
LINE
  5
CD5
  8
0
 10
37.82097019204177
 20
17.998232080365511
 30
0.0
 11
38.04691638280876
 21
18.230373923663961
 31
0.0
  0
LINE
  5
CD6
  8
0
 10
36.321415642232232
 20
17.99823208036549
 30
0.0
 11
36.144288391296342
 21
18.23037392366394
 31
0.0
  0
LINE
  5
CD7
  8
0
 10
38.04691638280876
 20
18.230373923663961
 30
0.0
 11
37.869789131872878
 21
17.998232080365511
 31
0.0
  0
LINE
  5
CDA
  8
0
 10
35.595602374014049
 20
17.998488601527129
 30
0.0
 11
36.321219913243773
 21
17.998488601527129
 31
0.0
  0
LINE
  5
CDB
  8
0
 10
37.869984860861337
 20
17.99848860152715
 30
0.0
 11
38.595602400091082
 21
17.998488601527161
 31
0.0
  0
LINE
  5
CDC
  8
0
 10
36.369984907215837
 20
17.998488601527129
 30
0.0
 11
37.821219866889273
 21
17.99848860152715
 31
0.0
  0
TEXT
  5
D43
  8
0
 62
     3
 10
0.0
 20
0.0
 30
0.0
 40
10.0
  1
CP725-16032P
  7
STANDARD1
  0
ENDSEC
  0
EOF
