  0
SECTION
  2
HEADER
  9
$ACADVER
  1
AC1009
  9
$INSBASE
 10
0.0
 20
0.0
 30
0.0
  9
$EXTMIN
 10
0.0
 20
-2.960436562073669
 30
0.0
  9
$EXTMAX
 10
86.214188267394263
 20
154.4999987483024
 30
0.0
  9
$LIMMIN
 10
0.0
 20
0.0
  9
$LIMMAX
 10
187.5
 20
135.0
  9
$ORTHOMODE
 70
     1
  9
$REGENMODE
 70
     1
  9
$FILLMODE
 70
     1
  9
$QTEXTMODE
 70
     0
  9
$MIRRTEXT
 70
     0
  9
$DRAGMODE
 70
     2
  9
$LTSCALE
 40
5.0
  9
$OSMODE
 70
  3071
  9
$ATTMODE
 70
     1
  9
$TEXTSIZE
 40
4.0
  9
$TRACEWID
 40
0.05
  9
$TEXTSTYLE
  7
STANDARD
  9
$CLAYER
  8
0
  9
$CELTYPE
  6
BYLAYER
  9
$CECOLOR
 62
   256
  9
$DIMSCALE
 40
1.0
  9
$DIMASZ
 40
3.0
  9
$DIMEXO
 40
2.0
  9
$DIMDLI
 40
0.38
  9
$DIMRND
 40
0.0
  9
$DIMDLE
 40
0.0
  9
$DIMEXE
 40
2.0
  9
$DIMTP
 40
0.0
  9
$DIMTM
 40
0.0
  9
$DIMTXT
 40
3.2000000000000002
  9
$DIMCEN
 40
0.0
  9
$DIMTSZ
 40
0.0
  9
$DIMTOL
 70
     0
  9
$DIMLIM
 70
     0
  9
$DIMTIH
 70
     0
  9
$DIMTOH
 70
     0
  9
$DIMSE1
 70
     0
  9
$DIMSE2
 70
     0
  9
$DIMTAD
 70
     1
  9
$DIMZIN
 70
     8
  9
$DIMBLK
  1

  9
$DIMASO
 70
     0
  9
$DIMSHO
 70
     0
  9
$DIMPOST
  1

  9
$DIMAPOST
  1

  9
$DIMALT
 70
     0
  9
$DIMALTD
 70
     2
  9
$DIMALTF
 40
25.399999999999999
  9
$DIMLFAC
 40
1.0
  9
$DIMTOFL
 70
     1
  9
$DIMTVP
 40
1.6000000000000001
  9
$DIMTIX
 70
     0
  9
$DIMSOXD
 70
     0
  9
$DIMSAH
 70
     0
  9
$DIMBLK1
  1

  9
$DIMBLK2
  1

  9
$DIMSTYLE
  2
STANDARD
  9
$DIMCLRD
 70
     4
  9
$DIMCLRE
 70
     4
  9
$DIMCLRT
 70
     4
  9
$DIMTFAC
 40
1.0
  9
$DIMGAP
 40
0.5
  9
$LUNITS
 70
     2
  9
$LUPREC
 70
     1
  9
$SKETCHINC
 40
0.1
  9
$FILLETRAD
 40
0.0
  9
$AUNITS
 70
     0
  9
$AUPREC
 70
     1
  9
$MENU
  1
E:\r13\win\SUPPORT\ACAD
  9
$ELEVATION
 40
0.0
  9
$PELEVATION
 40
0.0
  9
$THICKNESS
 40
0.0
  9
$LIMCHECK
 70
     0
  9
$BLIPMODE
 70
     0
  9
$CHAMFERA
 40
1.1999999999999991
  9
$CHAMFERB
 40
1.1999999999999991
  9
$SKPOLY
 70
     0
  9
$TDCREATE
 40
2449933.4048958332
  9
$TDUPDATE
 40
2456598.4987886921
  9
$TDINDWG
 40
0.0989745718
  9
$TDUSRTIMER
 40
0.0989745718
  9
$USRTIMER
 70
     1
  9
$ANGBASE
 50
0.0
  9
$ANGDIR
 70
     0
  9
$PDMODE
 70
     0
  9
$PDSIZE
 40
0.0
  9
$PLINEWID
 40
0.0
  9
$COORDS
 70
     1
  9
$SPLFRAME
 70
     0
  9
$SPLINETYPE
 70
     6
  9
$SPLINESEGS
 70
     8
  9
$ATTDIA
 70
     0
  9
$ATTREQ
 70
     1
  9
$HANDLING
 70
     1
  9
$HANDSEED
  5
1951
  9
$SURFTAB1
 70
     6
  9
$SURFTAB2
 70
     6
  9
$SURFTYPE
 70
     6
  9
$SURFU
 70
     6
  9
$SURFV
 70
     6
  9
$UCSNAME
  2

  9
$UCSORG
 10
0.0
 20
0.0
 30
0.0
  9
$UCSXDIR
 10
1.0
 20
0.0
 30
0.0
  9
$UCSYDIR
 10
0.0
 20
1.0
 30
0.0
  9
$PUCSNAME
  2

  9
$PUCSORG
 10
0.0
 20
0.0
 30
0.0
  9
$PUCSXDIR
 10
1.0
 20
0.0
 30
0.0
  9
$PUCSYDIR
 10
0.0
 20
1.0
 30
0.0
  9
$USERI1
 70
     0
  9
$USERI2
 70
     1
  9
$USERI3
 70
     0
  9
$USERI4
 70
     0
  9
$USERI5
 70
     0
  9
$USERR1
 40
0.0
  9
$USERR2
 40
0.0
  9
$USERR3
 40
0.0
  9
$USERR4
 40
0.0
  9
$USERR5
 40
0.0
  9
$WORLDVIEW
 70
     1
  9
$SHADEDGE
 70
     3
  9
$SHADEDIF
 70
    70
  9
$TILEMODE
 70
     1
  9
$MAXACTVP
 70
    16
  9
$PLIMCHECK
 70
     0
  9
$PEXTMIN
 10
1.0000000000000000E+020
 20
1.0000000000000000E+020
 30
1.0000000000000000E+020
  9
$PEXTMAX
 10
-1.0000000000000000E+020
 20
-1.0000000000000000E+020
 30
-1.0000000000000000E+020
  9
$PLIMMIN
 10
0.0
 20
0.0
  9
$PLIMMAX
 10
12.0
 20
9.0
  9
$UNITMODE
 70
     0
  9
$VISRETAIN
 70
     0
  9
$PLINEGEN
 70
     0
  9
$PSLTSCALE
 70
     0
  0
ENDSEC
  0
SECTION
  2
TABLES
  0
TABLE
  2
VPORT
 70
     1
  0
VPORT
  2
*ACTIVE
 70
     0
 10
0.0
 20
0.0
 11
1.0
 21
1.0
 12
98.110409362732241
 22
75.770679218014266
 13
0.0
 23
0.0
 14
5.0
 24
5.0
 15
5.0
 25
5.0
 16
0.0
 26
0.0
 36
1.0
 17
0.0
 27
0.0
 37
0.0
 40
158.88033939511041
 41
1.831871345029239
 42
50.0
 43
0.0
 44
0.0
 50
0.0
 51
0.0
 71
     0
 72
   500
 73
     1
 74
     0
 75
     0
 76
     0
 77
     0
 78
     2
  0
ENDTAB
  0
TABLE
  2
LTYPE
 70
     4
  0
LTYPE
  2
CONTINUOUS
 70
     0
  3
Solid Line
 72
    65
 73
     0
 40
0.0
  0
LTYPE
  2
CENTER
 70
     0
  3
____ _ ____ _ ____ _ ____ _ ____ _ ____ _ ____
 72
    65
 73
     4
 40
2.0
 49
1.25
 49
-0.25
 49
0.25
 49
-0.25
  0
LTYPE
  2
HIDDEN
 70
     0
  3
Hidden __ __ __ __ __ __ __ __ __ __ __ __ __ __
 72
    65
 73
     2
 40
1.905
 49
1.27
 49
-0.635
  0
LTYPE
  2
PHANTOM2
 70
     0
  3
___ _ _ ___ _ _ ___ _ _ ___ _ _
 72
    65
 73
     6
 40
1.25
 49
0.625
 49
-0.125
 49
0.125
 49
-0.125
 49
0.125
 49
-0.125
  0
ENDTAB
  0
TABLE
  2
LAYER
 70
     5
  0
LAYER
  2
0
 70
     0
 62
     7
  6
CONTINUOUS
  0
LAYER
  2
1
 70
     0
 62
     1
  6
CENTER
  0
LAYER
  2
DEFPOINTS
 70
     0
 62
     7
  6
CONTINUOUS
  0
LAYER
  2
3
 70
     0
 62
     3
  6
CONTINUOUS
  0
LAYER
  2
2
 70
     0
 62
     2
  6
HIDDEN
  0
ENDTAB
  0
TABLE
  2
STYLE
 70
     2
  0
STYLE
  2
STANDARD
 70
     0
 40
0.0
 41
1.0
 50
0.0
 71
     0
 42
4.0
  3
SIMPLEX
  4
BIGFONT
  0
STYLE
  2
STANDARD1
 70
     0
 40
0.0
 41
1.0
 50
0.0
 71
     0
 42
3.0
  3
txt
  4

  0
ENDTAB
  0
TABLE
  2
VIEW
 70
     1
  0
VIEW
  2
ALL
 70
     0
 40
175.0
 10
143.1020066889632
 20
87.5
 41
286.2040133779264
 11
0.0
 21
0.0
 31
1.0
 12
0.0
 22
0.0
 32
0.0
 42
50.0
 43
0.0
 44
0.0
 50
0.0
 71
     0
  0
ENDTAB
  0
TABLE
  2
UCS
 70
     0
  0
ENDTAB
  0
TABLE
  2
APPID
 70
     7
  0
APPID
  2
ACAD
 70
     0
  0
APPID
  2
ACAD_DSTYLE_DIMJAG
 70
     0
  0
APPID
  2
ACAD_DSTYLE_DIMTALN
 70
     0
  0
APPID
  2
ACAD_EXEMPT_FROM_CAD_STANDARDS
 70
     0
  0
APPID
  2
ACAD_DSTYLE_DIMRADIAL_EXTENSION
 70
     0
  0
APPID
  2
ACAD_MLEADERVER
 70
     0
  0
APPID
  2
ACAD_NAV_VCDISPLAY
 70
     0
  0
ENDTAB
  0
TABLE
  2
DIMSTYLE
 70
     1
  0
DIMSTYLE
  2
STANDARD
 70
     0
  3

  4

  5

  6

  7

 40
1.0
 41
0.18
 42
0.0625
 43
0.38
 44
0.18
 45
0.0
 46
0.0
 47
0.0
 48
0.0
140
0.18
141
0.09
142
0.0
143
25.399999999999999
144
1.0
145
0.0
146
1.0
147
0.09
 71
     0
 72
     0
 73
     1
 74
     1
 75
     0
 76
     0
 77
     0
 78
     0
170
     0
171
     2
172
     0
173
     0
174
     0
175
     0
176
     0
177
     0
178
     0
  0
ENDTAB
  0
ENDSEC
  0
SECTION
  2
BLOCKS
  0
BLOCK
  8
0
  2
$MODEL_SPACE
 70
     0
 10
0.0
 20
0.0
 30
0.0
  3
$MODEL_SPACE
  1

  0
ENDBLK
  5
8A
  8
0
  0
BLOCK
 67
     1
  8
0
  2
$PAPER_SPACE
 70
     0
 10
0.0
 20
0.0
 30
0.0
  3
$PAPER_SPACE
  1

  0
ENDBLK
  5
88
 67
     1
  8
0
  0
ENDSEC
  0
SECTION
  2
ENTITIES
  0
LINE
  5
1638
  8
0
 10
24.99999913573274
 20
145.49999855831271
 30
0.0
 11
24.999999135732679
 21
127.9999980181456
 31
0.0
  0
LINE
  5
1639
  8
0
 10
81.000000864267435
 20
127.9999980181454
 30
0.0
 11
81.000000864267435
 21
145.49999855831251
 31
0.0
  0
LINE
  5
163A
  8
0
 10
24.999999135732679
 20
127.9999980181456
 30
0.0
 11
25.50000014901164
 21
127.49999886751181
 31
0.0
  0
LINE
  5
163B
  8
0
 10
80.499999850988473
 20
127.49999886751159
 30
0.0
 11
81.000000864267435
 21
127.9999980181454
 31
0.0
  0
LINE
  5
163C
  8
0
 10
25.049999982118688
 20
148.99999872455379
 30
0.0
 11
25.049999982118688
 21
145.49999855831271
 31
0.0
  0
LINE
  5
163D
  8
0
 10
80.950000017881479
 20
145.49999855831251
 30
0.0
 11
80.950000017881479
 21
148.99999872455359
 31
0.0
  0
LINE
  5
163E
  8
0
 10
80.950000017881479
 20
148.99999872455359
 30
0.0
 11
80.450000867247667
 21
149.4999987483024
 31
0.0
  0
LINE
  5
163F
  8
0
 10
25.549999132752561
 20
149.49999874830249
 30
0.0
 11
25.049999982118688
 21
148.99999872455379
 31
0.0
  0
ARC
  5
1640
  8
0
 10
75.900000000000063
 20
127.0999987483024
 30
0.0
 40
0.4000000000000057
 50
90.0
 51
180.0
  0
ARC
  5
1641
  8
0
 10
30.100000000000051
 20
127.0999987483026
 30
0.0
 40
0.4000000000000057
 50
0.0
 51
90.0
  0
LINE
  5
1642
  8
0
 10
30.49999910593036
 20
127.0999995470048
 30
0.0
 11
30.49999910593036
 21
123.9999992251397
 31
0.0
  0
LINE
  5
1643
  8
0
 10
75.500000894069643
 20
123.9999992251395
 30
0.0
 11
75.500000894069757
 21
127.0999995470046
 31
0.0
  0
LINE
  5
1644
  8
0
 10
30.49999910593036
 20
123.9999992251397
 30
0.0
 11
35.142148539423907
 21
107.8109045922757
 31
0.0
  0
LINE
  5
1645
  8
0
 10
70.857851460576015
 20
107.81090459227561
 30
0.0
 11
75.500000894069643
 21
123.9999992251395
 31
0.0
  0
ARC
  5
1646
  8
0
 10
68.454697931084496
 20
108.4999987483024
 30
0.0
 40
2.5
 50
270.0
 51
343.99999999999852
  0
ARC
  5
1647
  8
0
 10
37.54530206891534
 20
108.4999987483025
 30
0.0
 40
2.5000000000000231
 50
196.00000000000151
 51
270.0
  0
LINE
  5
1648
  8
0
 10
24.99999913573274
 20
145.49999855831271
 30
0.0
 11
81.000000864267435
 21
145.49999855831251
 31
0.0
  0
LINE
  5
164A
  8
0
 10
24.999999135732679
 20
127.9999980181456
 30
0.0
 11
81.000000864267321
 21
127.9999980181454
 31
0.0
  0
LINE
  5
164B
  8
0
 10
80.499999850988345
 20
127.49999886751159
 30
0.0
 11
25.50000014901164
 21
127.49999886751181
 31
0.0
  0
LINE
  5
164D
  8
0
 10
80.950000017881479
 20
148.99999872455359
 30
0.0
 11
25.049999982118688
 21
148.99999872455379
 31
0.0
  0
LINE
  5
164E
  8
0
 10
25.549999132752561
 20
149.49999874830249
 30
0.0
 11
80.450000867247667
 21
149.4999987483024
 31
0.0
  0
LINE
  5
164F
  8
0
 10
30.49999910593036
 20
123.9999992251397
 30
0.0
 11
75.500000894069643
 21
123.9999992251395
 31
0.0
  0
LINE
  5
1650
  8
0
 10
68.457199627657104
 20
105.9999999999999
 30
0.0
 11
37.545301645994158
 21
106.0000000000001
 31
0.0
  0
CIRCLE
  5
167A
  8
0
 10
53.0
 20
53.000000000000057
 30
0.0
 40
10.0
  0
CIRCLE
  5
167B
  8
0
 10
53.0
 20
53.0
 30
0.0
 40
22.5
  0
CIRCLE
  5
167D
  8
0
 10
53.0
 20
53.0
 30
0.0
 40
7.0
  0
CIRCLE
  5
167F
  8
0
 10
53.0
 20
53.0
 30
0.0
 40
27.49999999999995
  0
CIRCLE
  5
1680
  8
0
 10
53.0
 20
53.0
 30
0.0
 40
28.0
  0
CIRCLE
  5
168A
  8
3
 10
53.0
 20
53.000000000000057
 30
0.0
 40
8.0000003799796104
  0
LINE
  5
16D1
  8
2
 10
63.99999994039544
 20
149.4999987483024
 30
0.0
 11
63.499999858439047
 21
148.99999872455371
 31
0.0
  0
LINE
  5
16D2
  8
2
 10
42.50000014156111
 20
148.99999872455371
 30
0.0
 11
42.00000005960473
 21
149.49999874830249
 31
0.0
  0
LINE
  5
16D7
  8
2
 10
63.499999858439047
 20
148.99999872455371
 30
0.0
 11
42.50000014156111
 21
148.99999872455371
 31
0.0
  0
LINE
  5
16D9
  8
2
 10
45.999999783933241
 20
148.99999872455371
 30
0.0
 11
45.999999783933191
 21
120.9999987334012
 31
0.0
  0
LINE
  5
16DC
  8
2
 10
43.000000223517382
 20
120.9999987334013
 30
0.0
 11
43.000000223517382
 21
106.49999728798871
 31
0.0
  0
LINE
  5
16DD
  8
2
 10
42.500000141561003
 20
106.0
 30
0.0
 11
43.000000223517382
 21
106.49999728798871
 31
0.0
  0
LINE
  5
16E1
  8
2
 10
62.999999776482547
 20
106.49999728798861
 30
0.0
 11
63.49999985843894
 21
106.0
 31
0.0
  0
LINE
  5
16E2
  8
2
 10
62.999999776482547
 20
106.49999728798861
 30
0.0
 11
62.999999776482547
 21
120.9999987334013
 31
0.0
  0
LINE
  5
16E3
  8
2
 10
43.000000223517453
 20
120.9999987334013
 30
0.0
 11
62.999999776482547
 21
120.9999987334013
 31
0.0
  0
LINE
  5
16E5
  8
2
 10
60.000000216066802
 20
120.9999987334012
 30
0.0
 11
60.000000216066923
 21
148.99999872455371
 31
0.0
  0
LINE
  5
16F3
  8
2
 10
43.000000223517382
 20
106.49999728798871
 30
0.0
 11
62.999999776482547
 21
106.49999728798861
 31
0.0
  0
LINE
  5
170C
  8
2
 10
44.999999620020517
 20
148.99999872455371
 30
0.0
 11
44.999999620020361
 21
120.9999987334013
 31
0.0
  0
LINE
  5
170D
  8
2
 10
61.000000379979582
 20
120.9999987334013
 30
0.0
 11
61.000000379979689
 21
148.99999872455359
 31
0.0
  0
LINE
  5
184A
  8
1
 10
53.000000000000028
 20
154.4999987483024
 30
0.0
 11
52.999999999999972
 21
101.0
 31
0.0
  0
LINE
  5
184B
  8
1
 10
86.0
 20
53.0
 30
0.0
 11
20.0
 21
53.0
 31
0.0
  0
LINE
  5
184F
  8
1
 10
53.0
 20
86.0
 30
0.0
 11
53.0
 21
20.00000000000011
 31
0.0
  0
TEXT
  5
18F1
  8
0
 62
     3
 10
0.0
 20
0.0
 30
0.0
 40
10.0
  1
CP720-56095
  7
STANDARD1
  0
ENDSEC
  0
EOF
