  0
SECTION
  2
HEADER
  9
$ACADVER
  1
AC1009
  9
$INSBASE
 10
0.0
 20
0.0
 30
0.0
  9
$EXTMIN
 10
0.0
 20
-1.4802182810368341
 30
0.0
  9
$EXTMAX
 10
142.99999999999989
 20
62.999999999999972
 30
0.0
  9
$LIMMIN
 10
0.0
 20
0.0
  9
$LIMMAX
 10
12.0
 20
9.0
  9
$ORTHOMODE
 70
     1
  9
$REGENMODE
 70
     1
  9
$FILLMODE
 70
     1
  9
$QTEXTMODE
 70
     0
  9
$MIRRTEXT
 70
     0
  9
$DRAGMODE
 70
     2
  9
$LTSCALE
 40
5.0
  9
$OSMODE
 70
    37
  9
$ATTMODE
 70
     1
  9
$TEXTSIZE
 40
0.2
  9
$TRACEWID
 40
0.05
  9
$TEXTSTYLE
  7
STANDARD
  9
$CLAYER
  8
0
  9
$CELTYPE
  6
BYLAYER
  9
$CECOLOR
 62
   256
  9
$DIMSCALE
 40
1.0
  9
$DIMASZ
 40
3.0
  9
$DIMEXO
 40
2.0
  9
$DIMDLI
 40
0.38
  9
$DIMRND
 40
0.0
  9
$DIMDLE
 40
0.0
  9
$DIMEXE
 40
2.0
  9
$DIMTP
 40
0.0
  9
$DIMTM
 40
0.0
  9
$DIMTXT
 40
3.0
  9
$DIMCEN
 40
0.09
  9
$DIMTSZ
 40
0.0
  9
$DIMTOL
 70
     0
  9
$DIMLIM
 70
     0
  9
$DIMTIH
 70
     0
  9
$DIMTOH
 70
     0
  9
$DIMSE1
 70
     0
  9
$DIMSE2
 70
     0
  9
$DIMTAD
 70
     1
  9
$DIMZIN
 70
     8
  9
$DIMBLK
  1

  9
$DIMASO
 70
     1
  9
$DIMSHO
 70
     1
  9
$DIMPOST
  1

  9
$DIMAPOST
  1

  9
$DIMALT
 70
     0
  9
$DIMALTD
 70
     2
  9
$DIMALTF
 40
25.399999999999999
  9
$DIMLFAC
 40
1.0
  9
$DIMTOFL
 70
     1
  9
$DIMTVP
 40
0.0
  9
$DIMTIX
 70
     0
  9
$DIMSOXD
 70
     0
  9
$DIMSAH
 70
     0
  9
$DIMBLK1
  1

  9
$DIMBLK2
  1

  9
$DIMSTYLE
  2
STANDARD
  9
$DIMCLRD
 70
   256
  9
$DIMCLRE
 70
   256
  9
$DIMCLRT
 70
   256
  9
$DIMTFAC
 40
1.0
  9
$DIMGAP
 40
1.0
  9
$LUNITS
 70
     2
  9
$LUPREC
 70
     1
  9
$SKETCHINC
 40
0.1
  9
$FILLETRAD
 40
0.0
  9
$AUNITS
 70
     0
  9
$AUPREC
 70
     0
  9
$MENU
  1
.
  9
$ELEVATION
 40
0.0
  9
$PELEVATION
 40
0.0
  9
$THICKNESS
 40
0.0
  9
$LIMCHECK
 70
     0
  9
$BLIPMODE
 70
     0
  9
$CHAMFERA
 40
0.0
  9
$CHAMFERB
 40
0.0
  9
$SKPOLY
 70
     0
  9
$TDCREATE
 40
2453083.4120647679
  9
$TDUPDATE
 40
2458527.670080937
  9
$TDINDWG
 40
0.7795783333
  9
$TDUSRTIMER
 40
0.7795782176
  9
$USRTIMER
 70
     1
  9
$ANGBASE
 50
0.0
  9
$ANGDIR
 70
     0
  9
$PDMODE
 70
     0
  9
$PDSIZE
 40
0.0
  9
$PLINEWID
 40
0.0
  9
$COORDS
 70
     1
  9
$SPLFRAME
 70
     0
  9
$SPLINETYPE
 70
     6
  9
$SPLINESEGS
 70
     8
  9
$ATTDIA
 70
     0
  9
$ATTREQ
 70
     1
  9
$HANDLING
 70
     1
  9
$HANDSEED
  5
8CAF
  9
$SURFTAB1
 70
     6
  9
$SURFTAB2
 70
     6
  9
$SURFTYPE
 70
     6
  9
$SURFU
 70
     6
  9
$SURFV
 70
     6
  9
$UCSNAME
  2

  9
$UCSORG
 10
0.0
 20
0.0
 30
0.0
  9
$UCSXDIR
 10
1.0
 20
0.0
 30
0.0
  9
$UCSYDIR
 10
0.0
 20
1.0
 30
0.0
  9
$PUCSNAME
  2

  9
$PUCSORG
 10
0.0
 20
0.0
 30
0.0
  9
$PUCSXDIR
 10
1.0
 20
0.0
 30
0.0
  9
$PUCSYDIR
 10
0.0
 20
1.0
 30
0.0
  9
$USERI1
 70
     0
  9
$USERI2
 70
     1
  9
$USERI3
 70
     0
  9
$USERI4
 70
     0
  9
$USERI5
 70
     0
  9
$USERR1
 40
0.0
  9
$USERR2
 40
0.0
  9
$USERR3
 40
0.0
  9
$USERR4
 40
0.0
  9
$USERR5
 40
0.0
  9
$WORLDVIEW
 70
     1
  9
$SHADEDGE
 70
     3
  9
$SHADEDIF
 70
    70
  9
$TILEMODE
 70
     1
  9
$MAXACTVP
 70
    64
  9
$PLIMCHECK
 70
     0
  9
$PEXTMIN
 10
0.0
 20
0.0
 30
0.0
  9
$PEXTMAX
 10
0.0
 20
0.0
 30
0.0
  9
$PLIMMIN
 10
0.0
 20
0.0
  9
$PLIMMAX
 10
12.0
 20
9.0
  9
$UNITMODE
 70
     0
  9
$VISRETAIN
 70
     1
  9
$PLINEGEN
 70
     0
  9
$PSLTSCALE
 70
     1
  0
ENDSEC
  0
SECTION
  2
TABLES
  0
TABLE
  2
VPORT
 70
     1
  0
VPORT
  2
*ACTIVE
 70
     0
 10
0.0
 20
0.0
 11
1.0
 21
1.0
 12
181.17331288343561
 22
75.0
 13
0.0
 23
0.0
 14
0.5
 24
0.5
 15
0.5
 25
0.5
 16
0.0
 26
0.0
 36
1.0
 17
0.0
 27
0.0
 37
0.0
 40
150.0
 41
2.415644171779141
 42
50.0
 43
0.0
 44
0.0
 50
0.0
 51
0.0
 71
     0
 72
  1000
 73
     1
 74
     2
 75
     0
 76
     0
 77
     0
 78
     0
  0
ENDTAB
  0
TABLE
  2
LTYPE
 70
     3
  0
LTYPE
  2
CONTINUOUS
 70
     0
  3
Solid Line
 72
    65
 73
     0
 40
0.0
  0
LTYPE
  2
CENTER
 70
     0
  3
____ _ ____ _ ____ _ ____ _ ____ _ ____ _ ____
 72
    65
 73
     4
 40
2.0
 49
1.25
 49
-0.25
 49
0.25
 49
-0.25
  0
LTYPE
  2
PHANTOM2
 70
     0
  3
___ _ _ ___ _ _ ___ _ _ ___ _ _
 72
    65
 73
     6
 40
1.25
 49
0.625
 49
-0.125
 49
0.125
 49
-0.125
 49
0.125
 49
-0.125
  0
ENDTAB
  0
TABLE
  2
LAYER
 70
     4
  0
LAYER
  2
0
 70
     0
 62
     7
  6
CONTINUOUS
  0
LAYER
  2
1
 70
     0
 62
     1
  6
CENTER
  0
LAYER
  2
DEFPOINTS
 70
     0
 62
     7
  6
CONTINUOUS
  0
LAYER
  2
3
 70
     0
 62
     3
  6
CONTINUOUS
  0
ENDTAB
  0
TABLE
  2
STYLE
 70
     2
  0
STYLE
  2
STANDARD
 70
     0
 40
0.0
 41
1.0
 50
0.0
 71
     0
 42
0.2
  3
simplex.shx
  4
bigfont.shx
  0
STYLE
  2
STANDARD1
 70
     0
 40
0.0
 41
1.0
 50
0.0
 71
     0
 42
3.0
  3
txt
  4

  0
ENDTAB
  0
TABLE
  2
VIEW
 70
     0
  0
ENDTAB
  0
TABLE
  2
UCS
 70
     0
  0
ENDTAB
  0
TABLE
  2
APPID
 70
    10
  0
APPID
  2
ACAD
 70
     0
  0
APPID
  2
ACAD_MLEADERVER
 70
     0
  0
APPID
  2
ACAD_NAV_VCDISPLAY
 70
     0
  0
APPID
  2
ACAD_EXEMPT_FROM_CAD_STANDARDS
 70
     0
  0
APPID
  2
ACAD_DSTYLE_DIMRADIAL_EXTENSION
 70
     0
  0
APPID
  2
ACAD_DSTYLE_DIMJAG
 70
     0
  0
APPID
  2
ACAD_DSTYLE_DIMTALN
 70
     0
  0
APPID
  2
ACAD_DSTYLE_DIM_LINETYPE
 70
     0
  0
APPID
  2
ACAD_DSTYLE_DIM_EXT1_LINETYPE
 70
     0
  0
APPID
  2
ACAD_DSTYLE_DIM_EXT2_LINETYPE
 70
     0
  0
ENDTAB
  0
TABLE
  2
DIMSTYLE
 70
     1
  0
DIMSTYLE
  2
STANDARD
 70
     0
  3

  4

  5

  6

  7

 40
1.0
 41
3.0
 42
2.0
 43
0.38
 44
2.0
 45
0.0
 46
0.0
 47
0.0
 48
0.0
140
3.0
141
0.09
142
0.0
143
25.399999999999999
144
1.0
145
0.0
146
1.0
147
1.0
 71
     0
 72
     0
 73
     0
 74
     0
 75
     0
 76
     0
 77
     1
 78
     8
170
     0
171
     2
172
     1
173
     0
174
     0
175
     0
176
   256
177
   256
178
   256
  0
ENDTAB
  0
ENDSEC
  0
SECTION
  2
BLOCKS
  0
BLOCK
  8
0
  2
$MODEL_SPACE
 70
     0
 10
0.0
 20
0.0
 30
0.0
  3
$MODEL_SPACE
  1

  0
ENDBLK
  5
21
  8
0
  0
BLOCK
 67
     1
  8
0
  2
$PAPER_SPACE
 70
     0
 10
0.0
 20
0.0
 30
0.0
  3
$PAPER_SPACE
  1

  0
ENDBLK
  5
5B
 67
     1
  8
0
  0
ENDSEC
  0
SECTION
  2
ENTITIES
  0
TEXT
  5
1F01
  8
0
 62
     3
 10
0.0
 20
0.0
 30
0.0
 40
5.0
  1
CP185-08001
  7
STANDARD1
  0
CIRCLE
  5
86EF
  8
0
 10
130.0
 20
49.999999999999972
 30
0.0
 40
9.5
  0
LINE
  5
86F1
  8
0
 10
130.0
 20
46.535898384862229
 30
0.0
 11
127.0
 21
48.267949192431097
 31
0.0
  0
LINE
  5
86F2
  8
0
 10
133.0
 20
48.267949192431097
 30
0.0
 11
130.0
 21
46.535898384862229
 31
0.0
  0
LINE
  5
86F3
  8
0
 10
133.0
 20
51.732050807568861
 30
0.0
 11
133.0
 21
48.267949192431097
 31
0.0
  0
LINE
  5
86F4
  8
0
 10
130.0
 20
53.464101615137729
 30
0.0
 11
133.0
 21
51.732050807568861
 31
0.0
  0
LINE
  5
86F5
  8
0
 10
127.0
 20
51.732050807568861
 30
0.0
 11
130.0
 21
53.464101615137729
 31
0.0
  0
LINE
  5
86F6
  8
0
 10
127.0
 20
48.267949192431097
 30
0.0
 11
127.0
 21
51.732050807568861
 31
0.0
  0
CIRCLE
  5
86F8
  8
0
 10
130.0
 20
49.999999999999972
 30
0.0
 40
10.0
  0
LINE
  5
8705
  8
0
 10
67.299999999999983
 20
59.999999999999972
 30
0.0
 11
66.999999999999972
 21
59.700000000000017
 31
0.0
  0
LINE
  5
8706
  8
0
 10
66.999999999999972
 20
40.299999999999983
 30
0.0
 11
67.299999999999983
 21
40.0
 31
0.0
  0
LINE
  5
8707
  8
0
 10
71.499999999999972
 20
40.0
 30
0.0
 11
72.366025403784448
 21
40.499999999999993
 31
0.0
  0
LINE
  5
8708
  8
0
 10
72.366025403784448
 20
59.499999999999972
 30
0.0
 11
71.499999999999972
 21
59.999999999999972
 31
0.0
  0
LINE
  5
8709
  8
0
 10
67.299999999999983
 20
40.0
 30
0.0
 11
71.499999999999972
 21
40.0
 31
0.0
  0
LINE
  5
870A
  8
0
 10
71.499999999999972
 20
59.999999999999972
 30
0.0
 11
67.299999999999983
 21
59.999999999999972
 31
0.0
  0
LINE
  5
870B
  8
0
 10
87.207106781186525
 20
40.499999999999993
 30
0.0
 11
93.499999999999972
 21
40.499999999999993
 31
0.0
  0
LINE
  5
870C
  8
0
 10
93.499999999999972
 20
59.499999999999972
 30
0.0
 11
87.207106781186525
 21
59.499999999999972
 31
0.0
  0
ARC
  5
870D
  8
0
 10
74.792893218813447
 20
58.999999999999972
 30
0.0
 40
0.500000000000004
 50
44.999999999999488
 51
90.0
  0
ARC
  5
870E
  8
0
 10
74.792893218813447
 20
41.0
 30
0.0
 40
0.5
 50
270.0
 51
315.00000000000051
  0
ARC
  5
870F
  8
0
 10
93.499999999999972
 20
42.0
 30
0.0
 40
1.5
 50
270.0
 51
0.0
  0
ARC
  5
8710
  8
0
 10
93.499999999999972
 20
57.999999999999972
 30
0.0
 40
1.5
 50
0.0
 51
90.0
  0
ARC
  5
8711
  8
0
 10
87.207106781186525
 20
58.999999999999972
 30
0.0
 40
0.500000000000004
 50
90.0
 51
135.00000000000051
  0
ARC
  5
8712
  8
0
 10
87.207106781186525
 20
41.0
 30
0.0
 40
0.5
 50
225.0
 51
270.0
  0
LINE
  5
8713
  8
0
 10
72.366025403784448
 20
40.499999999999993
 30
0.0
 11
74.792893218813447
 21
40.499999999999993
 31
0.0
  0
LINE
  5
8714
  8
0
 10
74.792893218813447
 20
59.499999999999972
 30
0.0
 11
72.366025403784448
 21
59.499999999999972
 31
0.0
  0
LINE
  5
8715
  8
0
 10
86.853553390593248
 20
59.35355339059327
 30
0.0
 11
83.439339828220199
 21
55.939339828220199
 31
0.0
  0
LINE
  5
8716
  8
0
 10
83.439339828220199
 20
44.060660171779787
 30
0.0
 11
86.853553390593248
 21
40.646446609406723
 31
0.0
  0
LINE
  5
8717
  8
0
 10
75.146446609406723
 20
40.646446609406723
 30
0.0
 11
78.560660171779801
 21
44.060660171779787
 31
0.0
  0
LINE
  5
8718
  8
0
 10
78.560660171779801
 20
55.939339828220199
 30
0.0
 11
75.146446609406723
 21
59.35355339059327
 31
0.0
  0
LINE
  5
8719
  8
0
 10
63.499999999999972
 20
56.0
 30
0.0
 11
62.499999999999972
 21
55.422649730810377
 31
0.0
  0
LINE
  5
871A
  8
0
 10
62.499999999999972
 20
44.577350269189623
 30
0.0
 11
63.499999999999972
 21
44.0
 31
0.0
  0
LINE
  5
871B
  8
0
 10
63.499999999999972
 20
44.0
 30
0.0
 11
66.999999999999972
 21
44.0
 31
0.0
  0
LINE
  5
871C
  8
0
 10
66.999999999999972
 20
56.0
 30
0.0
 11
63.499999999999972
 21
56.0
 31
0.0
  0
ARC
  5
871D
  8
0
 10
82.378679656440369
 20
43.0
 30
0.0
 40
1.5000000000000071
 50
44.999999999999488
 51
90.0
  0
ARC
  5
871E
  8
0
 10
82.378679656440369
 20
56.999999999999972
 30
0.0
 40
1.499999999999992
 50
270.0
 51
315.00000000000051
  0
ARC
  5
871F
  8
0
 10
79.621320343559631
 20
43.0
 30
0.0
 40
1.5000000000000071
 50
90.0
 51
135.00000000000051
  0
ARC
  5
8720
  8
0
 10
79.621320343559631
 20
56.999999999999972
 30
0.0
 40
1.5000000000000011
 50
225.0
 51
270.0
  0
LINE
  5
8721
  8
0
 10
79.621320343559631
 20
44.5
 30
0.0
 11
82.378679656440369
 21
44.5
 31
0.0
  0
LINE
  5
8722
  8
0
 10
82.378679656440369
 20
55.5
 30
0.0
 11
79.621320343559631
 21
55.5
 31
0.0
  0
LINE
  5
8723
  8
0
 10
50.999999999999972
 20
54.0
 30
0.0
 11
50.0
 21
53.0
 31
0.0
  0
LINE
  5
8724
  8
0
 10
50.0
 20
47.0
 30
0.0
 11
50.999999999999972
 21
46.0
 31
0.0
  0
LINE
  5
8725
  8
0
 10
58.499999999999972
 20
46.0
 30
0.0
 11
60.138002410558983
 21
46.834603914513018
 31
0.0
  0
LINE
  5
8726
  8
0
 10
60.138002410558983
 20
53.165396085486982
 30
0.0
 11
58.499999999999972
 21
54.0
 31
0.0
  0
LINE
  5
8727
  8
0
 10
50.999999999999972
 20
46.0
 30
0.0
 11
58.499999999999972
 21
46.0
 31
0.0
  0
LINE
  5
8728
  8
0
 10
58.499999999999972
 20
54.0
 30
0.0
 11
50.999999999999972
 21
54.0
 31
0.0
  0
ARC
  5
8729
  8
0
 10
61.900000000000013
 20
53.699999999999989
 30
0.0
 40
0.5999999999999944
 50
270.0
 51
0.0
  0
ARC
  5
872A
  8
0
 10
61.900000000000013
 20
46.299999999999983
 30
0.0
 40
0.6000000000000015
 50
0.0
 51
90.0
  0
ARC
  5
872B
  8
0
 10
60.410396710402701
 20
53.699999999999989
 30
0.0
 40
0.5999999999999944
 50
243.00000000000179
 51
270.0
  0
ARC
  5
872C
  8
0
 10
60.410396710402701
 20
46.299999999999983
 30
0.0
 40
0.6000000000000015
 50
90.0
 51
116.9999999999981
  0
LINE
  5
872D
  8
0
 10
61.900000000000013
 20
53.099999999999987
 30
0.0
 11
60.410396710402701
 21
53.099999999999987
 31
0.0
  0
LINE
  5
872E
  8
0
 10
60.410396710402701
 20
46.899999999999999
 30
0.0
 11
61.900000000000013
 21
46.899999999999999
 31
0.0
  0
LINE
  5
872F
  8
0
 10
66.999999999999972
 20
40.299999999999983
 30
0.0
 11
66.999999999999972
 21
59.700000000000017
 31
0.0
  0
LINE
  5
8732
  8
0
 10
72.366025403784448
 20
40.499999999999993
 30
0.0
 11
72.366025403784448
 21
59.499999999999972
 31
0.0
  0
LINE
  5
8734
  8
0
 10
71.499999999999972
 20
40.0
 30
0.0
 11
71.499999999999972
 21
59.999999999999972
 31
0.0
  0
LINE
  5
8735
  8
0
 10
94.999999999999986
 20
57.999999999999972
 30
0.0
 11
94.999999999999986
 21
42.0
 31
0.0
  0
LINE
  5
8737
  8
0
 10
62.499999999999972
 20
44.577350269189623
 30
0.0
 11
62.499999999999972
 21
55.422649730810377
 31
0.0
  0
LINE
  5
8738
  8
0
 10
63.499999999999972
 20
56.0
 30
0.0
 11
63.499999999999972
 21
44.0
 31
0.0
  0
LINE
  5
8739
  8
0
 10
50.0
 20
47.0
 30
0.0
 11
50.0
 21
53.0
 31
0.0
  0
LINE
  5
873A
  8
0
 10
50.999999999999972
 20
54.0
 30
0.0
 11
50.999999999999972
 21
46.0
 31
0.0
  0
LINE
  5
873B
  8
0
 10
58.499999999999972
 20
54.0
 30
0.0
 11
58.499999999999972
 21
46.0
 31
0.0
  0
LINE
  5
873F
  8
0
 10
75.146446609406723
 20
40.646446609406723
 30
0.0
 11
75.146446609406723
 21
59.35355339059327
 31
0.0
  0
LINE
  5
8742
  8
0
 10
86.853553390593248
 20
40.646446609406723
 30
0.0
 11
86.853553390593248
 21
59.35355339059327
 31
0.0
  0
LINE
  5
8743
  8
0
 10
83.439339828220199
 20
55.939339828220199
 30
0.0
 11
83.439339828220199
 21
44.060660171779787
 31
0.0
  0
LINE
  5
8745
  8
0
 10
78.560660171779801
 20
44.060660171779787
 30
0.0
 11
78.560660171779801
 21
55.939339828220142
 31
0.0
  0
LINE
  5
874C
  8
0
 10
61.900000000000013
 20
46.899999999999999
 30
0.0
 11
61.900000000000013
 21
53.099999999999987
 31
0.0
  0
LINE
  5
874D
  8
0
 10
60.410396710402701
 20
53.099999999999987
 30
0.0
 11
60.410396710402701
 21
46.899999999999999
 31
0.0
  0
LINE
  5
8776
  8
3
 10
59.726631462573977
 20
53.375000087544322
 30
0.0
 11
50.374999836087198
 21
53.375000087544322
 31
0.0
  0
LINE
  5
8777
  8
3
 10
50.374999836087198
 20
46.624999912455671
 30
0.0
 11
59.726631462573977
 21
46.624999912455671
 31
0.0
  0
LINE
  5
8B71
  8
1
 10
116.9999999999999
 20
49.999999999999972
 30
0.0
 11
142.99999999999989
 21
49.999999999999972
 31
0.0
  0
LINE
  5
8B72
  8
1
 10
130.0
 20
62.999999999999972
 30
0.0
 11
130.0
 21
36.999999999999972
 31
0.0
  0
LINE
  5
8B7E
  8
1
 10
97.999999999999972
 20
49.999999999999972
 30
0.0
 11
47.0
 21
49.999999999999972
 31
0.0
  0
ENDSEC
  0
EOF
